0
SECTION
2
HEADER
9
$ACADVER
1
AC1009
9
$INSBASE
10
0.0
20
0.0
30
0.0
9
$EXTMIN
10
0.000000
20
0.000000
30
0.000000
9
$EXTMAX
10
0.000000
20
0.000000
30
0.000000
9
$UCSORG
10
0.0
20
0.0
30
0.0
9
$UCSXDIR
10
1.0
20
0.0
30
0.0
9
$UCSYDIR
10
0.0
20
1.0
30
0.0
9
$CLAYER
8
0
9
$SHADEDGE
70
3
0
ENDSEC
0
SECTION
2
TABLES
0
TABLE
2
LTYPE
70
2
0
LTYPE
2
CONTINUOUS
70
0
3
Solid line
72
65
73
0
40
0.0
0
ENDTAB
0
TABLE
2
LAYER
70
5
0
LAYER
2
0
70
0
62
7
6
CONTINUOUS
0
ENDTAB
0
TABLE
2
APPID
70
1
0
APPID
2
ACAD
70
64
0
ENDTAB
0
ENDSEC
0
SECTION
2
BLOCKS
0
ENDSEC
0
SECTION
2
ENTITIES
0
POLYLINE
66
1
8
0
6
CONTINUOUS
62
252
70
64
75
0
10
0.000000
20
0.000000
30
0.000000
0
VERTEX
8
0
6
CONTINUOUS
62
252
70
192
10
3.000000
20
0.000000
30
-11.000000
0
VERTEX
8
0
6
CONTINUOUS
62
252
70
192
10
3.000000
20
1.910130
30
-10.832885
0
VERTEX
8
0
6
CONTINUOUS
62
252
70
192
10
3.000000
20
3.762222
30
-10.336619
0
VERTEX
8
0
6
CONTINUOUS
62
252
70
192
10
3.000000
20
5.500000
30
-9.526279
0
VERTEX
8
0
6
CONTINUOUS
62
252
70
192
10
3.000000
20
7.070664
30
-8.426489
0
VERTEX
8
0
6
CONTINUOUS
62
252
70
192
10
3.000000
20
8.426489
30
-7.070664
0
VERTEX
8
0
6
CONTINUOUS
62
252
70
192
10
3.000000
20
9.526279
30
-5.500000
0
VERTEX
8
0
6
CONTINUOUS
62
252
70
192
10
3.000000
20
10.336619
30
-3.762222
0
VERTEX
8
0
6
CONTINUOUS
62
252
70
192
10
3.000000
20
10.832885
30
-1.910130
0
VERTEX
8
0
6
CONTINUOUS
62
252
70
192
10
3.000000
20
11.000000
30
0.000000
0
VERTEX
8
0
6
CONTINUOUS
62
252
70
192
10
3.000000
20
10.832885
30
1.910130
0
VERTEX
8
0
6
CONTINUOUS
62
252
70
192
10
3.000000
20
10.336619
30
3.762222
0
VERTEX
8
0
6
CONTINUOUS
62
252
70
192
10
3.000000
20
9.526279
30
5.500000
0
VERTEX
8
0
6
CONTINUOUS
62
252
70
192
10
3.000000
20
8.426489
30
7.070664
0
VERTEX
8
0
6
CONTINUOUS
62
252
70
192
10
3.000000
20
7.070664
30
8.426489
0
VERTEX
8
0
6
CONTINUOUS
62
252
70
192
10
3.000000
20
5.500000
30
9.526279
0
VERTEX
8
0
6
CONTINUOUS
62
252
70
192
10
3.000000
20
3.762222
30
10.336619
0
VERTEX
8
0
6
CONTINUOUS
62
252
70
192
10
3.000000
20
1.910130
30
10.832885
0
VERTEX
8
0
6
CONTINUOUS
62
252
70
192
10
3.000000
20
-0.000000
30
11.000000
0
VERTEX
8
0
6
CONTINUOUS
62
252
70
192
10
3.000000
20
-1.910130
30
10.832885
0
VERTEX
8
0
6
CONTINUOUS
62
252
70
192
10
3.000000
20
-3.762222
30
10.336619
0
VERTEX
8
0
6
CONTINUOUS
62
252
70
192
10
3.000000
20
-5.500000
30
9.526279
0
VERTEX
8
0
6
CONTINUOUS
62
252
70
192
10
3.000000
20
-7.070664
30
8.426489
0
VERTEX
8
0
6
CONTINUOUS
62
252
70
192
10
3.000000
20
-8.426489
30
7.070664
0
VERTEX
8
0
6
CONTINUOUS
62
252
70
192
10
3.000000
20
-9.526279
30
5.500000
0
VERTEX
8
0
6
CONTINUOUS
62
252
70
192
10
3.000000
20
-10.336619
30
3.762222
0
VERTEX
8
0
6
CONTINUOUS
62
252
70
192
10
3.000000
20
-10.832885
30
1.910130
0
VERTEX
8
0
6
CONTINUOUS
62
252
70
192
10
3.000000
20
-11.000000
30
-0.000000
0
VERTEX
8
0
6
CONTINUOUS
62
252
70
192
10
3.000000
20
-10.832885
30
-1.910130
0
VERTEX
8
0
6
CONTINUOUS
62
252
70
192
10
3.000000
20
-10.336619
30
-3.762222
0
VERTEX
8
0
6
CONTINUOUS
62
252
70
192
10
3.000000
20
-9.526279
30
-5.500000
0
VERTEX
8
0
6
CONTINUOUS
62
252
70
192
10
3.000000
20
-8.426489
30
-7.070664
0
VERTEX
8
0
6
CONTINUOUS
62
252
70
192
10
3.000000
20
-7.070664
30
-8.426489
0
VERTEX
8
0
6
CONTINUOUS
62
252
70
192
10
3.000000
20
-5.500000
30
-9.526279
0
VERTEX
8
0
6
CONTINUOUS
62
252
70
192
10
3.000000
20
-3.762222
30
-10.336619
0
VERTEX
8
0
6
CONTINUOUS
62
252
70
192
10
3.000000
20
-1.910130
30
-10.832885
0
VERTEX
8
0
6
CONTINUOUS
62
252
70
128
10
0.000000
20
0.000000
30
0.000000
71
36
72
1
73
18
0
VERTEX
8
0
6
CONTINUOUS
62
252
70
128
10
0.000000
20
0.000000
30
0.000000
71
18
72
1
73
2
0
VERTEX
8
0
6
CONTINUOUS
62
252
70
128
10
0.000000
20
0.000000
30
0.000000
71
18
72
2
73
17
0
VERTEX
8
0
6
CONTINUOUS
62
252
70
128
10
0.000000
20
0.000000
30
0.000000
71
17
72
2
73
16
0
VERTEX
8
0
6
CONTINUOUS
62
252
70
128
10
0.000000
20
0.000000
30
0.000000
71
16
72
2
73
3
0
VERTEX
8
0
6
CONTINUOUS
62
252
70
128
10
0.000000
20
0.000000
30
0.000000
71
16
72
3
73
4
0
VERTEX
8
0
6
CONTINUOUS
62
252
70
128
10
0.000000
20
0.000000
30
0.000000
71
4
72
5
73
16
0
VERTEX
8
0
6
CONTINUOUS
62
252
70
128
10
0.000000
20
0.000000
30
0.000000
71
16
72
5
73
15
0
VERTEX
8
0
6
CONTINUOUS
62
252
70
128
10
0.000000
20
0.000000
30
0.000000
71
15
72
5
73
14
0
VERTEX
8
0
6
CONTINUOUS
62
252
70
128
10
0.000000
20
0.000000
30
0.000000
71
14
72
5
73
6
0
VERTEX
8
0
6
CONTINUOUS
62
252
70
128
10
0.000000
20
0.000000
30
0.000000
71
14
72
6
73
7
0
VERTEX
8
0
6
CONTINUOUS
62
252
70
128
10
0.000000
20
0.000000
30
0.000000
71
8
72
12
73
7
0
VERTEX
8
0
6
CONTINUOUS
62
252
70
128
10
0.000000
20
0.000000
30
0.000000
71
7
72
12
73
13
0
VERTEX
8
0
6
CONTINUOUS
62
252
70
128
10
0.000000
20
0.000000
30
0.000000
71
7
72
13
73
14
0
VERTEX
8
0
6
CONTINUOUS
62
252
70
128
10
0.000000
20
0.000000
30
0.000000
71
8
72
9
73
12
0
VERTEX
8
0
6
CONTINUOUS
62
252
70
128
10
0.000000
20
0.000000
30
0.000000
71
12
72
9
73
11
0
VERTEX
8
0
6
CONTINUOUS
62
252
70
128
10
0.000000
20
0.000000
30
0.000000
71
11
72
9
73
10
0
VERTEX
8
0
6
CONTINUOUS
62
252
70
128
10
0.000000
20
0.000000
30
0.000000
71
18
72
19
73
36
0
VERTEX
8
0
6
CONTINUOUS
62
252
70
128
10
0.000000
20
0.000000
30
0.000000
71
36
72
19
73
35
0
VERTEX
8
0
6
CONTINUOUS
62
252
70
128
10
0.000000
20
0.000000
30
0.000000
71
35
72
19
73
20
0
VERTEX
8
0
6
CONTINUOUS
62
252
70
128
10
0.000000
20
0.000000
30
0.000000
71
35
72
20
73
21
0
VERTEX
8
0
6
CONTINUOUS
62
252
70
128
10
0.000000
20
0.000000
30
0.000000
71
21
72
22
73
35
0
VERTEX
8
0
6
CONTINUOUS
62
252
70
128
10
0.000000
20
0.000000
30
0.000000
71
35
72
22
73
34
0
VERTEX
8
0
6
CONTINUOUS
62
252
70
128
10
0.000000
20
0.000000
30
0.000000
71
34
72
22
73
33
0
VERTEX
8
0
6
CONTINUOUS
62
252
70
128
10
0.000000
20
0.000000
30
0.000000
71
33
72
22
73
32
0
VERTEX
8
0
6
CONTINUOUS
62
252
70
128
10
0.000000
20
0.000000
30
0.000000
71
32
72
22
73
23
0
VERTEX
8
0
6
CONTINUOUS
62
252
70
128
10
0.000000
20
0.000000
30
0.000000
71
32
72
23
73
24
0
VERTEX
8
0
6
CONTINUOUS
62
252
70
128
10
0.000000
20
0.000000
30
0.000000
71
25
72
30
73
24
0
VERTEX
8
0
6
CONTINUOUS
62
252
70
128
10
0.000000
20
0.000000
30
0.000000
71
24
72
30
73
31
0
VERTEX
8
0
6
CONTINUOUS
62
252
70
128
10
0.000000
20
0.000000
30
0.000000
71
24
72
31
73
32
0
VERTEX
8
0
6
CONTINUOUS
62
252
70
128
10
0.000000
20
0.000000
30
0.000000
71
25
72
26
73
30
0
VERTEX
8
0
6
CONTINUOUS
62
252
70
128
10
0.000000
20
0.000000
30
0.000000
71
30
72
26
73
29
0
VERTEX
8
0
6
CONTINUOUS
62
252
70
128
10
0.000000
20
0.000000
30
0.000000
71
29
72
26
73
27
0
VERTEX
8
0
6
CONTINUOUS
62
252
70
128
10
0.000000
20
0.000000
30
0.000000
71
29
72
27
73
28
0
SEQEND
0
POLYLINE
66
1
8
0
6
CONTINUOUS
62
252
70
64
75
0
10
0.000000
20
0.000000
30
0.000000
0
VERTEX
8
0
6
CONTINUOUS
62
252
70
192
10
-24.000000
20
-2.645751
30
3.000000
0
VERTEX
8
0
6
CONTINUOUS
62
252
70
192
10
-8.000000
20
-2.645751
30
3.000000
0
VERTEX
8
0
6
CONTINUOUS
62
252
70
192
10
-8.000000
20
2.645751
30
3.000000
0
VERTEX
8
0
6
CONTINUOUS
62
252
70
192
10
-24.000000
20
2.645751
30
3.000000
0
VERTEX
8
0
6
CONTINUOUS
62
252
70
128
10
0.000000
20
0.000000
30
0.000000
71
1
72
2
73
4
0
VERTEX
8
0
6
CONTINUOUS
62
252
70
128
10
0.000000
20
0.000000
30
0.000000
71
4
72
2
73
3
0
SEQEND
0
POLYLINE
66
1
8
0
6
CONTINUOUS
62
252
70
64
75
0
10
0.000000
20
0.000000
30
0.000000
0
VERTEX
8
0
6
CONTINUOUS
62
252
70
192
10
-8.000000
20
-2.645751
30
3.000000
0
VERTEX
8
0
6
CONTINUOUS
62
252
70
192
10
-8.000000
20
-2.131947
30
3.384494
0
VERTEX
8
0
6
CONTINUOUS
62
252
70
192
10
-8.000000
20
-1.563268
30
3.681874
0
VERTEX
8
0
6
CONTINUOUS
62
252
70
192
10
-8.000000
20
-0.954351
30
3.884484
0
VERTEX
8
0
6
CONTINUOUS
62
252
70
192
10
-8.000000
20
-0.320870
30
3.987110
0
VERTEX
8
0
6
CONTINUOUS
62
252
70
192
10
-8.000000
20
0.320870
30
3.987110
0
VERTEX
8
0
6
CONTINUOUS
62
252
70
192
10
-8.000000
20
0.954351
30
3.884484
0
VERTEX
8
0
6
CONTINUOUS
62
252
70
192
10
-8.000000
20
1.563268
30
3.681874
0
VERTEX
8
0
6
CONTINUOUS
62
252
70
192
10
-8.000000
20
2.131947
30
3.384494
0
VERTEX
8
0
6
CONTINUOUS
62
252
70
192
10
-8.000000
20
2.645751
30
3.000000
0
VERTEX
8
0
6
CONTINUOUS
62
252
70
128
10
0.000000
20
0.000000
30
0.000000
71
1
72
2
73
10
0
VERTEX
8
0
6
CONTINUOUS
62
252
70
128
10
0.000000
20
0.000000
30
0.000000
71
10
72
2
73
9
0
VERTEX
8
0
6
CONTINUOUS
62
252
70
128
10
0.000000
20
0.000000
30
0.000000
71
9
72
2
73
3
0
VERTEX
8
0
6
CONTINUOUS
62
252
70
128
10
0.000000
20
0.000000
30
0.000000
71
9
72
3
73
8
0
VERTEX
8
0
6
CONTINUOUS
62
252
70
128
10
0.000000
20
0.000000
30
0.000000
71
8
72
3
73
7
0
VERTEX
8
0
6
CONTINUOUS
62
252
70
128
10
0.000000
20
0.000000
30
0.000000
71
7
72
3
73
4
0
VERTEX
8
0
6
CONTINUOUS
62
252
70
128
10
0.000000
20
0.000000
30
0.000000
71
7
72
4
73
5
0
VERTEX
8
0
6
CONTINUOUS
62
252
70
128
10
0.000000
20
0.000000
30
0.000000
71
5
72
6
73
7
0
SEQEND
0
POLYLINE
66
1
8
0
6
CONTINUOUS
62
252
70
64
75
0
10
0.000000
20
0.000000
30
0.000000
0
VERTEX
8
0
6
CONTINUOUS
62
252
70
192
10
-24.000000
20
-2.645751
30
3.000000
0
VERTEX
8
0
6
CONTINUOUS
62
252
70
192
10
-24.000000
20
2.645751
30
3.000000
0
VERTEX
8
0
6
CONTINUOUS
62
252
70
192
10
-24.000000
20
3.122112
30
2.500484
0
VERTEX
8
0
6
CONTINUOUS
62
252
70
192
10
-24.000000
20
3.505504
30
1.926510
0
VERTEX
8
0
6
CONTINUOUS
62
252
70
192
10
-24.000000
20
3.784512
30
1.295170
0
VERTEX
8
0
6
CONTINUOUS
62
252
70
192
10
-24.000000
20
3.950828
30
0.625264
0
VERTEX
8
0
6
CONTINUOUS
62
252
70
192
10
-24.000000
20
3.999500
30
-0.063261
0
VERTEX
8
0
6
CONTINUOUS
62
252
70
192
10
-24.000000
20
3.929077
30
-0.749902
0
VERTEX
8
0
6
CONTINUOUS
62
252
70
192
10
-24.000000
20
3.741657
30
-1.414214
0
VERTEX
8
0
6
CONTINUOUS
62
252
70
192
10
-24.000000
20
3.442822
30
-2.036413
0
VERTEX
8
0
6
CONTINUOUS
62
252
70
192
10
-24.000000
20
3.041468
30
-2.597975
0
VERTEX
8
0
6
CONTINUOUS
62
252
70
192
10
-24.000000
20
2.549548
30
-3.082175
0
VERTEX
8
0
6
CONTINUOUS
62
252
70
192
10
-24.000000
20
1.981710
30
-3.474597
0
VERTEX
8
0
6
CONTINUOUS
62
252
70
192
10
-24.000000
20
1.354861
30
-3.763556
0
VERTEX
8
0
6
CONTINUOUS
62
252
70
192
10
-24.000000
20
0.687669
30
-3.940446
0
VERTEX
8
0
6
CONTINUOUS
62
252
70
192
10
-24.000000
20
-0.000000
30
-4.000000
0
VERTEX
8
0
6
CONTINUOUS
62
252
70
192
10
-24.000000
20
-0.687669
30
-3.940446
0
VERTEX
8
0
6
CONTINUOUS
62
252
70
192
10
-24.000000
20
-1.354861
30
-3.763556
0
VERTEX
8
0
6
CONTINUOUS
62
252
70
192
10
-24.000000
20
-1.981710
30
-3.474597
0
VERTEX
8
0
6
CONTINUOUS
62
252
70
192
10
-24.000000
20
-2.549548
30
-3.082175
0
VERTEX
8
0
6
CONTINUOUS
62
252
70
192
10
-24.000000
20
-3.041468
30
-2.597975
0
VERTEX
8
0
6
CONTINUOUS
62
252
70
192
10
-24.000000
20
-3.442822
30
-2.036413
0
VERTEX
8
0
6
CONTINUOUS
62
252
70
192
10
-24.000000
20
-3.741657
30
-1.414214
0
VERTEX
8
0
6
CONTINUOUS
62
252
70
192
10
-24.000000
20
-3.929077
30
-0.749902
0
VERTEX
8
0
6
CONTINUOUS
62
252
70
192
10
-24.000000
20
-3.999500
30
-0.063261
0
VERTEX
8
0
6
CONTINUOUS
62
252
70
192
10
-24.000000
20
-3.950828
30
0.625264
0
VERTEX
8
0
6
CONTINUOUS
62
252
70
192
10
-24.000000
20
-3.784512
30
1.295170
0
VERTEX
8
0
6
CONTINUOUS
62
252
70
192
10
-24.000000
20
-3.505504
30
1.926510
0
VERTEX
8
0
6
CONTINUOUS
62
252
70
192
10
-24.000000
20
-3.122112
30
2.500484
0
VERTEX
8
0
6
CONTINUOUS
62
252
70
128
10
0.000000
20
0.000000
30
0.000000
71
2
72
3
73
1
0
VERTEX
8
0
6
CONTINUOUS
62
252
70
128
10
0.000000
20
0.000000
30
0.000000
71
1
72
3
73
29
0
VERTEX
8
0
6
CONTINUOUS
62
252
70
128
10
0.000000
20
0.000000
30
0.000000
71
29
72
3
73
4
0
VERTEX
8
0
6
CONTINUOUS
62
252
70
128
10
0.000000
20
0.000000
30
0.000000
71
29
72
4
73
28
0
VERTEX
8
0
6
CONTINUOUS
62
252
70
128
10
0.000000
20
0.000000
30
0.000000
71
28
72
4
73
27
0
VERTEX
8
0
6
CONTINUOUS
62
252
70
128
10
0.000000
20
0.000000
30
0.000000
71
27
72
4
73
5
0
VERTEX
8
0
6
CONTINUOUS
62
252
70
128
10
0.000000
20
0.000000
30
0.000000
71
27
72
5
73
6
0
VERTEX
8
0
6
CONTINUOUS
62
252
70
128
10
0.000000
20
0.000000
30
0.000000
71
27
72
6
73
26
0
VERTEX
8
0
6
CONTINUOUS
62
252
70
128
10
0.000000
20
0.000000
30
0.000000
71
26
72
6
73
7
0
VERTEX
8
0
6
CONTINUOUS
62
252
70
128
10
0.000000
20
0.000000
30
0.000000
71
26
72
7
73
25
0
VERTEX
8
0
6
CONTINUOUS
62
252
70
128
10
0.000000
20
0.000000
30
0.000000
71
25
72
7
73
8
0
VERTEX
8
0
6
CONTINUOUS
62
252
70
128
10
0.000000
20
0.000000
30
0.000000
71
25
72
8
73
24
0
VERTEX
8
0
6
CONTINUOUS
62
252
70
128
10
0.000000
20
0.000000
30
0.000000
71
24
72
8
73
9
0
VERTEX
8
0
6
CONTINUOUS
62
252
70
128
10
0.000000
20
0.000000
30
0.000000
71
24
72
9
73
23
0
VERTEX
8
0
6
CONTINUOUS
62
252
70
128
10
0.000000
20
0.000000
30
0.000000
71
23
72
9
73
22
0
VERTEX
8
0
6
CONTINUOUS
62
252
70
128
10
0.000000
20
0.000000
30
0.000000
71
22
72
9
73
10
0
VERTEX
8
0
6
CONTINUOUS
62
252
70
128
10
0.000000
20
0.000000
30
0.000000
71
22
72
10
73
21
0
VERTEX
8
0
6
CONTINUOUS
62
252
70
128
10
0.000000
20
0.000000
30
0.000000
71
21
72
10
73
11
0
VERTEX
8
0
6
CONTINUOUS
62
252
70
128
10
0.000000
20
0.000000
30
0.000000
71
21
72
11
73
12
0
VERTEX
8
0
6
CONTINUOUS
62
252
70
128
10
0.000000
20
0.000000
30
0.000000
71
21
72
12
73
20
0
VERTEX
8
0
6
CONTINUOUS
62
252
70
128
10
0.000000
20
0.000000
30
0.000000
71
20
72
12
73
13
0
VERTEX
8
0
6
CONTINUOUS
62
252
70
128
10
0.000000
20
0.000000
30
0.000000
71
20
72
13
73
19
0
VERTEX
8
0
6
CONTINUOUS
62
252
70
128
10
0.000000
20
0.000000
30
0.000000
71
19
72
13
73
18
0
VERTEX
8
0
6
CONTINUOUS
62
252
70
128
10
0.000000
20
0.000000
30
0.000000
71
18
72
13
73
14
0
VERTEX
8
0
6
CONTINUOUS
62
252
70
128
10
0.000000
20
0.000000
30
0.000000
71
18
72
14
73
15
0
VERTEX
8
0
6
CONTINUOUS
62
252
70
128
10
0.000000
20
0.000000
30
0.000000
71
16
72
17
73
15
0
VERTEX
8
0
6
CONTINUOUS
62
252
70
128
10
0.000000
20
0.000000
30
0.000000
71
15
72
17
73
18
0
SEQEND
0
POLYLINE
66
1
8
0
6
CONTINUOUS
62
252
70
64
75
0
10
0.000000
20
0.000000
30
0.000000
0
VERTEX
8
0
6
CONTINUOUS
62
252
70
192
10
-8.000000
20
-2.645751
30
3.000000
0
VERTEX
8
0
6
CONTINUOUS
62
252
70
192
10
-24.000000
20
-2.645751
30
3.000000
0
VERTEX
8
0
6
CONTINUOUS
62
252
70
192
10
-24.000000
20
-3.122112
30
2.500484
0
VERTEX
8
0
6
CONTINUOUS
62
252
70
192
10
-24.000000
20
-3.505504
30
1.926510
0
VERTEX
8
0
6
CONTINUOUS
62
252
70
192
10
-24.000000
20
-3.784512
30
1.295170
0
VERTEX
8
0
6
CONTINUOUS
62
252
70
192
10
-24.000000
20
-3.950828
30
0.625264
0
VERTEX
8
0
6
CONTINUOUS
62
252
70
192
10
-24.000000
20
-3.999500
30
-0.063261
0
VERTEX
8
0
6
CONTINUOUS
62
252
70
192
10
-24.000000
20
-3.929077
30
-0.749902
0
VERTEX
8
0
6
CONTINUOUS
62
252
70
192
10
-24.000000
20
-3.741657
30
-1.414214
0
VERTEX
8
0
6
CONTINUOUS
62
252
70
192
10
-24.000000
20
-3.442822
30
-2.036413
0
VERTEX
8
0
6
CONTINUOUS
62
252
70
192
10
-24.000000
20
-3.041468
30
-2.597975
0
VERTEX
8
0
6
CONTINUOUS
62
252
70
192
10
-24.000000
20
-2.549548
30
-3.082175
0
VERTEX
8
0
6
CONTINUOUS
62
252
70
192
10
-24.000000
20
-1.981710
30
-3.474597
0
VERTEX
8
0
6
CONTINUOUS
62
252
70
192
10
-24.000000
20
-1.354861
30
-3.763556
0
VERTEX
8
0
6
CONTINUOUS
62
252
70
192
10
-24.000000
20
-0.687669
30
-3.940446
0
VERTEX
8
0
6
CONTINUOUS
62
252
70
192
10
-24.000000
20
-0.000000
30
-4.000000
0
VERTEX
8
0
6
CONTINUOUS
62
252
70
192
10
-24.000000
20
0.687669
30
-3.940446
0
VERTEX
8
0
6
CONTINUOUS
62
252
70
192
10
-24.000000
20
1.354861
30
-3.763556
0
VERTEX
8
0
6
CONTINUOUS
62
252
70
192
10
-24.000000
20
1.981710
30
-3.474597
0
VERTEX
8
0
6
CONTINUOUS
62
252
70
192
10
-24.000000
20
2.549548
30
-3.082175
0
VERTEX
8
0
6
CONTINUOUS
62
252
70
192
10
-24.000000
20
3.041468
30
-2.597975
0
VERTEX
8
0
6
CONTINUOUS
62
252
70
192
10
-24.000000
20
3.442822
30
-2.036413
0
VERTEX
8
0
6
CONTINUOUS
62
252
70
192
10
-24.000000
20
3.741657
30
-1.414214
0
VERTEX
8
0
6
CONTINUOUS
62
252
70
192
10
-24.000000
20
3.929077
30
-0.749902
0
VERTEX
8
0
6
CONTINUOUS
62
252
70
192
10
-24.000000
20
3.999500
30
-0.063261
0
VERTEX
8
0
6
CONTINUOUS
62
252
70
192
10
-24.000000
20
3.950828
30
0.625264
0
VERTEX
8
0
6
CONTINUOUS
62
252
70
192
10
-24.000000
20
3.784512
30
1.295170
0
VERTEX
8
0
6
CONTINUOUS
62
252
70
192
10
-24.000000
20
3.505504
30
1.926510
0
VERTEX
8
0
6
CONTINUOUS
62
252
70
192
10
-24.000000
20
3.122112
30
2.500484
0
VERTEX
8
0
6
CONTINUOUS
62
252
70
192
10
-24.000000
20
2.645751
30
3.000000
0
VERTEX
8
0
6
CONTINUOUS
62
252
70
192
10
-8.000000
20
2.645751
30
3.000000
0
VERTEX
8
0
6
CONTINUOUS
62
252
70
192
10
-8.000000
20
2.131947
30
3.384494
0
VERTEX
8
0
6
CONTINUOUS
62
252
70
192
10
-8.000000
20
1.563268
30
3.681874
0
VERTEX
8
0
6
CONTINUOUS
62
252
70
192
10
-8.000000
20
0.954351
30
3.884484
0
VERTEX
8
0
6
CONTINUOUS
62
252
70
192
10
-8.000000
20
0.320870
30
3.987110
0
VERTEX
8
0
6
CONTINUOUS
62
252
70
192
10
-8.000000
20
-0.320870
30
3.987110
0
VERTEX
8
0
6
CONTINUOUS
62
252
70
192
10
-8.000000
20
-0.954351
30
3.884484
0
VERTEX
8
0
6
CONTINUOUS
62
252
70
192
10
-8.000000
20
-1.563268
30
3.681874
0
VERTEX
8
0
6
CONTINUOUS
62
252
70
192
10
-8.000000
20
-2.131947
30
3.384494
0
VERTEX
8
0
6
CONTINUOUS
62
252
70
192
10
-3.000000
20
0.000000
30
-4.000000
0
VERTEX
8
0
6
CONTINUOUS
62
252
70
192
10
-3.000000
20
-0.694593
30
-3.939231
0
VERTEX
8
0
6
CONTINUOUS
62
252
70
192
10
-3.000000
20
-1.368081
30
-3.758770
0
VERTEX
8
0
6
CONTINUOUS
62
252
70
192
10
-3.000000
20
-2.000000
30
-3.464102
0
VERTEX
8
0
6
CONTINUOUS
62
252
70
192
10
-3.000000
20
-2.571150
30
-3.064178
0
VERTEX
8
0
6
CONTINUOUS
62
252
70
192
10
-3.000000
20
-3.064178
30
-2.571150
0
VERTEX
8
0
6
CONTINUOUS
62
252
70
192
10
-3.000000
20
-3.464102
30
-2.000000
0
VERTEX
8
0
6
CONTINUOUS
62
252
70
192
10
-3.000000
20
-3.758770
30
-1.368081
0
VERTEX
8
0
6
CONTINUOUS
62
252
70
192
10
-3.000000
20
-3.939231
30
-0.694593
0
VERTEX
8
0
6
CONTINUOUS
62
252
70
192
10
-3.000000
20
-4.000000
30
-0.000000
0
VERTEX
8
0
6
CONTINUOUS
62
252
70
192
10
-3.000000
20
-3.939231
30
0.694593
0
VERTEX
8
0
6
CONTINUOUS
62
252
70
192
10
-3.000000
20
-3.758770
30
1.368081
0
VERTEX
8
0
6
CONTINUOUS
62
252
70
192
10
-3.000000
20
-3.464102
30
2.000000
0
VERTEX
8
0
6
CONTINUOUS
62
252
70
192
10
-3.000000
20
-3.064178
30
2.571150
0
VERTEX
8
0
6
CONTINUOUS
62
252
70
192
10
-3.000000
20
-2.571150
30
3.064178
0
VERTEX
8
0
6
CONTINUOUS
62
252
70
192
10
-3.000000
20
-2.000000
30
3.464102
0
VERTEX
8
0
6
CONTINUOUS
62
252
70
192
10
-3.000000
20
-1.368081
30
3.758770
0
VERTEX
8
0
6
CONTINUOUS
62
252
70
192
10
-3.000000
20
-0.694593
30
3.939231
0
VERTEX
8
0
6
CONTINUOUS
62
252
70
192
10
-3.000000
20
0.000000
30
4.000000
0
VERTEX
8
0
6
CONTINUOUS
62
252
70
192
10
-3.000000
20
0.694593
30
3.939231
0
VERTEX
8
0
6
CONTINUOUS
62
252
70
192
10
-3.000000
20
1.368081
30
3.758770
0
VERTEX
8
0
6
CONTINUOUS
62
252
70
192
10
-3.000000
20
2.000000
30
3.464102
0
VERTEX
8
0
6
CONTINUOUS
62
252
70
192
10
-3.000000
20
2.571150
30
3.064178
0
VERTEX
8
0
6
CONTINUOUS
62
252
70
192
10
-3.000000
20
3.064178
30
2.571150
0
VERTEX
8
0
6
CONTINUOUS
62
252
70
192
10
-3.000000
20
3.464102
30
2.000000
0
VERTEX
8
0
6
CONTINUOUS
62
252
70
192
10
-3.000000
20
3.758770
30
1.368081
0
VERTEX
8
0
6
CONTINUOUS
62
252
70
192
10
-3.000000
20
3.939231
30
0.694593
0
VERTEX
8
0
6
CONTINUOUS
62
252
70
192
10
-3.000000
20
4.000000
30
-0.000000
0
VERTEX
8
0
6
CONTINUOUS
62
252
70
192
10
-3.000000
20
3.939231
30
-0.694593
0
VERTEX
8
0
6
CONTINUOUS
62
252
70
192
10
-3.000000
20
3.758770
30
-1.368081
0
VERTEX
8
0
6
CONTINUOUS
62
252
70
192
10
-3.000000
20
3.464102
30
-2.000000
0
VERTEX
8
0
6
CONTINUOUS
62
252
70
192
10
-3.000000
20
3.064178
30
-2.571150
0
VERTEX
8
0
6
CONTINUOUS
62
252
70
192
10
-3.000000
20
2.571150
30
-3.064178
0
VERTEX
8
0
6
CONTINUOUS
62
252
70
192
10
-3.000000
20
2.000000
30
-3.464102
0
VERTEX
8
0
6
CONTINUOUS
62
252
70
192
10
-3.000000
20
1.368081
30
-3.758770
0
VERTEX
8
0
6
CONTINUOUS
62
252
70
192
10
-3.000000
20
0.694593
30
-3.939231
0
VERTEX
8
0
6
CONTINUOUS
62
252
70
128
10
0.000000
20
0.000000
30
0.000000
71
2
72
3
73
1
0
VERTEX
8
0
6
CONTINUOUS
62
252
70
128
10
0.000000
20
0.000000
30
0.000000
71
1
72
3
73
53
0
VERTEX
8
0
6
CONTINUOUS
62
252
70
128
10
0.000000
20
0.000000
30
0.000000
71
1
72
53
73
54
0
VERTEX
8
0
6
CONTINUOUS
62
252
70
128
10
0.000000
20
0.000000
30
0.000000
71
53
72
3
73
52
0
VERTEX
8
0
6
CONTINUOUS
62
252
70
128
10
0.000000
20
0.000000
30
0.000000
71
52
72
3
73
4
0
VERTEX
8
0
6
CONTINUOUS
62
252
70
128
10
0.000000
20
0.000000
30
0.000000
71
52
72
4
73
51
0
VERTEX
8
0
6
CONTINUOUS
62
252
70
128
10
0.000000
20
0.000000
30
0.000000
71
51
72
4
73
5
0
VERTEX
8
0
6
CONTINUOUS
62
252
70
128
10
0.000000
20
0.000000
30
0.000000
71
51
72
5
73
50
0
VERTEX
8
0
6
CONTINUOUS
62
252
70
128
10
0.000000
20
0.000000
30
0.000000
71
50
72
5
73
6
0
VERTEX
8
0
6
CONTINUOUS
62
252
70
128
10
0.000000
20
0.000000
30
0.000000
71
50
72
6
73
49
0
VERTEX
8
0
6
CONTINUOUS
62
252
70
128
10
0.000000
20
0.000000
30
0.000000
71
49
72
6
73
7
0
VERTEX
8
0
6
CONTINUOUS
62
252
70
128
10
0.000000
20
0.000000
30
0.000000
71
49
72
7
73
48
0
VERTEX
8
0
6
CONTINUOUS
62
252
70
128
10
0.000000
20
0.000000
30
0.000000
71
48
72
7
73
8
0
VERTEX
8
0
6
CONTINUOUS
62
252
70
128
10
0.000000
20
0.000000
30
0.000000
71
48
72
8
73
47
0
VERTEX
8
0
6
CONTINUOUS
62
252
70
128
10
0.000000
20
0.000000
30
0.000000
71
47
72
8
73
9
0
VERTEX
8
0
6
CONTINUOUS
62
252
70
128
10
0.000000
20
0.000000
30
0.000000
71
47
72
9
73
46
0
VERTEX
8
0
6
CONTINUOUS
62
252
70
128
10
0.000000
20
0.000000
30
0.000000
71
46
72
9
73
10
0
VERTEX
8
0
6
CONTINUOUS
62
252
70
128
10
0.000000
20
0.000000
30
0.000000
71
46
72
10
73
45
0
VERTEX
8
0
6
CONTINUOUS
62
252
70
128
10
0.000000
20
0.000000
30
0.000000
71
45
72
10
73
11
0
VERTEX
8
0
6
CONTINUOUS
62
252
70
128
10
0.000000
20
0.000000
30
0.000000
71
45
72
11
73
44
0
VERTEX
8
0
6
CONTINUOUS
62
252
70
128
10
0.000000
20
0.000000
30
0.000000
71
44
72
11
73
12
0
VERTEX
8
0
6
CONTINUOUS
62
252
70
128
10
0.000000
20
0.000000
30
0.000000
71
44
72
12
73
43
0
VERTEX
8
0
6
CONTINUOUS
62
252
70
128
10
0.000000
20
0.000000
30
0.000000
71
43
72
12
73
13
0
VERTEX
8
0
6
CONTINUOUS
62
252
70
128
10
0.000000
20
0.000000
30
0.000000
71
43
72
13
73
42
0
VERTEX
8
0
6
CONTINUOUS
62
252
70
128
10
0.000000
20
0.000000
30
0.000000
71
42
72
13
73
14
0
VERTEX
8
0
6
CONTINUOUS
62
252
70
128
10
0.000000
20
0.000000
30
0.000000
71
42
72
14
73
41
0
VERTEX
8
0
6
CONTINUOUS
62
252
70
128
10
0.000000
20
0.000000
30
0.000000
71
41
72
14
73
15
0
VERTEX
8
0
6
CONTINUOUS
62
252
70
128
10
0.000000
20
0.000000
30
0.000000
71
41
72
15
73
40
0
VERTEX
8
0
6
CONTINUOUS
62
252
70
128
10
0.000000
20
0.000000
30
0.000000
71
40
72
15
73
16
0
VERTEX
8
0
6
CONTINUOUS
62
252
70
128
10
0.000000
20
0.000000
30
0.000000
71
40
72
16
73
17
0
VERTEX
8
0
6
CONTINUOUS
62
252
70
128
10
0.000000
20
0.000000
30
0.000000
71
40
72
17
73
75
0
VERTEX
8
0
6
CONTINUOUS
62
252
70
128
10
0.000000
20
0.000000
30
0.000000
71
75
72
17
73
18
0
VERTEX
8
0
6
CONTINUOUS
62
252
70
128
10
0.000000
20
0.000000
30
0.000000
71
75
72
18
73
74
0
VERTEX
8
0
6
CONTINUOUS
62
252
70
128
10
0.000000
20
0.000000
30
0.000000
71
74
72
18
73
19
0
VERTEX
8
0
6
CONTINUOUS
62
252
70
128
10
0.000000
20
0.000000
30
0.000000
71
74
72
19
73
73
0
VERTEX
8
0
6
CONTINUOUS
62
252
70
128
10
0.000000
20
0.000000
30
0.000000
71
73
72
19
73
20
0
VERTEX
8
0
6
CONTINUOUS
62
252
70
128
10
0.000000
20
0.000000
30
0.000000
71
73
72
20
73
72
0
VERTEX
8
0
6
CONTINUOUS
62
252
70
128
10
0.000000
20
0.000000
30
0.000000
71
72
72
20
73
21
0
VERTEX
8
0
6
CONTINUOUS
62
252
70
128
10
0.000000
20
0.000000
30
0.000000
71
72
72
21
73
71
0
VERTEX
8
0
6
CONTINUOUS
62
252
70
128
10
0.000000
20
0.000000
30
0.000000
71
71
72
21
73
22
0
VERTEX
8
0
6
CONTINUOUS
62
252
70
128
10
0.000000
20
0.000000
30
0.000000
71
71
72
22
73
70
0
VERTEX
8
0
6
CONTINUOUS
62
252
70
128
10
0.000000
20
0.000000
30
0.000000
71
70
72
22
73
23
0
VERTEX
8
0
6
CONTINUOUS
62
252
70
128
10
0.000000
20
0.000000
30
0.000000
71
70
72
23
73
69
0
VERTEX
8
0
6
CONTINUOUS
62
252
70
128
10
0.000000
20
0.000000
30
0.000000
71
69
72
23
73
24
0
VERTEX
8
0
6
CONTINUOUS
62
252
70
128
10
0.000000
20
0.000000
30
0.000000
71
69
72
24
73
68
0
VERTEX
8
0
6
CONTINUOUS
62
252
70
128
10
0.000000
20
0.000000
30
0.000000
71
68
72
24
73
25
0
VERTEX
8
0
6
CONTINUOUS
62
252
70
128
10
0.000000
20
0.000000
30
0.000000
71
68
72
25
73
67
0
VERTEX
8
0
6
CONTINUOUS
62
252
70
128
10
0.000000
20
0.000000
30
0.000000
71
67
72
25
73
26
0
VERTEX
8
0
6
CONTINUOUS
62
252
70
128
10
0.000000
20
0.000000
30
0.000000
71
67
72
26
73
66
0
VERTEX
8
0
6
CONTINUOUS
62
252
70
128
10
0.000000
20
0.000000
30
0.000000
71
66
72
26
73
27
0
VERTEX
8
0
6
CONTINUOUS
62
252
70
128
10
0.000000
20
0.000000
30
0.000000
71
66
72
27
73
65
0
VERTEX
8
0
6
CONTINUOUS
62
252
70
128
10
0.000000
20
0.000000
30
0.000000
71
65
72
27
73
28
0
VERTEX
8
0
6
CONTINUOUS
62
252
70
128
10
0.000000
20
0.000000
30
0.000000
71
65
72
28
73
64
0
VERTEX
8
0
6
CONTINUOUS
62
252
70
128
10
0.000000
20
0.000000
30
0.000000
71
64
72
28
73
29
0
VERTEX
8
0
6
CONTINUOUS
62
252
70
128
10
0.000000
20
0.000000
30
0.000000
71
64
72
29
73
63
0
VERTEX
8
0
6
CONTINUOUS
62
252
70
128
10
0.000000
20
0.000000
30
0.000000
71
63
72
29
73
31
0
VERTEX
8
0
6
CONTINUOUS
62
252
70
128
10
0.000000
20
0.000000
30
0.000000
71
63
72
31
73
62
0
VERTEX
8
0
6
CONTINUOUS
62
252
70
128
10
0.000000
20
0.000000
30
0.000000
71
62
72
31
73
32
0
VERTEX
8
0
6
CONTINUOUS
62
252
70
128
10
0.000000
20
0.000000
30
0.000000
71
62
72
32
73
61
0
VERTEX
8
0
6
CONTINUOUS
62
252
70
128
10
0.000000
20
0.000000
30
0.000000
71
61
72
32
73
33
0
VERTEX
8
0
6
CONTINUOUS
62
252
70
128
10
0.000000
20
0.000000
30
0.000000
71
61
72
33
73
60
0
VERTEX
8
0
6
CONTINUOUS
62
252
70
128
10
0.000000
20
0.000000
30
0.000000
71
60
72
33
73
34
0
VERTEX
8
0
6
CONTINUOUS
62
252
70
128
10
0.000000
20
0.000000
30
0.000000
71
60
72
34
73
59
0
VERTEX
8
0
6
CONTINUOUS
62
252
70
128
10
0.000000
20
0.000000
30
0.000000
71
59
72
34
73
35
0
VERTEX
8
0
6
CONTINUOUS
62
252
70
128
10
0.000000
20
0.000000
30
0.000000
71
59
72
35
73
58
0
VERTEX
8
0
6
CONTINUOUS
62
252
70
128
10
0.000000
20
0.000000
30
0.000000
71
58
72
35
73
36
0
VERTEX
8
0
6
CONTINUOUS
62
252
70
128
10
0.000000
20
0.000000
30
0.000000
71
58
72
36
73
57
0
VERTEX
8
0
6
CONTINUOUS
62
252
70
128
10
0.000000
20
0.000000
30
0.000000
71
57
72
36
73
37
0
VERTEX
8
0
6
CONTINUOUS
62
252
70
128
10
0.000000
20
0.000000
30
0.000000
71
57
72
37
73
56
0
VERTEX
8
0
6
CONTINUOUS
62
252
70
128
10
0.000000
20
0.000000
30
0.000000
71
56
72
37
73
38
0
VERTEX
8
0
6
CONTINUOUS
62
252
70
128
10
0.000000
20
0.000000
30
0.000000
71
56
72
38
73
55
0
VERTEX
8
0
6
CONTINUOUS
62
252
70
128
10
0.000000
20
0.000000
30
0.000000
71
55
72
38
73
39
0
VERTEX
8
0
6
CONTINUOUS
62
252
70
128
10
0.000000
20
0.000000
30
0.000000
71
55
72
39
73
54
0
VERTEX
8
0
6
CONTINUOUS
62
252
70
128
10
0.000000
20
0.000000
30
0.000000
71
54
72
39
73
1
0
VERTEX
8
0
6
CONTINUOUS
62
252
70
128
10
0.000000
20
0.000000
30
0.000000
71
29
72
30
73
31
0
SEQEND
0
POLYLINE
66
1
8
0
6
CONTINUOUS
62
252
70
64
75
0
10
0.000000
20
0.000000
30
0.000000
0
VERTEX
8
0
6
CONTINUOUS
62
252
70
192
10
3.000000
20
0.000000
30
-11.000000
0
VERTEX
8
0
6
CONTINUOUS
62
252
70
192
10
3.000000
20
-1.910130
30
-10.832885
0
VERTEX
8
0
6
CONTINUOUS
62
252
70
192
10
3.000000
20
-3.762222
30
-10.336619
0
VERTEX
8
0
6
CONTINUOUS
62
252
70
192
10
3.000000
20
-5.500000
30
-9.526279
0
VERTEX
8
0
6
CONTINUOUS
62
252
70
192
10
3.000000
20
-7.070664
30
-8.426489
0
VERTEX
8
0
6
CONTINUOUS
62
252
70
192
10
3.000000
20
-8.426489
30
-7.070664
0
VERTEX
8
0
6
CONTINUOUS
62
252
70
192
10
3.000000
20
-9.526279
30
-5.500000
0
VERTEX
8
0
6
CONTINUOUS
62
252
70
192
10
3.000000
20
-10.336619
30
-3.762222
0
VERTEX
8
0
6
CONTINUOUS
62
252
70
192
10
3.000000
20
-10.832885
30
-1.910130
0
VERTEX
8
0
6
CONTINUOUS
62
252
70
192
10
3.000000
20
-11.000000
30
-0.000000
0
VERTEX
8
0
6
CONTINUOUS
62
252
70
192
10
3.000000
20
-10.832885
30
1.910130
0
VERTEX
8
0
6
CONTINUOUS
62
252
70
192
10
3.000000
20
-10.336619
30
3.762222
0
VERTEX
8
0
6
CONTINUOUS
62
252
70
192
10
3.000000
20
-9.526279
30
5.500000
0
VERTEX
8
0
6
CONTINUOUS
62
252
70
192
10
3.000000
20
-8.426489
30
7.070664
0
VERTEX
8
0
6
CONTINUOUS
62
252
70
192
10
3.000000
20
-7.070664
30
8.426489
0
VERTEX
8
0
6
CONTINUOUS
62
252
70
192
10
3.000000
20
-5.500000
30
9.526279
0
VERTEX
8
0
6
CONTINUOUS
62
252
70
192
10
3.000000
20
-3.762222
30
10.336619
0
VERTEX
8
0
6
CONTINUOUS
62
252
70
192
10
3.000000
20
-1.910130
30
10.832885
0
VERTEX
8
0
6
CONTINUOUS
62
252
70
192
10
3.000000
20
-0.000000
30
11.000000
0
VERTEX
8
0
6
CONTINUOUS
62
252
70
192
10
3.000000
20
1.910130
30
10.832885
0
VERTEX
8
0
6
CONTINUOUS
62
252
70
192
10
3.000000
20
3.762222
30
10.336619
0
VERTEX
8
0
6
CONTINUOUS
62
252
70
192
10
3.000000
20
5.500000
30
9.526279
0
VERTEX
8
0
6
CONTINUOUS
62
252
70
192
10
3.000000
20
7.070664
30
8.426489
0
VERTEX
8
0
6
CONTINUOUS
62
252
70
192
10
3.000000
20
8.426489
30
7.070664
0
VERTEX
8
0
6
CONTINUOUS
62
252
70
192
10
3.000000
20
9.526279
30
5.500000
0
VERTEX
8
0
6
CONTINUOUS
62
252
70
192
10
3.000000
20
10.336619
30
3.762222
0
VERTEX
8
0
6
CONTINUOUS
62
252
70
192
10
3.000000
20
10.832885
30
1.910130
0
VERTEX
8
0
6
CONTINUOUS
62
252
70
192
10
3.000000
20
11.000000
30
0.000000
0
VERTEX
8
0
6
CONTINUOUS
62
252
70
192
10
3.000000
20
10.832885
30
-1.910130
0
VERTEX
8
0
6
CONTINUOUS
62
252
70
192
10
3.000000
20
10.336619
30
-3.762222
0
VERTEX
8
0
6
CONTINUOUS
62
252
70
192
10
3.000000
20
9.526279
30
-5.500000
0
VERTEX
8
0
6
CONTINUOUS
62
252
70
192
10
3.000000
20
8.426489
30
-7.070664
0
VERTEX
8
0
6
CONTINUOUS
62
252
70
192
10
3.000000
20
7.070664
30
-8.426489
0
VERTEX
8
0
6
CONTINUOUS
62
252
70
192
10
3.000000
20
5.500000
30
-9.526279
0
VERTEX
8
0
6
CONTINUOUS
62
252
70
192
10
3.000000
20
3.762222
30
-10.336619
0
VERTEX
8
0
6
CONTINUOUS
62
252
70
192
10
3.000000
20
1.910130
30
-10.832885
0
VERTEX
8
0
6
CONTINUOUS
62
252
70
192
10
-3.000000
20
0.000000
30
11.000000
0
VERTEX
8
0
6
CONTINUOUS
62
252
70
192
10
-3.000000
20
-1.910130
30
10.832885
0
VERTEX
8
0
6
CONTINUOUS
62
252
70
192
10
-3.000000
20
-3.762222
30
10.336619
0
VERTEX
8
0
6
CONTINUOUS
62
252
70
192
10
-3.000000
20
-5.500000
30
9.526279
0
VERTEX
8
0
6
CONTINUOUS
62
252
70
192
10
-3.000000
20
-7.070664
30
8.426489
0
VERTEX
8
0
6
CONTINUOUS
62
252
70
192
10
-3.000000
20
-8.426489
30
7.070664
0
VERTEX
8
0
6
CONTINUOUS
62
252
70
192
10
-3.000000
20
-9.526279
30
5.500000
0
VERTEX
8
0
6
CONTINUOUS
62
252
70
192
10
-3.000000
20
-10.336619
30
3.762222
0
VERTEX
8
0
6
CONTINUOUS
62
252
70
192
10
-3.000000
20
-10.832885
30
1.910130
0
VERTEX
8
0
6
CONTINUOUS
62
252
70
192
10
-3.000000
20
-11.000000
30
-0.000000
0
VERTEX
8
0
6
CONTINUOUS
62
252
70
192
10
-3.000000
20
-10.832885
30
-1.910130
0
VERTEX
8
0
6
CONTINUOUS
62
252
70
192
10
-3.000000
20
-10.336619
30
-3.762222
0
VERTEX
8
0
6
CONTINUOUS
62
252
70
192
10
-3.000000
20
-9.526279
30
-5.500000
0
VERTEX
8
0
6
CONTINUOUS
62
252
70
192
10
-3.000000
20
-8.426489
30
-7.070664
0
VERTEX
8
0
6
CONTINUOUS
62
252
70
192
10
-3.000000
20
-7.070664
30
-8.426489
0
VERTEX
8
0
6
CONTINUOUS
62
252
70
192
10
-3.000000
20
-5.500000
30
-9.526279
0
VERTEX
8
0
6
CONTINUOUS
62
252
70
192
10
-3.000000
20
-3.762222
30
-10.336619
0
VERTEX
8
0
6
CONTINUOUS
62
252
70
192
10
-3.000000
20
-1.910130
30
-10.832885
0
VERTEX
8
0
6
CONTINUOUS
62
252
70
192
10
-3.000000
20
0.000000
30
-11.000000
0
VERTEX
8
0
6
CONTINUOUS
62
252
70
192
10
-3.000000
20
1.910130
30
-10.832885
0
VERTEX
8
0
6
CONTINUOUS
62
252
70
192
10
-3.000000
20
3.762222
30
-10.336619
0
VERTEX
8
0
6
CONTINUOUS
62
252
70
192
10
-3.000000
20
5.500000
30
-9.526279
0
VERTEX
8
0
6
CONTINUOUS
62
252
70
192
10
-3.000000
20
7.070664
30
-8.426489
0
VERTEX
8
0
6
CONTINUOUS
62
252
70
192
10
-3.000000
20
8.426489
30
-7.070664
0
VERTEX
8
0
6
CONTINUOUS
62
252
70
192
10
-3.000000
20
9.526279
30
-5.500000
0
VERTEX
8
0
6
CONTINUOUS
62
252
70
192
10
-3.000000
20
10.336619
30
-3.762222
0
VERTEX
8
0
6
CONTINUOUS
62
252
70
192
10
-3.000000
20
10.832885
30
-1.910130
0
VERTEX
8
0
6
CONTINUOUS
62
252
70
192
10
-3.000000
20
11.000000
30
0.000000
0
VERTEX
8
0
6
CONTINUOUS
62
252
70
192
10
-3.000000
20
10.832885
30
1.910130
0
VERTEX
8
0
6
CONTINUOUS
62
252
70
192
10
-3.000000
20
10.336619
30
3.762222
0
VERTEX
8
0
6
CONTINUOUS
62
252
70
192
10
-3.000000
20
9.526279
30
5.500000
0
VERTEX
8
0
6
CONTINUOUS
62
252
70
192
10
-3.000000
20
8.426489
30
7.070664
0
VERTEX
8
0
6
CONTINUOUS
62
252
70
192
10
-3.000000
20
7.070664
30
8.426489
0
VERTEX
8
0
6
CONTINUOUS
62
252
70
192
10
-3.000000
20
5.500000
30
9.526279
0
VERTEX
8
0
6
CONTINUOUS
62
252
70
192
10
-3.000000
20
3.762222
30
10.336619
0
VERTEX
8
0
6
CONTINUOUS
62
252
70
192
10
-3.000000
20
1.910130
30
10.832885
0
VERTEX
8
0
6
CONTINUOUS
62
252
70
128
10
0.000000
20
0.000000
30
0.000000
71
2
72
54
73
1
0
VERTEX
8
0
6
CONTINUOUS
62
252
70
128
10
0.000000
20
0.000000
30
0.000000
71
1
72
54
73
55
0
VERTEX
8
0
6
CONTINUOUS
62
252
70
128
10
0.000000
20
0.000000
30
0.000000
71
1
72
55
73
36
0
VERTEX
8
0
6
CONTINUOUS
62
252
70
128
10
0.000000
20
0.000000
30
0.000000
71
36
72
55
73
56
0
VERTEX
8
0
6
CONTINUOUS
62
252
70
128
10
0.000000
20
0.000000
30
0.000000
71
36
72
56
73
35
0
VERTEX
8
0
6
CONTINUOUS
62
252
70
128
10
0.000000
20
0.000000
30
0.000000
71
35
72
56
73
57
0
VERTEX
8
0
6
CONTINUOUS
62
252
70
128
10
0.000000
20
0.000000
30
0.000000
71
35
72
57
73
58
0
VERTEX
8
0
6
CONTINUOUS
62
252
70
128
10
0.000000
20
0.000000
30
0.000000
71
54
72
2
73
53
0
VERTEX
8
0
6
CONTINUOUS
62
252
70
128
10
0.000000
20
0.000000
30
0.000000
71
53
72
2
73
3
0
VERTEX
8
0
6
CONTINUOUS
62
252
70
128
10
0.000000
20
0.000000
30
0.000000
71
53
72
3
73
52
0
VERTEX
8
0
6
CONTINUOUS
62
252
70
128
10
0.000000
20
0.000000
30
0.000000
71
52
72
3
73
4
0
VERTEX
8
0
6
CONTINUOUS
62
252
70
128
10
0.000000
20
0.000000
30
0.000000
71
52
72
4
73
51
0
VERTEX
8
0
6
CONTINUOUS
62
252
70
128
10
0.000000
20
0.000000
30
0.000000
71
51
72
4
73
5
0
VERTEX
8
0
6
CONTINUOUS
62
252
70
128
10
0.000000
20
0.000000
30
0.000000
71
51
72
5
73
50
0
VERTEX
8
0
6
CONTINUOUS
62
252
70
128
10
0.000000
20
0.000000
30
0.000000
71
50
72
5
73
6
0
VERTEX
8
0
6
CONTINUOUS
62
252
70
128
10
0.000000
20
0.000000
30
0.000000
71
50
72
6
73
49
0
VERTEX
8
0
6
CONTINUOUS
62
252
70
128
10
0.000000
20
0.000000
30
0.000000
71
49
72
6
73
7
0
VERTEX
8
0
6
CONTINUOUS
62
252
70
128
10
0.000000
20
0.000000
30
0.000000
71
49
72
7
73
48
0
VERTEX
8
0
6
CONTINUOUS
62
252
70
128
10
0.000000
20
0.000000
30
0.000000
71
48
72
7
73
8
0
VERTEX
8
0
6
CONTINUOUS
62
252
70
128
10
0.000000
20
0.000000
30
0.000000
71
48
72
8
73
47
0
VERTEX
8
0
6
CONTINUOUS
62
252
70
128
10
0.000000
20
0.000000
30
0.000000
71
47
72
8
73
9
0
VERTEX
8
0
6
CONTINUOUS
62
252
70
128
10
0.000000
20
0.000000
30
0.000000
71
47
72
9
73
10
0
VERTEX
8
0
6
CONTINUOUS
62
252
70
128
10
0.000000
20
0.000000
30
0.000000
71
11
72
45
73
10
0
VERTEX
8
0
6
CONTINUOUS
62
252
70
128
10
0.000000
20
0.000000
30
0.000000
71
10
72
45
73
46
0
VERTEX
8
0
6
CONTINUOUS
62
252
70
128
10
0.000000
20
0.000000
30
0.000000
71
10
72
46
73
47
0
VERTEX
8
0
6
CONTINUOUS
62
252
70
128
10
0.000000
20
0.000000
30
0.000000
71
45
72
11
73
44
0
VERTEX
8
0
6
CONTINUOUS
62
252
70
128
10
0.000000
20
0.000000
30
0.000000
71
44
72
11
73
12
0
VERTEX
8
0
6
CONTINUOUS
62
252
70
128
10
0.000000
20
0.000000
30
0.000000
71
44
72
12
73
43
0
VERTEX
8
0
6
CONTINUOUS
62
252
70
128
10
0.000000
20
0.000000
30
0.000000
71
43
72
12
73
13
0
VERTEX
8
0
6
CONTINUOUS
62
252
70
128
10
0.000000
20
0.000000
30
0.000000
71
43
72
13
73
14
0
VERTEX
8
0
6
CONTINUOUS
62
252
70
128
10
0.000000
20
0.000000
30
0.000000
71
15
72
41
73
14
0
VERTEX
8
0
6
CONTINUOUS
62
252
70
128
10
0.000000
20
0.000000
30
0.000000
71
14
72
41
73
42
0
VERTEX
8
0
6
CONTINUOUS
62
252
70
128
10
0.000000
20
0.000000
30
0.000000
71
14
72
42
73
43
0
VERTEX
8
0
6
CONTINUOUS
62
252
70
128
10
0.000000
20
0.000000
30
0.000000
71
41
72
15
73
40
0
VERTEX
8
0
6
CONTINUOUS
62
252
70
128
10
0.000000
20
0.000000
30
0.000000
71
40
72
15
73
16
0
VERTEX
8
0
6
CONTINUOUS
62
252
70
128
10
0.000000
20
0.000000
30
0.000000
71
40
72
16
73
39
0
VERTEX
8
0
6
CONTINUOUS
62
252
70
128
10
0.000000
20
0.000000
30
0.000000
71
39
72
16
73
17
0
VERTEX
8
0
6
CONTINUOUS
62
252
70
128
10
0.000000
20
0.000000
30
0.000000
71
39
72
17
73
38
0
VERTEX
8
0
6
CONTINUOUS
62
252
70
128
10
0.000000
20
0.000000
30
0.000000
71
38
72
17
73
18
0
VERTEX
8
0
6
CONTINUOUS
62
252
70
128
10
0.000000
20
0.000000
30
0.000000
71
38
72
18
73
19
0
VERTEX
8
0
6
CONTINUOUS
62
252
70
128
10
0.000000
20
0.000000
30
0.000000
71
38
72
19
73
37
0
VERTEX
8
0
6
CONTINUOUS
62
252
70
128
10
0.000000
20
0.000000
30
0.000000
71
37
72
19
73
20
0
VERTEX
8
0
6
CONTINUOUS
62
252
70
128
10
0.000000
20
0.000000
30
0.000000
71
37
72
20
73
72
0
VERTEX
8
0
6
CONTINUOUS
62
252
70
128
10
0.000000
20
0.000000
30
0.000000
71
72
72
20
73
21
0
VERTEX
8
0
6
CONTINUOUS
62
252
70
128
10
0.000000
20
0.000000
30
0.000000
71
72
72
21
73
71
0
VERTEX
8
0
6
CONTINUOUS
62
252
70
128
10
0.000000
20
0.000000
30
0.000000
71
71
72
21
73
22
0
VERTEX
8
0
6
CONTINUOUS
62
252
70
128
10
0.000000
20
0.000000
30
0.000000
71
71
72
22
73
70
0
VERTEX
8
0
6
CONTINUOUS
62
252
70
128
10
0.000000
20
0.000000
30
0.000000
71
70
72
22
73
23
0
VERTEX
8
0
6
CONTINUOUS
62
252
70
128
10
0.000000
20
0.000000
30
0.000000
71
70
72
23
73
69
0
VERTEX
8
0
6
CONTINUOUS
62
252
70
128
10
0.000000
20
0.000000
30
0.000000
71
69
72
23
73
24
0
VERTEX
8
0
6
CONTINUOUS
62
252
70
128
10
0.000000
20
0.000000
30
0.000000
71
69
72
24
73
68
0
VERTEX
8
0
6
CONTINUOUS
62
252
70
128
10
0.000000
20
0.000000
30
0.000000
71
68
72
24
73
25
0
VERTEX
8
0
6
CONTINUOUS
62
252
70
128
10
0.000000
20
0.000000
30
0.000000
71
68
72
25
73
67
0
VERTEX
8
0
6
CONTINUOUS
62
252
70
128
10
0.000000
20
0.000000
30
0.000000
71
67
72
25
73
26
0
VERTEX
8
0
6
CONTINUOUS
62
252
70
128
10
0.000000
20
0.000000
30
0.000000
71
67
72
26
73
66
0
VERTEX
8
0
6
CONTINUOUS
62
252
70
128
10
0.000000
20
0.000000
30
0.000000
71
66
72
26
73
27
0
VERTEX
8
0
6
CONTINUOUS
62
252
70
128
10
0.000000
20
0.000000
30
0.000000
71
66
72
27
73
65
0
VERTEX
8
0
6
CONTINUOUS
62
252
70
128
10
0.000000
20
0.000000
30
0.000000
71
65
72
27
73
64
0
VERTEX
8
0
6
CONTINUOUS
62
252
70
128
10
0.000000
20
0.000000
30
0.000000
71
64
72
27
73
28
0
VERTEX
8
0
6
CONTINUOUS
62
252
70
128
10
0.000000
20
0.000000
30
0.000000
71
64
72
28
73
29
0
VERTEX
8
0
6
CONTINUOUS
62
252
70
128
10
0.000000
20
0.000000
30
0.000000
71
64
72
29
73
63
0
VERTEX
8
0
6
CONTINUOUS
62
252
70
128
10
0.000000
20
0.000000
30
0.000000
71
63
72
29
73
30
0
VERTEX
8
0
6
CONTINUOUS
62
252
70
128
10
0.000000
20
0.000000
30
0.000000
71
63
72
30
73
62
0
VERTEX
8
0
6
CONTINUOUS
62
252
70
128
10
0.000000
20
0.000000
30
0.000000
71
62
72
30
73
31
0
VERTEX
8
0
6
CONTINUOUS
62
252
70
128
10
0.000000
20
0.000000
30
0.000000
71
62
72
31
73
61
0
VERTEX
8
0
6
CONTINUOUS
62
252
70
128
10
0.000000
20
0.000000
30
0.000000
71
61
72
31
73
60
0
VERTEX
8
0
6
CONTINUOUS
62
252
70
128
10
0.000000
20
0.000000
30
0.000000
71
60
72
31
73
32
0
VERTEX
8
0
6
CONTINUOUS
62
252
70
128
10
0.000000
20
0.000000
30
0.000000
71
60
72
32
73
33
0
VERTEX
8
0
6
CONTINUOUS
62
252
70
128
10
0.000000
20
0.000000
30
0.000000
71
60
72
33
73
59
0
VERTEX
8
0
6
CONTINUOUS
62
252
70
128
10
0.000000
20
0.000000
30
0.000000
71
59
72
33
73
34
0
VERTEX
8
0
6
CONTINUOUS
62
252
70
128
10
0.000000
20
0.000000
30
0.000000
71
59
72
34
73
58
0
VERTEX
8
0
6
CONTINUOUS
62
252
70
128
10
0.000000
20
0.000000
30
0.000000
71
58
72
34
73
35
0
SEQEND
0
POLYLINE
66
1
8
0
6
CONTINUOUS
62
252
70
64
75
0
10
0.000000
20
0.000000
30
0.000000
0
VERTEX
8
0
6
CONTINUOUS
62
252
70
192
10
-3.000000
20
0.000000
30
-4.000000
0
VERTEX
8
0
6
CONTINUOUS
62
252
70
192
10
-3.000000
20
0.694593
30
-3.939231
0
VERTEX
8
0
6
CONTINUOUS
62
252
70
192
10
-3.000000
20
1.368081
30
-3.758770
0
VERTEX
8
0
6
CONTINUOUS
62
252
70
192
10
-3.000000
20
2.000000
30
-3.464102
0
VERTEX
8
0
6
CONTINUOUS
62
252
70
192
10
-3.000000
20
2.571150
30
-3.064178
0
VERTEX
8
0
6
CONTINUOUS
62
252
70
192
10
-3.000000
20
3.064178
30
-2.571150
0
VERTEX
8
0
6
CONTINUOUS
62
252
70
192
10
-3.000000
20
3.464102
30
-2.000000
0
VERTEX
8
0
6
CONTINUOUS
62
252
70
192
10
-3.000000
20
3.758770
30
-1.368081
0
VERTEX
8
0
6
CONTINUOUS
62
252
70
192
10
-3.000000
20
3.939231
30
-0.694593
0
VERTEX
8
0
6
CONTINUOUS
62
252
70
192
10
-3.000000
20
4.000000
30
-0.000000
0
VERTEX
8
0
6
CONTINUOUS
62
252
70
192
10
-3.000000
20
3.939231
30
0.694593
0
VERTEX
8
0
6
CONTINUOUS
62
252
70
192
10
-3.000000
20
3.758770
30
1.368081
0
VERTEX
8
0
6
CONTINUOUS
62
252
70
192
10
-3.000000
20
3.464102
30
2.000000
0
VERTEX
8
0
6
CONTINUOUS
62
252
70
192
10
-3.000000
20
3.064178
30
2.571150
0
VERTEX
8
0
6
CONTINUOUS
62
252
70
192
10
-3.000000
20
2.571150
30
3.064178
0
VERTEX
8
0
6
CONTINUOUS
62
252
70
192
10
-3.000000
20
2.000000
30
3.464102
0
VERTEX
8
0
6
CONTINUOUS
62
252
70
192
10
-3.000000
20
1.368081
30
3.758770
0
VERTEX
8
0
6
CONTINUOUS
62
252
70
192
10
-3.000000
20
0.694593
30
3.939231
0
VERTEX
8
0
6
CONTINUOUS
62
252
70
192
10
-3.000000
20
0.000000
30
4.000000
0
VERTEX
8
0
6
CONTINUOUS
62
252
70
192
10
-3.000000
20
-0.694593
30
3.939231
0
VERTEX
8
0
6
CONTINUOUS
62
252
70
192
10
-3.000000
20
-1.368081
30
3.758770
0
VERTEX
8
0
6
CONTINUOUS
62
252
70
192
10
-3.000000
20
-2.000000
30
3.464102
0
VERTEX
8
0
6
CONTINUOUS
62
252
70
192
10
-3.000000
20
-2.571150
30
3.064178
0
VERTEX
8
0
6
CONTINUOUS
62
252
70
192
10
-3.000000
20
-3.064178
30
2.571150
0
VERTEX
8
0
6
CONTINUOUS
62
252
70
192
10
-3.000000
20
-3.464102
30
2.000000
0
VERTEX
8
0
6
CONTINUOUS
62
252
70
192
10
-3.000000
20
-3.758770
30
1.368081
0
VERTEX
8
0
6
CONTINUOUS
62
252
70
192
10
-3.000000
20
-3.939231
30
0.694593
0
VERTEX
8
0
6
CONTINUOUS
62
252
70
192
10
-3.000000
20
-4.000000
30
-0.000000
0
VERTEX
8
0
6
CONTINUOUS
62
252
70
192
10
-3.000000
20
-3.939231
30
-0.694593
0
VERTEX
8
0
6
CONTINUOUS
62
252
70
192
10
-3.000000
20
-3.758770
30
-1.368081
0
VERTEX
8
0
6
CONTINUOUS
62
252
70
192
10
-3.000000
20
-3.464102
30
-2.000000
0
VERTEX
8
0
6
CONTINUOUS
62
252
70
192
10
-3.000000
20
-3.064178
30
-2.571150
0
VERTEX
8
0
6
CONTINUOUS
62
252
70
192
10
-3.000000
20
-2.571150
30
-3.064178
0
VERTEX
8
0
6
CONTINUOUS
62
252
70
192
10
-3.000000
20
-2.000000
30
-3.464102
0
VERTEX
8
0
6
CONTINUOUS
62
252
70
192
10
-3.000000
20
-1.368081
30
-3.758770
0
VERTEX
8
0
6
CONTINUOUS
62
252
70
192
10
-3.000000
20
-0.694593
30
-3.939231
0
VERTEX
8
0
6
CONTINUOUS
62
252
70
192
10
-3.000000
20
0.000000
30
11.000000
0
VERTEX
8
0
6
CONTINUOUS
62
252
70
192
10
-3.000000
20
1.910130
30
10.832885
0
VERTEX
8
0
6
CONTINUOUS
62
252
70
192
10
-3.000000
20
3.762222
30
10.336619
0
VERTEX
8
0
6
CONTINUOUS
62
252
70
192
10
-3.000000
20
5.500000
30
9.526279
0
VERTEX
8
0
6
CONTINUOUS
62
252
70
192
10
-3.000000
20
7.070664
30
8.426489
0
VERTEX
8
0
6
CONTINUOUS
62
252
70
192
10
-3.000000
20
8.426489
30
7.070664
0
VERTEX
8
0
6
CONTINUOUS
62
252
70
192
10
-3.000000
20
9.526279
30
5.500000
0
VERTEX
8
0
6
CONTINUOUS
62
252
70
192
10
-3.000000
20
10.336619
30
3.762222
0
VERTEX
8
0
6
CONTINUOUS
62
252
70
192
10
-3.000000
20
10.832885
30
1.910130
0
VERTEX
8
0
6
CONTINUOUS
62
252
70
192
10
-3.000000
20
11.000000
30
0.000000
0
VERTEX
8
0
6
CONTINUOUS
62
252
70
192
10
-3.000000
20
10.832885
30
-1.910130
0
VERTEX
8
0
6
CONTINUOUS
62
252
70
192
10
-3.000000
20
10.336619
30
-3.762222
0
VERTEX
8
0
6
CONTINUOUS
62
252
70
192
10
-3.000000
20
9.526279
30
-5.500000
0
VERTEX
8
0
6
CONTINUOUS
62
252
70
192
10
-3.000000
20
8.426489
30
-7.070664
0
VERTEX
8
0
6
CONTINUOUS
62
252
70
192
10
-3.000000
20
7.070664
30
-8.426489
0
VERTEX
8
0
6
CONTINUOUS
62
252
70
192
10
-3.000000
20
5.500000
30
-9.526279
0
VERTEX
8
0
6
CONTINUOUS
62
252
70
192
10
-3.000000
20
3.762222
30
-10.336619
0
VERTEX
8
0
6
CONTINUOUS
62
252
70
192
10
-3.000000
20
1.910130
30
-10.832885
0
VERTEX
8
0
6
CONTINUOUS
62
252
70
192
10
-3.000000
20
0.000000
30
-11.000000
0
VERTEX
8
0
6
CONTINUOUS
62
252
70
192
10
-3.000000
20
-1.910130
30
-10.832885
0
VERTEX
8
0
6
CONTINUOUS
62
252
70
192
10
-3.000000
20
-3.762222
30
-10.336619
0
VERTEX
8
0
6
CONTINUOUS
62
252
70
192
10
-3.000000
20
-5.500000
30
-9.526279
0
VERTEX
8
0
6
CONTINUOUS
62
252
70
192
10
-3.000000
20
-7.070664
30
-8.426489
0
VERTEX
8
0
6
CONTINUOUS
62
252
70
192
10
-3.000000
20
-8.426489
30
-7.070664
0
VERTEX
8
0
6
CONTINUOUS
62
252
70
192
10
-3.000000
20
-9.526279
30
-5.500000
0
VERTEX
8
0
6
CONTINUOUS
62
252
70
192
10
-3.000000
20
-10.336619
30
-3.762222
0
VERTEX
8
0
6
CONTINUOUS
62
252
70
192
10
-3.000000
20
-10.832885
30
-1.910130
0
VERTEX
8
0
6
CONTINUOUS
62
252
70
192
10
-3.000000
20
-11.000000
30
-0.000000
0
VERTEX
8
0
6
CONTINUOUS
62
252
70
192
10
-3.000000
20
-10.832885
30
1.910130
0
VERTEX
8
0
6
CONTINUOUS
62
252
70
192
10
-3.000000
20
-10.336619
30
3.762222
0
VERTEX
8
0
6
CONTINUOUS
62
252
70
192
10
-3.000000
20
-9.526279
30
5.500000
0
VERTEX
8
0
6
CONTINUOUS
62
252
70
192
10
-3.000000
20
-8.426489
30
7.070664
0
VERTEX
8
0
6
CONTINUOUS
62
252
70
192
10
-3.000000
20
-7.070664
30
8.426489
0
VERTEX
8
0
6
CONTINUOUS
62
252
70
192
10
-3.000000
20
-5.500000
30
9.526279
0
VERTEX
8
0
6
CONTINUOUS
62
252
70
192
10
-3.000000
20
-3.762222
30
10.336619
0
VERTEX
8
0
6
CONTINUOUS
62
252
70
192
10
-3.000000
20
-1.910130
30
10.832885
0
VERTEX
8
0
6
CONTINUOUS
62
252
70
128
10
0.000000
20
0.000000
30
0.000000
71
2
72
55
73
1
0
VERTEX
8
0
6
CONTINUOUS
62
252
70
128
10
0.000000
20
0.000000
30
0.000000
71
1
72
55
73
56
0
VERTEX
8
0
6
CONTINUOUS
62
252
70
128
10
0.000000
20
0.000000
30
0.000000
71
1
72
56
73
36
0
VERTEX
8
0
6
CONTINUOUS
62
252
70
128
10
0.000000
20
0.000000
30
0.000000
71
36
72
56
73
57
0
VERTEX
8
0
6
CONTINUOUS
62
252
70
128
10
0.000000
20
0.000000
30
0.000000
71
36
72
57
73
35
0
VERTEX
8
0
6
CONTINUOUS
62
252
70
128
10
0.000000
20
0.000000
30
0.000000
71
35
72
57
73
34
0
VERTEX
8
0
6
CONTINUOUS
62
252
70
128
10
0.000000
20
0.000000
30
0.000000
71
34
72
57
73
58
0
VERTEX
8
0
6
CONTINUOUS
62
252
70
128
10
0.000000
20
0.000000
30
0.000000
71
34
72
58
73
59
0
VERTEX
8
0
6
CONTINUOUS
62
252
70
128
10
0.000000
20
0.000000
30
0.000000
71
55
72
2
73
54
0
VERTEX
8
0
6
CONTINUOUS
62
252
70
128
10
0.000000
20
0.000000
30
0.000000
71
54
72
2
73
3
0
VERTEX
8
0
6
CONTINUOUS
62
252
70
128
10
0.000000
20
0.000000
30
0.000000
71
54
72
3
73
53
0
VERTEX
8
0
6
CONTINUOUS
62
252
70
128
10
0.000000
20
0.000000
30
0.000000
71
53
72
3
73
52
0
VERTEX
8
0
6
CONTINUOUS
62
252
70
128
10
0.000000
20
0.000000
30
0.000000
71
52
72
3
73
4
0
VERTEX
8
0
6
CONTINUOUS
62
252
70
128
10
0.000000
20
0.000000
30
0.000000
71
52
72
4
73
5
0
VERTEX
8
0
6
CONTINUOUS
62
252
70
128
10
0.000000
20
0.000000
30
0.000000
71
52
72
5
73
51
0
VERTEX
8
0
6
CONTINUOUS
62
252
70
128
10
0.000000
20
0.000000
30
0.000000
71
51
72
5
73
6
0
VERTEX
8
0
6
CONTINUOUS
62
252
70
128
10
0.000000
20
0.000000
30
0.000000
71
51
72
6
73
50
0
VERTEX
8
0
6
CONTINUOUS
62
252
70
128
10
0.000000
20
0.000000
30
0.000000
71
50
72
6
73
7
0
VERTEX
8
0
6
CONTINUOUS
62
252
70
128
10
0.000000
20
0.000000
30
0.000000
71
50
72
7
73
49
0
VERTEX
8
0
6
CONTINUOUS
62
252
70
128
10
0.000000
20
0.000000
30
0.000000
71
49
72
7
73
8
0
VERTEX
8
0
6
CONTINUOUS
62
252
70
128
10
0.000000
20
0.000000
30
0.000000
71
49
72
8
73
48
0
VERTEX
8
0
6
CONTINUOUS
62
252
70
128
10
0.000000
20
0.000000
30
0.000000
71
48
72
8
73
47
0
VERTEX
8
0
6
CONTINUOUS
62
252
70
128
10
0.000000
20
0.000000
30
0.000000
71
47
72
8
73
9
0
VERTEX
8
0
6
CONTINUOUS
62
252
70
128
10
0.000000
20
0.000000
30
0.000000
71
47
72
9
73
10
0
VERTEX
8
0
6
CONTINUOUS
62
252
70
128
10
0.000000
20
0.000000
30
0.000000
71
11
72
45
73
10
0
VERTEX
8
0
6
CONTINUOUS
62
252
70
128
10
0.000000
20
0.000000
30
0.000000
71
10
72
45
73
46
0
VERTEX
8
0
6
CONTINUOUS
62
252
70
128
10
0.000000
20
0.000000
30
0.000000
71
10
72
46
73
47
0
VERTEX
8
0
6
CONTINUOUS
62
252
70
128
10
0.000000
20
0.000000
30
0.000000
71
11
72
12
73
45
0
VERTEX
8
0
6
CONTINUOUS
62
252
70
128
10
0.000000
20
0.000000
30
0.000000
71
45
72
12
73
44
0
VERTEX
8
0
6
CONTINUOUS
62
252
70
128
10
0.000000
20
0.000000
30
0.000000
71
44
72
12
73
13
0
VERTEX
8
0
6
CONTINUOUS
62
252
70
128
10
0.000000
20
0.000000
30
0.000000
71
44
72
13
73
43
0
VERTEX
8
0
6
CONTINUOUS
62
252
70
128
10
0.000000
20
0.000000
30
0.000000
71
43
72
13
73
14
0
VERTEX
8
0
6
CONTINUOUS
62
252
70
128
10
0.000000
20
0.000000
30
0.000000
71
43
72
14
73
42
0
VERTEX
8
0
6
CONTINUOUS
62
252
70
128
10
0.000000
20
0.000000
30
0.000000
71
42
72
14
73
41
0
VERTEX
8
0
6
CONTINUOUS
62
252
70
128
10
0.000000
20
0.000000
30
0.000000
71
41
72
14
73
15
0
VERTEX
8
0
6
CONTINUOUS
62
252
70
128
10
0.000000
20
0.000000
30
0.000000
71
41
72
15
73
16
0
VERTEX
8
0
6
CONTINUOUS
62
252
70
128
10
0.000000
20
0.000000
30
0.000000
71
17
72
39
73
16
0
VERTEX
8
0
6
CONTINUOUS
62
252
70
128
10
0.000000
20
0.000000
30
0.000000
71
16
72
39
73
40
0
VERTEX
8
0
6
CONTINUOUS
62
252
70
128
10
0.000000
20
0.000000
30
0.000000
71
16
72
40
73
41
0
VERTEX
8
0
6
CONTINUOUS
62
252
70
128
10
0.000000
20
0.000000
30
0.000000
71
39
72
17
73
38
0
VERTEX
8
0
6
CONTINUOUS
62
252
70
128
10
0.000000
20
0.000000
30
0.000000
71
38
72
17
73
18
0
VERTEX
8
0
6
CONTINUOUS
62
252
70
128
10
0.000000
20
0.000000
30
0.000000
71
38
72
18
73
37
0
VERTEX
8
0
6
CONTINUOUS
62
252
70
128
10
0.000000
20
0.000000
30
0.000000
71
37
72
18
73
19
0
VERTEX
8
0
6
CONTINUOUS
62
252
70
128
10
0.000000
20
0.000000
30
0.000000
71
37
72
19
73
72
0
VERTEX
8
0
6
CONTINUOUS
62
252
70
128
10
0.000000
20
0.000000
30
0.000000
71
72
72
19
73
20
0
VERTEX
8
0
6
CONTINUOUS
62
252
70
128
10
0.000000
20
0.000000
30
0.000000
71
72
72
20
73
21
0
VERTEX
8
0
6
CONTINUOUS
62
252
70
128
10
0.000000
20
0.000000
30
0.000000
71
72
72
21
73
71
0
VERTEX
8
0
6
CONTINUOUS
62
252
70
128
10
0.000000
20
0.000000
30
0.000000
71
71
72
21
73
22
0
VERTEX
8
0
6
CONTINUOUS
62
252
70
128
10
0.000000
20
0.000000
30
0.000000
71
71
72
22
73
70
0
VERTEX
8
0
6
CONTINUOUS
62
252
70
128
10
0.000000
20
0.000000
30
0.000000
71
70
72
22
73
23
0
VERTEX
8
0
6
CONTINUOUS
62
252
70
128
10
0.000000
20
0.000000
30
0.000000
71
70
72
23
73
69
0
VERTEX
8
0
6
CONTINUOUS
62
252
70
128
10
0.000000
20
0.000000
30
0.000000
71
69
72
23
73
24
0
VERTEX
8
0
6
CONTINUOUS
62
252
70
128
10
0.000000
20
0.000000
30
0.000000
71
69
72
24
73
68
0
VERTEX
8
0
6
CONTINUOUS
62
252
70
128
10
0.000000
20
0.000000
30
0.000000
71
68
72
24
73
25
0
VERTEX
8
0
6
CONTINUOUS
62
252
70
128
10
0.000000
20
0.000000
30
0.000000
71
68
72
25
73
67
0
VERTEX
8
0
6
CONTINUOUS
62
252
70
128
10
0.000000
20
0.000000
30
0.000000
71
67
72
25
73
26
0
VERTEX
8
0
6
CONTINUOUS
62
252
70
128
10
0.000000
20
0.000000
30
0.000000
71
67
72
26
73
66
0
VERTEX
8
0
6
CONTINUOUS
62
252
70
128
10
0.000000
20
0.000000
30
0.000000
71
66
72
26
73
27
0
VERTEX
8
0
6
CONTINUOUS
62
252
70
128
10
0.000000
20
0.000000
30
0.000000
71
66
72
27
73
65
0
VERTEX
8
0
6
CONTINUOUS
62
252
70
128
10
0.000000
20
0.000000
30
0.000000
71
65
72
27
73
28
0
VERTEX
8
0
6
CONTINUOUS
62
252
70
128
10
0.000000
20
0.000000
30
0.000000
71
65
72
28
73
64
0
VERTEX
8
0
6
CONTINUOUS
62
252
70
128
10
0.000000
20
0.000000
30
0.000000
71
64
72
28
73
29
0
VERTEX
8
0
6
CONTINUOUS
62
252
70
128
10
0.000000
20
0.000000
30
0.000000
71
64
72
29
73
63
0
VERTEX
8
0
6
CONTINUOUS
62
252
70
128
10
0.000000
20
0.000000
30
0.000000
71
63
72
29
73
30
0
VERTEX
8
0
6
CONTINUOUS
62
252
70
128
10
0.000000
20
0.000000
30
0.000000
71
63
72
30
73
62
0
VERTEX
8
0
6
CONTINUOUS
62
252
70
128
10
0.000000
20
0.000000
30
0.000000
71
62
72
30
73
31
0
VERTEX
8
0
6
CONTINUOUS
62
252
70
128
10
0.000000
20
0.000000
30
0.000000
71
62
72
31
73
61
0
VERTEX
8
0
6
CONTINUOUS
62
252
70
128
10
0.000000
20
0.000000
30
0.000000
71
61
72
31
73
32
0
VERTEX
8
0
6
CONTINUOUS
62
252
70
128
10
0.000000
20
0.000000
30
0.000000
71
61
72
32
73
60
0
VERTEX
8
0
6
CONTINUOUS
62
252
70
128
10
0.000000
20
0.000000
30
0.000000
71
60
72
32
73
59
0
VERTEX
8
0
6
CONTINUOUS
62
252
70
128
10
0.000000
20
0.000000
30
0.000000
71
59
72
32
73
33
0
VERTEX
8
0
6
CONTINUOUS
62
252
70
128
10
0.000000
20
0.000000
30
0.000000
71
59
72
33
73
34
0
SEQEND
0
POLYLINE
66
1
8
0
6
CONTINUOUS
62
252
70
64
75
0
10
0.000000
20
0.000000
30
0.000000
0
VERTEX
8
0
6
CONTINUOUS
62
252
70
192
10
0.000000
20
30.500000
30
20.750000
0
VERTEX
8
0
6
CONTINUOUS
62
252
70
192
10
3.000000
20
30.500000
30
20.750000
0
VERTEX
8
0
6
CONTINUOUS
62
252
70
192
10
3.000000
20
27.000000
30
20.750000
0
VERTEX
8
0
6
CONTINUOUS
62
252
70
192
10
0.000000
20
27.000000
30
20.750000
0
VERTEX
8
0
6
CONTINUOUS
62
252
70
128
10
0.000000
20
0.000000
30
0.000000
71
2
72
3
73
1
0
VERTEX
8
0
6
CONTINUOUS
62
252
70
128
10
0.000000
20
0.000000
30
0.000000
71
1
72
3
73
4
0
SEQEND
0
POLYLINE
66
1
8
0
6
CONTINUOUS
62
252
70
64
75
0
10
0.000000
20
0.000000
30
0.000000
0
VERTEX
8
0
6
CONTINUOUS
62
252
70
192
10
3.000000
20
30.500000
30
14.250000
0
VERTEX
8
0
6
CONTINUOUS
62
252
70
192
10
0.000000
20
30.500000
30
14.250000
0
VERTEX
8
0
6
CONTINUOUS
62
252
70
192
10
-0.000000
20
27.000000
30
14.250000
0
VERTEX
8
0
6
CONTINUOUS
62
252
70
192
10
3.000000
20
27.000000
30
14.250000
0
VERTEX
8
0
6
CONTINUOUS
62
252
70
128
10
0.000000
20
0.000000
30
0.000000
71
1
72
2
73
4
0
VERTEX
8
0
6
CONTINUOUS
62
252
70
128
10
0.000000
20
0.000000
30
0.000000
71
4
72
2
73
3
0
SEQEND
0
POLYLINE
66
1
8
0
6
CONTINUOUS
62
252
70
64
75
0
10
0.000000
20
0.000000
30
0.000000
0
VERTEX
8
0
6
CONTINUOUS
62
252
70
192
10
3.000000
20
27.000000
30
20.750000
0
VERTEX
8
0
6
CONTINUOUS
62
252
70
192
10
3.000000
20
26.435643
30
20.700625
0
VERTEX
8
0
6
CONTINUOUS
62
252
70
192
10
3.000000
20
25.888435
30
20.554001
0
VERTEX
8
0
6
CONTINUOUS
62
252
70
192
10
3.000000
20
25.375000
30
20.314583
0
VERTEX
8
0
6
CONTINUOUS
62
252
70
192
10
3.000000
20
24.910940
30
19.989644
0
VERTEX
8
0
6
CONTINUOUS
62
252
70
192
10
3.000000
20
24.510356
30
19.589060
0
VERTEX
8
0
6
CONTINUOUS
62
252
70
192
10
3.000000
20
24.185417
30
19.125000
0
VERTEX
8
0
6
CONTINUOUS
62
252
70
192
10
3.000000
20
23.945999
30
18.611565
0
VERTEX
8
0
6
CONTINUOUS
62
252
70
192
10
3.000000
20
23.799375
30
18.064357
0
VERTEX
8
0
6
CONTINUOUS
62
252
70
192
10
3.000000
20
23.750000
30
17.500000
0
VERTEX
8
0
6
CONTINUOUS
62
252
70
192
10
3.000000
20
23.799375
30
16.935643
0
VERTEX
8
0
6
CONTINUOUS
62
252
70
192
10
3.000000
20
23.945999
30
16.388435
0
VERTEX
8
0
6
CONTINUOUS
62
252
70
192
10
3.000000
20
24.185417
30
15.875000
0
VERTEX
8
0
6
CONTINUOUS
62
252
70
192
10
3.000000
20
24.510356
30
15.410940
0
VERTEX
8
0
6
CONTINUOUS
62
252
70
192
10
3.000000
20
24.910940
30
15.010356
0
VERTEX
8
0
6
CONTINUOUS
62
252
70
192
10
3.000000
20
25.375000
30
14.685417
0
VERTEX
8
0
6
CONTINUOUS
62
252
70
192
10
3.000000
20
25.888435
30
14.445999
0
VERTEX
8
0
6
CONTINUOUS
62
252
70
192
10
3.000000
20
26.435643
30
14.299375
0
VERTEX
8
0
6
CONTINUOUS
62
252
70
192
10
3.000000
20
27.000000
30
14.250000
0
VERTEX
8
0
6
CONTINUOUS
62
252
70
192
10
-0.000000
20
27.000000
30
14.250000
0
VERTEX
8
0
6
CONTINUOUS
62
252
70
192
10
0.000000
20
26.435643
30
14.299375
0
VERTEX
8
0
6
CONTINUOUS
62
252
70
192
10
0.000000
20
25.888435
30
14.445999
0
VERTEX
8
0
6
CONTINUOUS
62
252
70
192
10
0.000000
20
25.375000
30
14.685417
0
VERTEX
8
0
6
CONTINUOUS
62
252
70
192
10
0.000000
20
24.910940
30
15.010356
0
VERTEX
8
0
6
CONTINUOUS
62
252
70
192
10
0.000000
20
24.510356
30
15.410940
0
VERTEX
8
0
6
CONTINUOUS
62
252
70
192
10
0.000000
20
24.185417
30
15.875000
0
VERTEX
8
0
6
CONTINUOUS
62
252
70
192
10
0.000000
20
23.945999
30
16.388435
0
VERTEX
8
0
6
CONTINUOUS
62
252
70
192
10
0.000000
20
23.799375
30
16.935643
0
VERTEX
8
0
6
CONTINUOUS
62
252
70
192
10
0.000000
20
23.750000
30
17.500000
0
VERTEX
8
0
6
CONTINUOUS
62
252
70
192
10
0.000000
20
23.799375
30
18.064357
0
VERTEX
8
0
6
CONTINUOUS
62
252
70
192
10
0.000000
20
23.945999
30
18.611565
0
VERTEX
8
0
6
CONTINUOUS
62
252
70
192
10
0.000000
20
24.185417
30
19.125000
0
VERTEX
8
0
6
CONTINUOUS
62
252
70
192
10
0.000000
20
24.510356
30
19.589060
0
VERTEX
8
0
6
CONTINUOUS
62
252
70
192
10
0.000000
20
24.910940
30
19.989644
0
VERTEX
8
0
6
CONTINUOUS
62
252
70
192
10
0.000000
20
25.375000
30
20.314583
0
VERTEX
8
0
6
CONTINUOUS
62
252
70
192
10
0.000000
20
25.888435
30
20.554001
0
VERTEX
8
0
6
CONTINUOUS
62
252
70
192
10
0.000000
20
26.435643
30
20.700625
0
VERTEX
8
0
6
CONTINUOUS
62
252
70
192
10
0.000000
20
27.000000
30
20.750000
0
VERTEX
8
0
6
CONTINUOUS
62
252
70
128
10
0.000000
20
0.000000
30
0.000000
71
38
72
1
73
37
0
VERTEX
8
0
6
CONTINUOUS
62
252
70
128
10
0.000000
20
0.000000
30
0.000000
71
37
72
1
73
2
0
VERTEX
8
0
6
CONTINUOUS
62
252
70
128
10
0.000000
20
0.000000
30
0.000000
71
37
72
2
73
36
0
VERTEX
8
0
6
CONTINUOUS
62
252
70
128
10
0.000000
20
0.000000
30
0.000000
71
36
72
2
73
3
0
VERTEX
8
0
6
CONTINUOUS
62
252
70
128
10
0.000000
20
0.000000
30
0.000000
71
36
72
3
73
35
0
VERTEX
8
0
6
CONTINUOUS
62
252
70
128
10
0.000000
20
0.000000
30
0.000000
71
35
72
3
73
4
0
VERTEX
8
0
6
CONTINUOUS
62
252
70
128
10
0.000000
20
0.000000
30
0.000000
71
35
72
4
73
34
0
VERTEX
8
0
6
CONTINUOUS
62
252
70
128
10
0.000000
20
0.000000
30
0.000000
71
34
72
4
73
5
0
VERTEX
8
0
6
CONTINUOUS
62
252
70
128
10
0.000000
20
0.000000
30
0.000000
71
34
72
5
73
33
0
VERTEX
8
0
6
CONTINUOUS
62
252
70
128
10
0.000000
20
0.000000
30
0.000000
71
33
72
5
73
6
0
VERTEX
8
0
6
CONTINUOUS
62
252
70
128
10
0.000000
20
0.000000
30
0.000000
71
33
72
6
73
32
0
VERTEX
8
0
6
CONTINUOUS
62
252
70
128
10
0.000000
20
0.000000
30
0.000000
71
32
72
6
73
7
0
VERTEX
8
0
6
CONTINUOUS
62
252
70
128
10
0.000000
20
0.000000
30
0.000000
71
32
72
7
73
8
0
VERTEX
8
0
6
CONTINUOUS
62
252
70
128
10
0.000000
20
0.000000
30
0.000000
71
32
72
8
73
31
0
VERTEX
8
0
6
CONTINUOUS
62
252
70
128
10
0.000000
20
0.000000
30
0.000000
71
31
72
8
73
9
0
VERTEX
8
0
6
CONTINUOUS
62
252
70
128
10
0.000000
20
0.000000
30
0.000000
71
31
72
9
73
30
0
VERTEX
8
0
6
CONTINUOUS
62
252
70
128
10
0.000000
20
0.000000
30
0.000000
71
30
72
9
73
10
0
VERTEX
8
0
6
CONTINUOUS
62
252
70
128
10
0.000000
20
0.000000
30
0.000000
71
30
72
10
73
29
0
VERTEX
8
0
6
CONTINUOUS
62
252
70
128
10
0.000000
20
0.000000
30
0.000000
71
29
72
10
73
11
0
VERTEX
8
0
6
CONTINUOUS
62
252
70
128
10
0.000000
20
0.000000
30
0.000000
71
29
72
11
73
28
0
VERTEX
8
0
6
CONTINUOUS
62
252
70
128
10
0.000000
20
0.000000
30
0.000000
71
28
72
11
73
27
0
VERTEX
8
0
6
CONTINUOUS
62
252
70
128
10
0.000000
20
0.000000
30
0.000000
71
27
72
11
73
12
0
VERTEX
8
0
6
CONTINUOUS
62
252
70
128
10
0.000000
20
0.000000
30
0.000000
71
27
72
12
73
26
0
VERTEX
8
0
6
CONTINUOUS
62
252
70
128
10
0.000000
20
0.000000
30
0.000000
71
26
72
12
73
13
0
VERTEX
8
0
6
CONTINUOUS
62
252
70
128
10
0.000000
20
0.000000
30
0.000000
71
26
72
13
73
25
0
VERTEX
8
0
6
CONTINUOUS
62
252
70
128
10
0.000000
20
0.000000
30
0.000000
71
25
72
13
73
14
0
VERTEX
8
0
6
CONTINUOUS
62
252
70
128
10
0.000000
20
0.000000
30
0.000000
71
25
72
14
73
24
0
VERTEX
8
0
6
CONTINUOUS
62
252
70
128
10
0.000000
20
0.000000
30
0.000000
71
24
72
14
73
15
0
VERTEX
8
0
6
CONTINUOUS
62
252
70
128
10
0.000000
20
0.000000
30
0.000000
71
24
72
15
73
23
0
VERTEX
8
0
6
CONTINUOUS
62
252
70
128
10
0.000000
20
0.000000
30
0.000000
71
23
72
15
73
16
0
VERTEX
8
0
6
CONTINUOUS
62
252
70
128
10
0.000000
20
0.000000
30
0.000000
71
23
72
16
73
22
0
VERTEX
8
0
6
CONTINUOUS
62
252
70
128
10
0.000000
20
0.000000
30
0.000000
71
22
72
16
73
17
0
VERTEX
8
0
6
CONTINUOUS
62
252
70
128
10
0.000000
20
0.000000
30
0.000000
71
22
72
17
73
21
0
VERTEX
8
0
6
CONTINUOUS
62
252
70
128
10
0.000000
20
0.000000
30
0.000000
71
21
72
17
73
18
0
VERTEX
8
0
6
CONTINUOUS
62
252
70
128
10
0.000000
20
0.000000
30
0.000000
71
21
72
18
73
19
0
VERTEX
8
0
6
CONTINUOUS
62
252
70
128
10
0.000000
20
0.000000
30
0.000000
71
19
72
20
73
21
0
SEQEND
0
POLYLINE
66
1
8
0
6
CONTINUOUS
62
252
70
64
75
0
10
0.000000
20
0.000000
30
0.000000
0
VERTEX
8
0
6
CONTINUOUS
62
252
70
192
10
3.000000
20
30.500000
30
20.750000
0
VERTEX
8
0
6
CONTINUOUS
62
252
70
192
10
3.000000
20
30.500000
30
14.250000
0
VERTEX
8
0
6
CONTINUOUS
62
252
70
192
10
3.000000
20
27.000000
30
14.250000
0
VERTEX
8
0
6
CONTINUOUS
62
252
70
192
10
3.000000
20
26.435643
30
14.299375
0
VERTEX
8
0
6
CONTINUOUS
62
252
70
192
10
3.000000
20
25.888435
30
14.445999
0
VERTEX
8
0
6
CONTINUOUS
62
252
70
192
10
3.000000
20
25.375000
30
14.685417
0
VERTEX
8
0
6
CONTINUOUS
62
252
70
192
10
3.000000
20
24.910940
30
15.010356
0
VERTEX
8
0
6
CONTINUOUS
62
252
70
192
10
3.000000
20
24.510356
30
15.410940
0
VERTEX
8
0
6
CONTINUOUS
62
252
70
192
10
3.000000
20
24.185417
30
15.875000
0
VERTEX
8
0
6
CONTINUOUS
62
252
70
192
10
3.000000
20
23.945999
30
16.388435
0
VERTEX
8
0
6
CONTINUOUS
62
252
70
192
10
3.000000
20
23.799375
30
16.935643
0
VERTEX
8
0
6
CONTINUOUS
62
252
70
192
10
3.000000
20
23.750000
30
17.500000
0
VERTEX
8
0
6
CONTINUOUS
62
252
70
192
10
3.000000
20
23.799375
30
18.064357
0
VERTEX
8
0
6
CONTINUOUS
62
252
70
192
10
3.000000
20
23.945999
30
18.611565
0
VERTEX
8
0
6
CONTINUOUS
62
252
70
192
10
3.000000
20
24.185417
30
19.125000
0
VERTEX
8
0
6
CONTINUOUS
62
252
70
192
10
3.000000
20
24.510356
30
19.589060
0
VERTEX
8
0
6
CONTINUOUS
62
252
70
192
10
3.000000
20
24.910940
30
19.989644
0
VERTEX
8
0
6
CONTINUOUS
62
252
70
192
10
3.000000
20
25.375000
30
20.314583
0
VERTEX
8
0
6
CONTINUOUS
62
252
70
192
10
3.000000
20
25.888435
30
20.554001
0
VERTEX
8
0
6
CONTINUOUS
62
252
70
192
10
3.000000
20
26.435643
30
20.700625
0
VERTEX
8
0
6
CONTINUOUS
62
252
70
192
10
3.000000
20
27.000000
30
20.750000
0
VERTEX
8
0
6
CONTINUOUS
62
252
70
128
10
0.000000
20
0.000000
30
0.000000
71
2
72
12
73
1
0
VERTEX
8
0
6
CONTINUOUS
62
252
70
128
10
0.000000
20
0.000000
30
0.000000
71
1
72
12
73
13
0
VERTEX
8
0
6
CONTINUOUS
62
252
70
128
10
0.000000
20
0.000000
30
0.000000
71
1
72
13
73
14
0
VERTEX
8
0
6
CONTINUOUS
62
252
70
128
10
0.000000
20
0.000000
30
0.000000
71
3
72
7
73
2
0
VERTEX
8
0
6
CONTINUOUS
62
252
70
128
10
0.000000
20
0.000000
30
0.000000
71
2
72
7
73
8
0
VERTEX
8
0
6
CONTINUOUS
62
252
70
128
10
0.000000
20
0.000000
30
0.000000
71
2
72
8
73
9
0
VERTEX
8
0
6
CONTINUOUS
62
252
70
128
10
0.000000
20
0.000000
30
0.000000
71
4
72
5
73
3
0
VERTEX
8
0
6
CONTINUOUS
62
252
70
128
10
0.000000
20
0.000000
30
0.000000
71
3
72
5
73
6
0
VERTEX
8
0
6
CONTINUOUS
62
252
70
128
10
0.000000
20
0.000000
30
0.000000
71
3
72
6
73
7
0
VERTEX
8
0
6
CONTINUOUS
62
252
70
128
10
0.000000
20
0.000000
30
0.000000
71
9
72
10
73
2
0
VERTEX
8
0
6
CONTINUOUS
62
252
70
128
10
0.000000
20
0.000000
30
0.000000
71
2
72
10
73
11
0
VERTEX
8
0
6
CONTINUOUS
62
252
70
128
10
0.000000
20
0.000000
30
0.000000
71
2
72
11
73
12
0
VERTEX
8
0
6
CONTINUOUS
62
252
70
128
10
0.000000
20
0.000000
30
0.000000
71
14
72
15
73
1
0
VERTEX
8
0
6
CONTINUOUS
62
252
70
128
10
0.000000
20
0.000000
30
0.000000
71
1
72
15
73
16
0
VERTEX
8
0
6
CONTINUOUS
62
252
70
128
10
0.000000
20
0.000000
30
0.000000
71
1
72
16
73
17
0
VERTEX
8
0
6
CONTINUOUS
62
252
70
128
10
0.000000
20
0.000000
30
0.000000
71
1
72
17
73
21
0
VERTEX
8
0
6
CONTINUOUS
62
252
70
128
10
0.000000
20
0.000000
30
0.000000
71
21
72
17
73
18
0
VERTEX
8
0
6
CONTINUOUS
62
252
70
128
10
0.000000
20
0.000000
30
0.000000
71
21
72
18
73
19
0
VERTEX
8
0
6
CONTINUOUS
62
252
70
128
10
0.000000
20
0.000000
30
0.000000
71
19
72
20
73
21
0
SEQEND
0
POLYLINE
66
1
8
0
6
CONTINUOUS
62
252
70
64
75
0
10
0.000000
20
0.000000
30
0.000000
0
VERTEX
8
0
6
CONTINUOUS
62
252
70
192
10
0.000000
20
24.748737
30
-26.998737
0
VERTEX
8
0
6
CONTINUOUS
62
252
70
192
10
0.000000
20
25.139446
30
-26.964555
0
VERTEX
8
0
6
CONTINUOUS
62
252
70
192
10
0.000000
20
25.518283
30
-26.863046
0
VERTEX
8
0
6
CONTINUOUS
62
252
70
192
10
0.000000
20
25.873737
30
-26.697294
0
VERTEX
8
0
6
CONTINUOUS
62
252
70
192
10
0.000000
20
26.195009
30
-26.472337
0
VERTEX
8
0
6
CONTINUOUS
62
252
70
192
10
0.000000
20
26.472337
30
-26.195009
0
VERTEX
8
0
6
CONTINUOUS
62
252
70
192
10
0.000000
20
26.697294
30
-25.873737
0
VERTEX
8
0
6
CONTINUOUS
62
252
70
192
10
0.000000
20
26.863046
30
-25.518283
0
VERTEX
8
0
6
CONTINUOUS
62
252
70
192
10
0.000000
20
26.964555
30
-25.139446
0
VERTEX
8
0
6
CONTINUOUS
62
252
70
192
10
0.000000
20
26.998737
30
-24.748737
0
VERTEX
8
0
6
CONTINUOUS
62
252
70
192
10
0.000000
20
26.964555
30
-24.358029
0
VERTEX
8
0
6
CONTINUOUS
62
252
70
192
10
0.000000
20
26.863046
30
-23.979192
0
VERTEX
8
0
6
CONTINUOUS
62
252
70
192
10
0.000000
20
26.697294
30
-23.623737
0
VERTEX
8
0
6
CONTINUOUS
62
252
70
192
10
0.000000
20
26.472337
30
-23.302465
0
VERTEX
8
0
6
CONTINUOUS
62
252
70
192
10
0.000000
20
26.195009
30
-23.025137
0
VERTEX
8
0
6
CONTINUOUS
62
252
70
192
10
0.000000
20
25.873737
30
-22.800180
0
VERTEX
8
0
6
CONTINUOUS
62
252
70
192
10
0.000000
20
25.518283
30
-22.634429
0
VERTEX
8
0
6
CONTINUOUS
62
252
70
192
10
0.000000
20
25.139446
30
-22.532920
0
VERTEX
8
0
6
CONTINUOUS
62
252
70
192
10
0.000000
20
24.748737
30
-22.498737
0
VERTEX
8
0
6
CONTINUOUS
62
252
70
192
10
0.000000
20
24.358029
30
-22.532920
0
VERTEX
8
0
6
CONTINUOUS
62
252
70
192
10
0.000000
20
23.979192
30
-22.634429
0
VERTEX
8
0
6
CONTINUOUS
62
252
70
192
10
0.000000
20
23.623737
30
-22.800180
0
VERTEX
8
0
6
CONTINUOUS
62
252
70
192
10
0.000000
20
23.302465
30
-23.025137
0
VERTEX
8
0
6
CONTINUOUS
62
252
70
192
10
0.000000
20
23.025137
30
-23.302465
0
VERTEX
8
0
6
CONTINUOUS
62
252
70
192
10
0.000000
20
22.800180
30
-23.623737
0
VERTEX
8
0
6
CONTINUOUS
62
252
70
192
10
0.000000
20
22.634429
30
-23.979192
0
VERTEX
8
0
6
CONTINUOUS
62
252
70
192
10
0.000000
20
22.532920
30
-24.358029
0
VERTEX
8
0
6
CONTINUOUS
62
252
70
192
10
0.000000
20
22.498737
30
-24.748737
0
VERTEX
8
0
6
CONTINUOUS
62
252
70
192
10
0.000000
20
22.532920
30
-25.139446
0
VERTEX
8
0
6
CONTINUOUS
62
252
70
192
10
0.000000
20
22.634429
30
-25.518283
0
VERTEX
8
0
6
CONTINUOUS
62
252
70
192
10
0.000000
20
22.800180
30
-25.873737
0
VERTEX
8
0
6
CONTINUOUS
62
252
70
192
10
0.000000
20
23.025137
30
-26.195009
0
VERTEX
8
0
6
CONTINUOUS
62
252
70
192
10
0.000000
20
23.302465
30
-26.472337
0
VERTEX
8
0
6
CONTINUOUS
62
252
70
192
10
0.000000
20
23.623737
30
-26.697294
0
VERTEX
8
0
6
CONTINUOUS
62
252
70
192
10
0.000000
20
23.979192
30
-26.863046
0
VERTEX
8
0
6
CONTINUOUS
62
252
70
192
10
0.000000
20
24.358029
30
-26.964555
0
VERTEX
8
0
6
CONTINUOUS
62
252
70
192
10
0.000000
20
-24.748737
30
-26.998737
0
VERTEX
8
0
6
CONTINUOUS
62
252
70
192
10
0.000000
20
-24.358029
30
-26.964555
0
VERTEX
8
0
6
CONTINUOUS
62
252
70
192
10
0.000000
20
-23.979192
30
-26.863046
0
VERTEX
8
0
6
CONTINUOUS
62
252
70
192
10
0.000000
20
-23.623737
30
-26.697294
0
VERTEX
8
0
6
CONTINUOUS
62
252
70
192
10
0.000000
20
-23.302465
30
-26.472337
0
VERTEX
8
0
6
CONTINUOUS
62
252
70
192
10
0.000000
20
-23.025137
30
-26.195009
0
VERTEX
8
0
6
CONTINUOUS
62
252
70
192
10
0.000000
20
-22.800180
30
-25.873737
0
VERTEX
8
0
6
CONTINUOUS
62
252
70
192
10
0.000000
20
-22.634429
30
-25.518283
0
VERTEX
8
0
6
CONTINUOUS
62
252
70
192
10
0.000000
20
-22.532920
30
-25.139446
0
VERTEX
8
0
6
CONTINUOUS
62
252
70
192
10
0.000000
20
-22.498737
30
-24.748737
0
VERTEX
8
0
6
CONTINUOUS
62
252
70
192
10
0.000000
20
-22.532920
30
-24.358029
0
VERTEX
8
0
6
CONTINUOUS
62
252
70
192
10
0.000000
20
-22.634429
30
-23.979192
0
VERTEX
8
0
6
CONTINUOUS
62
252
70
192
10
0.000000
20
-22.800180
30
-23.623737
0
VERTEX
8
0
6
CONTINUOUS
62
252
70
192
10
0.000000
20
-23.025137
30
-23.302465
0
VERTEX
8
0
6
CONTINUOUS
62
252
70
192
10
0.000000
20
-23.302465
30
-23.025137
0
VERTEX
8
0
6
CONTINUOUS
62
252
70
192
10
0.000000
20
-23.623737
30
-22.800180
0
VERTEX
8
0
6
CONTINUOUS
62
252
70
192
10
0.000000
20
-23.979192
30
-22.634429
0
VERTEX
8
0
6
CONTINUOUS
62
252
70
192
10
0.000000
20
-24.358029
30
-22.532920
0
VERTEX
8
0
6
CONTINUOUS
62
252
70
192
10
0.000000
20
-24.748737
30
-22.498737
0
VERTEX
8
0
6
CONTINUOUS
62
252
70
192
10
0.000000
20
-25.139446
30
-22.532920
0
VERTEX
8
0
6
CONTINUOUS
62
252
70
192
10
0.000000
20
-25.518283
30
-22.634429
0
VERTEX
8
0
6
CONTINUOUS
62
252
70
192
10
0.000000
20
-25.873737
30
-22.800180
0
VERTEX
8
0
6
CONTINUOUS
62
252
70
192
10
0.000000
20
-26.195009
30
-23.025137
0
VERTEX
8
0
6
CONTINUOUS
62
252
70
192
10
0.000000
20
-26.472337
30
-23.302465
0
VERTEX
8
0
6
CONTINUOUS
62
252
70
192
10
0.000000
20
-26.697294
30
-23.623737
0
VERTEX
8
0
6
CONTINUOUS
62
252
70
192
10
0.000000
20
-26.863046
30
-23.979192
0
VERTEX
8
0
6
CONTINUOUS
62
252
70
192
10
0.000000
20
-26.964555
30
-24.358029
0
VERTEX
8
0
6
CONTINUOUS
62
252
70
192
10
0.000000
20
-26.998737
30
-24.748737
0
VERTEX
8
0
6
CONTINUOUS
62
252
70
192
10
0.000000
20
-26.964555
30
-25.139446
0
VERTEX
8
0
6
CONTINUOUS
62
252
70
192
10
0.000000
20
-26.863046
30
-25.518283
0
VERTEX
8
0
6
CONTINUOUS
62
252
70
192
10
0.000000
20
-26.697294
30
-25.873737
0
VERTEX
8
0
6
CONTINUOUS
62
252
70
192
10
0.000000
20
-26.472337
30
-26.195009
0
VERTEX
8
0
6
CONTINUOUS
62
252
70
192
10
0.000000
20
-26.195009
30
-26.472337
0
VERTEX
8
0
6
CONTINUOUS
62
252
70
192
10
0.000000
20
-25.873737
30
-26.697294
0
VERTEX
8
0
6
CONTINUOUS
62
252
70
192
10
0.000000
20
-25.518283
30
-26.863046
0
VERTEX
8
0
6
CONTINUOUS
62
252
70
192
10
0.000000
20
-25.139446
30
-26.964555
0
VERTEX
8
0
6
CONTINUOUS
62
252
70
192
10
-0.000000
20
24.748737
30
22.498737
0
VERTEX
8
0
6
CONTINUOUS
62
252
70
192
10
-0.000000
20
25.139446
30
22.532920
0
VERTEX
8
0
6
CONTINUOUS
62
252
70
192
10
-0.000000
20
25.518283
30
22.634429
0
VERTEX
8
0
6
CONTINUOUS
62
252
70
192
10
-0.000000
20
25.873737
30
22.800180
0
VERTEX
8
0
6
CONTINUOUS
62
252
70
192
10
-0.000000
20
26.195009
30
23.025137
0
VERTEX
8
0
6
CONTINUOUS
62
252
70
192
10
-0.000000
20
26.472337
30
23.302465
0
VERTEX
8
0
6
CONTINUOUS
62
252
70
192
10
-0.000000
20
26.697294
30
23.623737
0
VERTEX
8
0
6
CONTINUOUS
62
252
70
192
10
-0.000000
20
26.863046
30
23.979192
0
VERTEX
8
0
6
CONTINUOUS
62
252
70
192
10
-0.000000
20
26.964555
30
24.358029
0
VERTEX
8
0
6
CONTINUOUS
62
252
70
192
10
-0.000000
20
26.998737
30
24.748737
0
VERTEX
8
0
6
CONTINUOUS
62
252
70
192
10
-0.000000
20
26.964555
30
25.139446
0
VERTEX
8
0
6
CONTINUOUS
62
252
70
192
10
-0.000000
20
26.863046
30
25.518283
0
VERTEX
8
0
6
CONTINUOUS
62
252
70
192
10
-0.000000
20
26.697294
30
25.873737
0
VERTEX
8
0
6
CONTINUOUS
62
252
70
192
10
-0.000000
20
26.472337
30
26.195009
0
VERTEX
8
0
6
CONTINUOUS
62
252
70
192
10
-0.000000
20
26.195009
30
26.472337
0
VERTEX
8
0
6
CONTINUOUS
62
252
70
192
10
-0.000000
20
25.873737
30
26.697294
0
VERTEX
8
0
6
CONTINUOUS
62
252
70
192
10
-0.000000
20
25.518283
30
26.863046
0
VERTEX
8
0
6
CONTINUOUS
62
252
70
192
10
-0.000000
20
25.139446
30
26.964555
0
VERTEX
8
0
6
CONTINUOUS
62
252
70
192
10
-0.000000
20
24.748737
30
26.998737
0
VERTEX
8
0
6
CONTINUOUS
62
252
70
192
10
-0.000000
20
24.358029
30
26.964555
0
VERTEX
8
0
6
CONTINUOUS
62
252
70
192
10
-0.000000
20
23.979192
30
26.863046
0
VERTEX
8
0
6
CONTINUOUS
62
252
70
192
10
-0.000000
20
23.623737
30
26.697294
0
VERTEX
8
0
6
CONTINUOUS
62
252
70
192
10
-0.000000
20
23.302465
30
26.472337
0
VERTEX
8
0
6
CONTINUOUS
62
252
70
192
10
-0.000000
20
23.025137
30
26.195009
0
VERTEX
8
0
6
CONTINUOUS
62
252
70
192
10
-0.000000
20
22.800180
30
25.873737
0
VERTEX
8
0
6
CONTINUOUS
62
252
70
192
10
-0.000000
20
22.634429
30
25.518283
0
VERTEX
8
0
6
CONTINUOUS
62
252
70
192
10
-0.000000
20
22.532920
30
25.139446
0
VERTEX
8
0
6
CONTINUOUS
62
252
70
192
10
-0.000000
20
22.498737
30
24.748737
0
VERTEX
8
0
6
CONTINUOUS
62
252
70
192
10
-0.000000
20
22.532920
30
24.358029
0
VERTEX
8
0
6
CONTINUOUS
62
252
70
192
10
-0.000000
20
22.634429
30
23.979192
0
VERTEX
8
0
6
CONTINUOUS
62
252
70
192
10
-0.000000
20
22.800180
30
23.623737
0
VERTEX
8
0
6
CONTINUOUS
62
252
70
192
10
-0.000000
20
23.025137
30
23.302465
0
VERTEX
8
0
6
CONTINUOUS
62
252
70
192
10
-0.000000
20
23.302465
30
23.025137
0
VERTEX
8
0
6
CONTINUOUS
62
252
70
192
10
-0.000000
20
23.623737
30
22.800180
0
VERTEX
8
0
6
CONTINUOUS
62
252
70
192
10
-0.000000
20
23.979192
30
22.634429
0
VERTEX
8
0
6
CONTINUOUS
62
252
70
192
10
-0.000000
20
24.358029
30
22.532920
0
VERTEX
8
0
6
CONTINUOUS
62
252
70
192
10
-0.000000
20
-24.748737
30
22.498737
0
VERTEX
8
0
6
CONTINUOUS
62
252
70
192
10
-0.000000
20
-24.358029
30
22.532920
0
VERTEX
8
0
6
CONTINUOUS
62
252
70
192
10
-0.000000
20
-23.979192
30
22.634429
0
VERTEX
8
0
6
CONTINUOUS
62
252
70
192
10
-0.000000
20
-23.623737
30
22.800180
0
VERTEX
8
0
6
CONTINUOUS
62
252
70
192
10
-0.000000
20
-23.302465
30
23.025137
0
VERTEX
8
0
6
CONTINUOUS
62
252
70
192
10
-0.000000
20
-23.025137
30
23.302465
0
VERTEX
8
0
6
CONTINUOUS
62
252
70
192
10
-0.000000
20
-22.800180
30
23.623737
0
VERTEX
8
0
6
CONTINUOUS
62
252
70
192
10
-0.000000
20
-22.634429
30
23.979192
0
VERTEX
8
0
6
CONTINUOUS
62
252
70
192
10
-0.000000
20
-22.532920
30
24.358029
0
VERTEX
8
0
6
CONTINUOUS
62
252
70
192
10
-0.000000
20
-22.498737
30
24.748737
0
VERTEX
8
0
6
CONTINUOUS
62
252
70
192
10
-0.000000
20
-22.532920
30
25.139446
0
VERTEX
8
0
6
CONTINUOUS
62
252
70
192
10
-0.000000
20
-22.634429
30
25.518283
0
VERTEX
8
0
6
CONTINUOUS
62
252
70
192
10
-0.000000
20
-22.800180
30
25.873737
0
VERTEX
8
0
6
CONTINUOUS
62
252
70
192
10
-0.000000
20
-23.025137
30
26.195009
0
VERTEX
8
0
6
CONTINUOUS
62
252
70
192
10
-0.000000
20
-23.302465
30
26.472337
0
VERTEX
8
0
6
CONTINUOUS
62
252
70
192
10
-0.000000
20
-23.623737
30
26.697294
0
VERTEX
8
0
6
CONTINUOUS
62
252
70
192
10
-0.000000
20
-23.979192
30
26.863046
0
VERTEX
8
0
6
CONTINUOUS
62
252
70
192
10
-0.000000
20
-24.358029
30
26.964555
0
VERTEX
8
0
6
CONTINUOUS
62
252
70
192
10
-0.000000
20
-24.748737
30
26.998737
0
VERTEX
8
0
6
CONTINUOUS
62
252
70
192
10
-0.000000
20
-25.139446
30
26.964555
0
VERTEX
8
0
6
CONTINUOUS
62
252
70
192
10
-0.000000
20
-25.518283
30
26.863046
0
VERTEX
8
0
6
CONTINUOUS
62
252
70
192
10
-0.000000
20
-25.873737
30
26.697294
0
VERTEX
8
0
6
CONTINUOUS
62
252
70
192
10
-0.000000
20
-26.195009
30
26.472337
0
VERTEX
8
0
6
CONTINUOUS
62
252
70
192
10
-0.000000
20
-26.472337
30
26.195009
0
VERTEX
8
0
6
CONTINUOUS
62
252
70
192
10
-0.000000
20
-26.697294
30
25.873737
0
VERTEX
8
0
6
CONTINUOUS
62
252
70
192
10
-0.000000
20
-26.863046
30
25.518283
0
VERTEX
8
0
6
CONTINUOUS
62
252
70
192
10
-0.000000
20
-26.964555
30
25.139446
0
VERTEX
8
0
6
CONTINUOUS
62
252
70
192
10
-0.000000
20
-26.998737
30
24.748737
0
VERTEX
8
0
6
CONTINUOUS
62
252
70
192
10
-0.000000
20
-26.964555
30
24.358029
0
VERTEX
8
0
6
CONTINUOUS
62
252
70
192
10
-0.000000
20
-26.863046
30
23.979192
0
VERTEX
8
0
6
CONTINUOUS
62
252
70
192
10
-0.000000
20
-26.697294
30
23.623737
0
VERTEX
8
0
6
CONTINUOUS
62
252
70
192
10
-0.000000
20
-26.472337
30
23.302465
0
VERTEX
8
0
6
CONTINUOUS
62
252
70
192
10
-0.000000
20
-26.195009
30
23.025137
0
VERTEX
8
0
6
CONTINUOUS
62
252
70
192
10
-0.000000
20
-25.873737
30
22.800180
0
VERTEX
8
0
6
CONTINUOUS
62
252
70
192
10
-0.000000
20
-25.518283
30
22.634429
0
VERTEX
8
0
6
CONTINUOUS
62
252
70
192
10
-0.000000
20
-25.139446
30
22.532920
0
VERTEX
8
0
6
CONTINUOUS
62
252
70
192
10
-0.000000
20
0.000000
30
27.000000
0
VERTEX
8
0
6
CONTINUOUS
62
252
70
192
10
-0.000000
20
-4.688501
30
26.589809
0
VERTEX
8
0
6
CONTINUOUS
62
252
70
192
10
-0.000000
20
-9.234544
30
25.371701
0
VERTEX
8
0
6
CONTINUOUS
62
252
70
192
10
-0.000000
20
-13.500000
30
23.382686
0
VERTEX
8
0
6
CONTINUOUS
62
252
70
192
10
-0.000000
20
-17.355265
30
20.683200
0
VERTEX
8
0
6
CONTINUOUS
62
252
70
192
10
-0.000000
20
-20.683200
30
17.355265
0
VERTEX
8
0
6
CONTINUOUS
62
252
70
192
10
-0.000000
20
-23.382686
30
13.500000
0
VERTEX
8
0
6
CONTINUOUS
62
252
70
192
10
-0.000000
20
-25.371701
30
9.234544
0
VERTEX
8
0
6
CONTINUOUS
62
252
70
192
10
-0.000000
20
-26.589809
30
4.688501
0
VERTEX
8
0
6
CONTINUOUS
62
252
70
192
10
-0.000000
20
-27.000000
30
0.000000
0
VERTEX
8
0
6
CONTINUOUS
62
252
70
192
10
0.000000
20
-26.589809
30
-4.688501
0
VERTEX
8
0
6
CONTINUOUS
62
252
70
192
10
0.000000
20
-25.371701
30
-9.234544
0
VERTEX
8
0
6
CONTINUOUS
62
252
70
192
10
0.000000
20
-23.382686
30
-13.500000
0
VERTEX
8
0
6
CONTINUOUS
62
252
70
192
10
0.000000
20
-20.683200
30
-17.355265
0
VERTEX
8
0
6
CONTINUOUS
62
252
70
192
10
0.000000
20
-17.355265
30
-20.683200
0
VERTEX
8
0
6
CONTINUOUS
62
252
70
192
10
0.000000
20
-13.500000
30
-23.382686
0
VERTEX
8
0
6
CONTINUOUS
62
252
70
192
10
0.000000
20
-9.234544
30
-25.371701
0
VERTEX
8
0
6
CONTINUOUS
62
252
70
192
10
0.000000
20
-4.688501
30
-26.589809
0
VERTEX
8
0
6
CONTINUOUS
62
252
70
192
10
0.000000
20
-0.000000
30
-27.000000
0
VERTEX
8
0
6
CONTINUOUS
62
252
70
192
10
0.000000
20
4.688501
30
-26.589809
0
VERTEX
8
0
6
CONTINUOUS
62
252
70
192
10
0.000000
20
9.234544
30
-25.371701
0
VERTEX
8
0
6
CONTINUOUS
62
252
70
192
10
0.000000
20
13.500000
30
-23.382686
0
VERTEX
8
0
6
CONTINUOUS
62
252
70
192
10
0.000000
20
17.355265
30
-20.683200
0
VERTEX
8
0
6
CONTINUOUS
62
252
70
192
10
0.000000
20
20.683200
30
-17.355265
0
VERTEX
8
0
6
CONTINUOUS
62
252
70
192
10
0.000000
20
23.382686
30
-13.500000
0
VERTEX
8
0
6
CONTINUOUS
62
252
70
192
10
0.000000
20
25.371701
30
-9.234544
0
VERTEX
8
0
6
CONTINUOUS
62
252
70
192
10
0.000000
20
26.589809
30
-4.688501
0
VERTEX
8
0
6
CONTINUOUS
62
252
70
192
10
0.000000
20
27.000000
30
-0.000000
0
VERTEX
8
0
6
CONTINUOUS
62
252
70
192
10
-0.000000
20
26.589809
30
4.688501
0
VERTEX
8
0
6
CONTINUOUS
62
252
70
192
10
-0.000000
20
25.371701
30
9.234544
0
VERTEX
8
0
6
CONTINUOUS
62
252
70
192
10
-0.000000
20
23.382686
30
13.500000
0
VERTEX
8
0
6
CONTINUOUS
62
252
70
192
10
-0.000000
20
20.683200
30
17.355265
0
VERTEX
8
0
6
CONTINUOUS
62
252
70
192
10
-0.000000
20
17.355265
30
20.683200
0
VERTEX
8
0
6
CONTINUOUS
62
252
70
192
10
-0.000000
20
13.500000
30
23.382686
0
VERTEX
8
0
6
CONTINUOUS
62
252
70
192
10
-0.000000
20
9.234544
30
25.371701
0
VERTEX
8
0
6
CONTINUOUS
62
252
70
192
10
-0.000000
20
4.688501
30
26.589809
0
VERTEX
8
0
6
CONTINUOUS
62
252
70
192
10
0.000000
20
30.500000
30
20.750000
0
VERTEX
8
0
6
CONTINUOUS
62
252
70
192
10
0.000000
20
27.000000
30
20.750000
0
VERTEX
8
0
6
CONTINUOUS
62
252
70
192
10
0.000000
20
26.435643
30
20.700625
0
VERTEX
8
0
6
CONTINUOUS
62
252
70
192
10
0.000000
20
25.888435
30
20.554001
0
VERTEX
8
0
6
CONTINUOUS
62
252
70
192
10
0.000000
20
25.375000
30
20.314583
0
VERTEX
8
0
6
CONTINUOUS
62
252
70
192
10
0.000000
20
24.910940
30
19.989644
0
VERTEX
8
0
6
CONTINUOUS
62
252
70
192
10
0.000000
20
24.510356
30
19.589060
0
VERTEX
8
0
6
CONTINUOUS
62
252
70
192
10
0.000000
20
24.185417
30
19.125000
0
VERTEX
8
0
6
CONTINUOUS
62
252
70
192
10
0.000000
20
23.945999
30
18.611565
0
VERTEX
8
0
6
CONTINUOUS
62
252
70
192
10
0.000000
20
23.799375
30
18.064357
0
VERTEX
8
0
6
CONTINUOUS
62
252
70
192
10
0.000000
20
23.750000
30
17.500000
0
VERTEX
8
0
6
CONTINUOUS
62
252
70
192
10
0.000000
20
23.799375
30
16.935643
0
VERTEX
8
0
6
CONTINUOUS
62
252
70
192
10
0.000000
20
23.945999
30
16.388435
0
VERTEX
8
0
6
CONTINUOUS
62
252
70
192
10
0.000000
20
24.185417
30
15.875000
0
VERTEX
8
0
6
CONTINUOUS
62
252
70
192
10
0.000000
20
24.510356
30
15.410940
0
VERTEX
8
0
6
CONTINUOUS
62
252
70
192
10
0.000000
20
24.910940
30
15.010356
0
VERTEX
8
0
6
CONTINUOUS
62
252
70
192
10
0.000000
20
25.375000
30
14.685417
0
VERTEX
8
0
6
CONTINUOUS
62
252
70
192
10
0.000000
20
25.888435
30
14.445999
0
VERTEX
8
0
6
CONTINUOUS
62
252
70
192
10
0.000000
20
26.435643
30
14.299375
0
VERTEX
8
0
6
CONTINUOUS
62
252
70
192
10
-0.000000
20
27.000000
30
14.250000
0
VERTEX
8
0
6
CONTINUOUS
62
252
70
192
10
0.000000
20
30.500000
30
14.250000
0
VERTEX
8
0
6
CONTINUOUS
62
252
70
192
10
0.000000
20
30.500000
30
-25.500000
0
VERTEX
8
0
6
CONTINUOUS
62
252
70
192
10
0.000000
20
30.424039
30
-26.368241
0
VERTEX
8
0
6
CONTINUOUS
62
252
70
192
10
0.000000
20
30.198463
30
-27.210101
0
VERTEX
8
0
6
CONTINUOUS
62
252
70
192
10
0.000000
20
29.830127
30
-28.000000
0
VERTEX
8
0
6
CONTINUOUS
62
252
70
192
10
0.000000
20
29.330222
30
-28.713938
0
VERTEX
8
0
6
CONTINUOUS
62
252
70
192
10
0.000000
20
28.713938
30
-29.330222
0
VERTEX
8
0
6
CONTINUOUS
62
252
70
192
10
0.000000
20
28.000000
30
-29.830127
0
VERTEX
8
0
6
CONTINUOUS
62
252
70
192
10
0.000000
20
27.210101
30
-30.198463
0
VERTEX
8
0
6
CONTINUOUS
62
252
70
192
10
0.000000
20
26.368241
30
-30.424039
0
VERTEX
8
0
6
CONTINUOUS
62
252
70
192
10
0.000000
20
25.500000
30
-30.500000
0
VERTEX
8
0
6
CONTINUOUS
62
252
70
192
10
0.000000
20
-25.500000
30
-30.500000
0
VERTEX
8
0
6
CONTINUOUS
62
252
70
192
10
0.000000
20
-26.368241
30
-30.424039
0
VERTEX
8
0
6
CONTINUOUS
62
252
70
192
10
0.000000
20
-27.210101
30
-30.198463
0
VERTEX
8
0
6
CONTINUOUS
62
252
70
192
10
0.000000
20
-28.000000
30
-29.830127
0
VERTEX
8
0
6
CONTINUOUS
62
252
70
192
10
0.000000
20
-28.713938
30
-29.330222
0
VERTEX
8
0
6
CONTINUOUS
62
252
70
192
10
0.000000
20
-29.330222
30
-28.713938
0
VERTEX
8
0
6
CONTINUOUS
62
252
70
192
10
0.000000
20
-29.830127
30
-28.000000
0
VERTEX
8
0
6
CONTINUOUS
62
252
70
192
10
0.000000
20
-30.198463
30
-27.210101
0
VERTEX
8
0
6
CONTINUOUS
62
252
70
192
10
0.000000
20
-30.424039
30
-26.368241
0
VERTEX
8
0
6
CONTINUOUS
62
252
70
192
10
0.000000
20
-30.500000
30
-25.500000
0
VERTEX
8
0
6
CONTINUOUS
62
252
70
192
10
0.000000
20
-30.500000
30
-20.750000
0
VERTEX
8
0
6
CONTINUOUS
62
252
70
192
10
0.000000
20
-27.000000
30
-20.750000
0
VERTEX
8
0
6
CONTINUOUS
62
252
70
192
10
0.000000
20
-26.435643
30
-20.700625
0
VERTEX
8
0
6
CONTINUOUS
62
252
70
192
10
0.000000
20
-25.888435
30
-20.554001
0
VERTEX
8
0
6
CONTINUOUS
62
252
70
192
10
0.000000
20
-25.375000
30
-20.314583
0
VERTEX
8
0
6
CONTINUOUS
62
252
70
192
10
0.000000
20
-24.910940
30
-19.989644
0
VERTEX
8
0
6
CONTINUOUS
62
252
70
192
10
0.000000
20
-24.510356
30
-19.589060
0
VERTEX
8
0
6
CONTINUOUS
62
252
70
192
10
0.000000
20
-24.185417
30
-19.125000
0
VERTEX
8
0
6
CONTINUOUS
62
252
70
192
10
0.000000
20
-23.945999
30
-18.611565
0
VERTEX
8
0
6
CONTINUOUS
62
252
70
192
10
0.000000
20
-23.799375
30
-18.064357
0
VERTEX
8
0
6
CONTINUOUS
62
252
70
192
10
0.000000
20
-23.750000
30
-17.500000
0
VERTEX
8
0
6
CONTINUOUS
62
252
70
192
10
0.000000
20
-23.799375
30
-16.935643
0
VERTEX
8
0
6
CONTINUOUS
62
252
70
192
10
0.000000
20
-23.945999
30
-16.388435
0
VERTEX
8
0
6
CONTINUOUS
62
252
70
192
10
0.000000
20
-24.185417
30
-15.875000
0
VERTEX
8
0
6
CONTINUOUS
62
252
70
192
10
0.000000
20
-24.510356
30
-15.410940
0
VERTEX
8
0
6
CONTINUOUS
62
252
70
192
10
0.000000
20
-24.910940
30
-15.010356
0
VERTEX
8
0
6
CONTINUOUS
62
252
70
192
10
0.000000
20
-25.375000
30
-14.685417
0
VERTEX
8
0
6
CONTINUOUS
62
252
70
192
10
0.000000
20
-25.888435
30
-14.445999
0
VERTEX
8
0
6
CONTINUOUS
62
252
70
192
10
0.000000
20
-26.435643
30
-14.299375
0
VERTEX
8
0
6
CONTINUOUS
62
252
70
192
10
-0.000000
20
-27.000000
30
-14.250000
0
VERTEX
8
0
6
CONTINUOUS
62
252
70
192
10
-0.000000
20
-30.500000
30
-14.250000
0
VERTEX
8
0
6
CONTINUOUS
62
252
70
192
10
0.000000
20
-30.500000
30
25.500000
0
VERTEX
8
0
6
CONTINUOUS
62
252
70
192
10
0.000000
20
-30.424039
30
26.368241
0
VERTEX
8
0
6
CONTINUOUS
62
252
70
192
10
0.000000
20
-30.198463
30
27.210101
0
VERTEX
8
0
6
CONTINUOUS
62
252
70
192
10
0.000000
20
-29.830127
30
28.000000
0
VERTEX
8
0
6
CONTINUOUS
62
252
70
192
10
0.000000
20
-29.330222
30
28.713938
0
VERTEX
8
0
6
CONTINUOUS
62
252
70
192
10
0.000000
20
-28.713938
30
29.330222
0
VERTEX
8
0
6
CONTINUOUS
62
252
70
192
10
0.000000
20
-28.000000
30
29.830127
0
VERTEX
8
0
6
CONTINUOUS
62
252
70
192
10
0.000000
20
-27.210101
30
30.198463
0
VERTEX
8
0
6
CONTINUOUS
62
252
70
192
10
0.000000
20
-26.368241
30
30.424039
0
VERTEX
8
0
6
CONTINUOUS
62
252
70
192
10
0.000000
20
-25.500000
30
30.500000
0
VERTEX
8
0
6
CONTINUOUS
62
252
70
192
10
0.000000
20
25.500000
30
30.500000
0
VERTEX
8
0
6
CONTINUOUS
62
252
70
192
10
0.000000
20
26.368241
30
30.424039
0
VERTEX
8
0
6
CONTINUOUS
62
252
70
192
10
0.000000
20
27.210101
30
30.198463
0
VERTEX
8
0
6
CONTINUOUS
62
252
70
192
10
0.000000
20
28.000000
30
29.830127
0
VERTEX
8
0
6
CONTINUOUS
62
252
70
192
10
0.000000
20
28.713938
30
29.330222
0
VERTEX
8
0
6
CONTINUOUS
62
252
70
192
10
0.000000
20
29.330222
30
28.713938
0
VERTEX
8
0
6
CONTINUOUS
62
252
70
192
10
0.000000
20
29.830127
30
28.000000
0
VERTEX
8
0
6
CONTINUOUS
62
252
70
192
10
0.000000
20
30.198463
30
27.210101
0
VERTEX
8
0
6
CONTINUOUS
62
252
70
192
10
0.000000
20
30.424039
30
26.368241
0
VERTEX
8
0
6
CONTINUOUS
62
252
70
192
10
0.000000
20
30.500000
30
25.500000
0
VERTEX
8
0
6
CONTINUOUS
62
252
70
128
10
0.000000
20
0.000000
30
0.000000
71
36
72
1
73
211
0
VERTEX
8
0
6
CONTINUOUS
62
252
70
128
10
0.000000
20
0.000000
30
0.000000
71
211
72
1
73
2
0
VERTEX
8
0
6
CONTINUOUS
62
252
70
128
10
0.000000
20
0.000000
30
0.000000
71
211
72
2
73
210
0
VERTEX
8
0
6
CONTINUOUS
62
252
70
128
10
0.000000
20
0.000000
30
0.000000
71
210
72
2
73
3
0
VERTEX
8
0
6
CONTINUOUS
62
252
70
128
10
0.000000
20
0.000000
30
0.000000
71
210
72
3
73
209
0
VERTEX
8
0
6
CONTINUOUS
62
252
70
128
10
0.000000
20
0.000000
30
0.000000
71
209
72
3
73
4
0
VERTEX
8
0
6
CONTINUOUS
62
252
70
128
10
0.000000
20
0.000000
30
0.000000
71
209
72
4
73
208
0
VERTEX
8
0
6
CONTINUOUS
62
252
70
128
10
0.000000
20
0.000000
30
0.000000
71
208
72
4
73
5
0
VERTEX
8
0
6
CONTINUOUS
62
252
70
128
10
0.000000
20
0.000000
30
0.000000
71
208
72
5
73
207
0
VERTEX
8
0
6
CONTINUOUS
62
252
70
128
10
0.000000
20
0.000000
30
0.000000
71
207
72
5
73
206
0
VERTEX
8
0
6
CONTINUOUS
62
252
70
128
10
0.000000
20
0.000000
30
0.000000
71
206
72
5
73
6
0
VERTEX
8
0
6
CONTINUOUS
62
252
70
128
10
0.000000
20
0.000000
30
0.000000
71
206
72
6
73
205
0
VERTEX
8
0
6
CONTINUOUS
62
252
70
128
10
0.000000
20
0.000000
30
0.000000
71
205
72
6
73
7
0
VERTEX
8
0
6
CONTINUOUS
62
252
70
128
10
0.000000
20
0.000000
30
0.000000
71
205
72
7
73
204
0
VERTEX
8
0
6
CONTINUOUS
62
252
70
128
10
0.000000
20
0.000000
30
0.000000
71
204
72
7
73
8
0
VERTEX
8
0
6
CONTINUOUS
62
252
70
128
10
0.000000
20
0.000000
30
0.000000
71
204
72
8
73
203
0
VERTEX
8
0
6
CONTINUOUS
62
252
70
128
10
0.000000
20
0.000000
30
0.000000
71
203
72
8
73
9
0
VERTEX
8
0
6
CONTINUOUS
62
252
70
128
10
0.000000
20
0.000000
30
0.000000
71
203
72
9
73
202
0
VERTEX
8
0
6
CONTINUOUS
62
252
70
128
10
0.000000
20
0.000000
30
0.000000
71
202
72
9
73
10
0
VERTEX
8
0
6
CONTINUOUS
62
252
70
128
10
0.000000
20
0.000000
30
0.000000
71
202
72
10
73
11
0
VERTEX
8
0
6
CONTINUOUS
62
252
70
128
10
0.000000
20
0.000000
30
0.000000
71
11
72
12
73
202
0
VERTEX
8
0
6
CONTINUOUS
62
252
70
128
10
0.000000
20
0.000000
30
0.000000
71
202
72
12
73
13
0
VERTEX
8
0
6
CONTINUOUS
62
252
70
128
10
0.000000
20
0.000000
30
0.000000
71
202
72
13
73
14
0
VERTEX
8
0
6
CONTINUOUS
62
252
70
128
10
0.000000
20
0.000000
30
0.000000
71
14
72
15
73
202
0
VERTEX
8
0
6
CONTINUOUS
62
252
70
128
10
0.000000
20
0.000000
30
0.000000
71
202
72
15
73
169
0
VERTEX
8
0
6
CONTINUOUS
62
252
70
128
10
0.000000
20
0.000000
30
0.000000
71
202
72
169
73
170
0
VERTEX
8
0
6
CONTINUOUS
62
252
70
128
10
0.000000
20
0.000000
30
0.000000
71
15
72
16
73
169
0
VERTEX
8
0
6
CONTINUOUS
62
252
70
128
10
0.000000
20
0.000000
30
0.000000
71
169
72
16
73
17
0
VERTEX
8
0
6
CONTINUOUS
62
252
70
128
10
0.000000
20
0.000000
30
0.000000
71
169
72
17
73
18
0
VERTEX
8
0
6
CONTINUOUS
62
252
70
128
10
0.000000
20
0.000000
30
0.000000
71
169
72
18
73
168
0
VERTEX
8
0
6
CONTINUOUS
62
252
70
128
10
0.000000
20
0.000000
30
0.000000
71
168
72
18
73
19
0
VERTEX
8
0
6
CONTINUOUS
62
252
70
128
10
0.000000
20
0.000000
30
0.000000
71
168
72
19
73
20
0
VERTEX
8
0
6
CONTINUOUS
62
252
70
128
10
0.000000
20
0.000000
30
0.000000
71
20
72
21
73
168
0
VERTEX
8
0
6
CONTINUOUS
62
252
70
128
10
0.000000
20
0.000000
30
0.000000
71
168
72
21
73
22
0
VERTEX
8
0
6
CONTINUOUS
62
252
70
128
10
0.000000
20
0.000000
30
0.000000
71
168
72
22
73
23
0
VERTEX
8
0
6
CONTINUOUS
62
252
70
128
10
0.000000
20
0.000000
30
0.000000
71
168
72
23
73
167
0
VERTEX
8
0
6
CONTINUOUS
62
252
70
128
10
0.000000
20
0.000000
30
0.000000
71
167
72
23
73
24
0
VERTEX
8
0
6
CONTINUOUS
62
252
70
128
10
0.000000
20
0.000000
30
0.000000
71
167
72
24
73
25
0
VERTEX
8
0
6
CONTINUOUS
62
252
70
128
10
0.000000
20
0.000000
30
0.000000
71
25
72
26
73
167
0
VERTEX
8
0
6
CONTINUOUS
62
252
70
128
10
0.000000
20
0.000000
30
0.000000
71
167
72
26
73
27
0
VERTEX
8
0
6
CONTINUOUS
62
252
70
128
10
0.000000
20
0.000000
30
0.000000
71
167
72
27
73
28
0
VERTEX
8
0
6
CONTINUOUS
62
252
70
128
10
0.000000
20
0.000000
30
0.000000
71
28
72
29
73
167
0
VERTEX
8
0
6
CONTINUOUS
62
252
70
128
10
0.000000
20
0.000000
30
0.000000
71
167
72
29
73
166
0
VERTEX
8
0
6
CONTINUOUS
62
252
70
128
10
0.000000
20
0.000000
30
0.000000
71
166
72
29
73
30
0
VERTEX
8
0
6
CONTINUOUS
62
252
70
128
10
0.000000
20
0.000000
30
0.000000
71
166
72
30
73
31
0
VERTEX
8
0
6
CONTINUOUS
62
252
70
128
10
0.000000
20
0.000000
30
0.000000
71
31
72
32
73
166
0
VERTEX
8
0
6
CONTINUOUS
62
252
70
128
10
0.000000
20
0.000000
30
0.000000
71
166
72
32
73
211
0
VERTEX
8
0
6
CONTINUOUS
62
252
70
128
10
0.000000
20
0.000000
30
0.000000
71
166
72
211
73
165
0
VERTEX
8
0
6
CONTINUOUS
62
252
70
128
10
0.000000
20
0.000000
30
0.000000
71
165
72
211
73
164
0
VERTEX
8
0
6
CONTINUOUS
62
252
70
128
10
0.000000
20
0.000000
30
0.000000
71
164
72
211
73
163
0
VERTEX
8
0
6
CONTINUOUS
62
252
70
128
10
0.000000
20
0.000000
30
0.000000
71
163
72
211
73
212
0
VERTEX
8
0
6
CONTINUOUS
62
252
70
128
10
0.000000
20
0.000000
30
0.000000
71
163
72
212
73
162
0
VERTEX
8
0
6
CONTINUOUS
62
252
70
128
10
0.000000
20
0.000000
30
0.000000
71
162
72
212
73
161
0
VERTEX
8
0
6
CONTINUOUS
62
252
70
128
10
0.000000
20
0.000000
30
0.000000
71
161
72
212
73
160
0
VERTEX
8
0
6
CONTINUOUS
62
252
70
128
10
0.000000
20
0.000000
30
0.000000
71
160
72
212
73
42
0
VERTEX
8
0
6
CONTINUOUS
62
252
70
128
10
0.000000
20
0.000000
30
0.000000
71
160
72
42
73
43
0
VERTEX
8
0
6
CONTINUOUS
62
252
70
128
10
0.000000
20
0.000000
30
0.000000
71
32
72
33
73
211
0
VERTEX
8
0
6
CONTINUOUS
62
252
70
128
10
0.000000
20
0.000000
30
0.000000
71
211
72
33
73
34
0
VERTEX
8
0
6
CONTINUOUS
62
252
70
128
10
0.000000
20
0.000000
30
0.000000
71
211
72
34
73
35
0
VERTEX
8
0
6
CONTINUOUS
62
252
70
128
10
0.000000
20
0.000000
30
0.000000
71
35
72
36
73
211
0
VERTEX
8
0
6
CONTINUOUS
62
252
70
128
10
0.000000
20
0.000000
30
0.000000
71
72
72
37
73
212
0
VERTEX
8
0
6
CONTINUOUS
62
252
70
128
10
0.000000
20
0.000000
30
0.000000
71
212
72
37
73
38
0
VERTEX
8
0
6
CONTINUOUS
62
252
70
128
10
0.000000
20
0.000000
30
0.000000
71
212
72
38
73
39
0
VERTEX
8
0
6
CONTINUOUS
62
252
70
128
10
0.000000
20
0.000000
30
0.000000
71
39
72
40
73
212
0
VERTEX
8
0
6
CONTINUOUS
62
252
70
128
10
0.000000
20
0.000000
30
0.000000
71
212
72
40
73
41
0
VERTEX
8
0
6
CONTINUOUS
62
252
70
128
10
0.000000
20
0.000000
30
0.000000
71
212
72
41
73
42
0
VERTEX
8
0
6
CONTINUOUS
62
252
70
128
10
0.000000
20
0.000000
30
0.000000
71
43
72
44
73
160
0
VERTEX
8
0
6
CONTINUOUS
62
252
70
128
10
0.000000
20
0.000000
30
0.000000
71
160
72
44
73
45
0
VERTEX
8
0
6
CONTINUOUS
62
252
70
128
10
0.000000
20
0.000000
30
0.000000
71
160
72
45
73
159
0
VERTEX
8
0
6
CONTINUOUS
62
252
70
128
10
0.000000
20
0.000000
30
0.000000
71
159
72
45
73
46
0
VERTEX
8
0
6
CONTINUOUS
62
252
70
128
10
0.000000
20
0.000000
30
0.000000
71
159
72
46
73
47
0
VERTEX
8
0
6
CONTINUOUS
62
252
70
128
10
0.000000
20
0.000000
30
0.000000
71
47
72
48
73
159
0
VERTEX
8
0
6
CONTINUOUS
62
252
70
128
10
0.000000
20
0.000000
30
0.000000
71
159
72
48
73
49
0
VERTEX
8
0
6
CONTINUOUS
62
252
70
128
10
0.000000
20
0.000000
30
0.000000
71
159
72
49
73
50
0
VERTEX
8
0
6
CONTINUOUS
62
252
70
128
10
0.000000
20
0.000000
30
0.000000
71
50
72
51
73
159
0
VERTEX
8
0
6
CONTINUOUS
62
252
70
128
10
0.000000
20
0.000000
30
0.000000
71
159
72
51
73
158
0
VERTEX
8
0
6
CONTINUOUS
62
252
70
128
10
0.000000
20
0.000000
30
0.000000
71
158
72
51
73
229
0
VERTEX
8
0
6
CONTINUOUS
62
252
70
128
10
0.000000
20
0.000000
30
0.000000
71
158
72
229
73
230
0
VERTEX
8
0
6
CONTINUOUS
62
252
70
128
10
0.000000
20
0.000000
30
0.000000
71
51
72
52
73
229
0
VERTEX
8
0
6
CONTINUOUS
62
252
70
128
10
0.000000
20
0.000000
30
0.000000
71
229
72
52
73
228
0
VERTEX
8
0
6
CONTINUOUS
62
252
70
128
10
0.000000
20
0.000000
30
0.000000
71
228
72
52
73
53
0
VERTEX
8
0
6
CONTINUOUS
62
252
70
128
10
0.000000
20
0.000000
30
0.000000
71
228
72
53
73
227
0
VERTEX
8
0
6
CONTINUOUS
62
252
70
128
10
0.000000
20
0.000000
30
0.000000
71
227
72
53
73
54
0
VERTEX
8
0
6
CONTINUOUS
62
252
70
128
10
0.000000
20
0.000000
30
0.000000
71
227
72
54
73
226
0
VERTEX
8
0
6
CONTINUOUS
62
252
70
128
10
0.000000
20
0.000000
30
0.000000
71
226
72
54
73
55
0
VERTEX
8
0
6
CONTINUOUS
62
252
70
128
10
0.000000
20
0.000000
30
0.000000
71
226
72
55
73
56
0
VERTEX
8
0
6
CONTINUOUS
62
252
70
128
10
0.000000
20
0.000000
30
0.000000
71
226
72
56
73
225
0
VERTEX
8
0
6
CONTINUOUS
62
252
70
128
10
0.000000
20
0.000000
30
0.000000
71
225
72
56
73
57
0
VERTEX
8
0
6
CONTINUOUS
62
252
70
128
10
0.000000
20
0.000000
30
0.000000
71
225
72
57
73
224
0
VERTEX
8
0
6
CONTINUOUS
62
252
70
128
10
0.000000
20
0.000000
30
0.000000
71
224
72
57
73
58
0
VERTEX
8
0
6
CONTINUOUS
62
252
70
128
10
0.000000
20
0.000000
30
0.000000
71
224
72
58
73
223
0
VERTEX
8
0
6
CONTINUOUS
62
252
70
128
10
0.000000
20
0.000000
30
0.000000
71
223
72
58
73
59
0
VERTEX
8
0
6
CONTINUOUS
62
252
70
128
10
0.000000
20
0.000000
30
0.000000
71
223
72
59
73
60
0
VERTEX
8
0
6
CONTINUOUS
62
252
70
128
10
0.000000
20
0.000000
30
0.000000
71
60
72
61
73
223
0
VERTEX
8
0
6
CONTINUOUS
62
252
70
128
10
0.000000
20
0.000000
30
0.000000
71
223
72
61
73
222
0
VERTEX
8
0
6
CONTINUOUS
62
252
70
128
10
0.000000
20
0.000000
30
0.000000
71
222
72
61
73
62
0
VERTEX
8
0
6
CONTINUOUS
62
252
70
128
10
0.000000
20
0.000000
30
0.000000
71
222
72
62
73
221
0
VERTEX
8
0
6
CONTINUOUS
62
252
70
128
10
0.000000
20
0.000000
30
0.000000
71
221
72
62
73
63
0
VERTEX
8
0
6
CONTINUOUS
62
252
70
128
10
0.000000
20
0.000000
30
0.000000
71
221
72
63
73
64
0
VERTEX
8
0
6
CONTINUOUS
62
252
70
128
10
0.000000
20
0.000000
30
0.000000
71
64
72
65
73
221
0
VERTEX
8
0
6
CONTINUOUS
62
252
70
128
10
0.000000
20
0.000000
30
0.000000
71
221
72
65
73
220
0
VERTEX
8
0
6
CONTINUOUS
62
252
70
128
10
0.000000
20
0.000000
30
0.000000
71
220
72
65
73
66
0
VERTEX
8
0
6
CONTINUOUS
62
252
70
128
10
0.000000
20
0.000000
30
0.000000
71
220
72
66
73
219
0
VERTEX
8
0
6
CONTINUOUS
62
252
70
128
10
0.000000
20
0.000000
30
0.000000
71
219
72
66
73
67
0
VERTEX
8
0
6
CONTINUOUS
62
252
70
128
10
0.000000
20
0.000000
30
0.000000
71
219
72
67
73
218
0
VERTEX
8
0
6
CONTINUOUS
62
252
70
128
10
0.000000
20
0.000000
30
0.000000
71
218
72
67
73
68
0
VERTEX
8
0
6
CONTINUOUS
62
252
70
128
10
0.000000
20
0.000000
30
0.000000
71
218
72
68
73
217
0
VERTEX
8
0
6
CONTINUOUS
62
252
70
128
10
0.000000
20
0.000000
30
0.000000
71
217
72
68
73
69
0
VERTEX
8
0
6
CONTINUOUS
62
252
70
128
10
0.000000
20
0.000000
30
0.000000
71
217
72
69
73
216
0
VERTEX
8
0
6
CONTINUOUS
62
252
70
128
10
0.000000
20
0.000000
30
0.000000
71
216
72
69
73
215
0
VERTEX
8
0
6
CONTINUOUS
62
252
70
128
10
0.000000
20
0.000000
30
0.000000
71
215
72
69
73
70
0
VERTEX
8
0
6
CONTINUOUS
62
252
70
128
10
0.000000
20
0.000000
30
0.000000
71
215
72
70
73
214
0
VERTEX
8
0
6
CONTINUOUS
62
252
70
128
10
0.000000
20
0.000000
30
0.000000
71
214
72
70
73
71
0
VERTEX
8
0
6
CONTINUOUS
62
252
70
128
10
0.000000
20
0.000000
30
0.000000
71
214
72
71
73
213
0
VERTEX
8
0
6
CONTINUOUS
62
252
70
128
10
0.000000
20
0.000000
30
0.000000
71
213
72
71
73
72
0
VERTEX
8
0
6
CONTINUOUS
62
252
70
128
10
0.000000
20
0.000000
30
0.000000
71
213
72
72
73
212
0
VERTEX
8
0
6
CONTINUOUS
62
252
70
128
10
0.000000
20
0.000000
30
0.000000
71
108
72
73
73
185
0
VERTEX
8
0
6
CONTINUOUS
62
252
70
128
10
0.000000
20
0.000000
30
0.000000
71
185
72
73
73
74
0
VERTEX
8
0
6
CONTINUOUS
62
252
70
128
10
0.000000
20
0.000000
30
0.000000
71
185
72
74
73
184
0
VERTEX
8
0
6
CONTINUOUS
62
252
70
128
10
0.000000
20
0.000000
30
0.000000
71
184
72
74
73
75
0
VERTEX
8
0
6
CONTINUOUS
62
252
70
128
10
0.000000
20
0.000000
30
0.000000
71
184
72
75
73
183
0
VERTEX
8
0
6
CONTINUOUS
62
252
70
128
10
0.000000
20
0.000000
30
0.000000
71
183
72
75
73
76
0
VERTEX
8
0
6
CONTINUOUS
62
252
70
128
10
0.000000
20
0.000000
30
0.000000
71
183
72
76
73
182
0
VERTEX
8
0
6
CONTINUOUS
62
252
70
128
10
0.000000
20
0.000000
30
0.000000
71
182
72
76
73
77
0
VERTEX
8
0
6
CONTINUOUS
62
252
70
128
10
0.000000
20
0.000000
30
0.000000
71
182
72
77
73
78
0
VERTEX
8
0
6
CONTINUOUS
62
252
70
128
10
0.000000
20
0.000000
30
0.000000
71
78
72
79
73
182
0
VERTEX
8
0
6
CONTINUOUS
62
252
70
128
10
0.000000
20
0.000000
30
0.000000
71
182
72
79
73
181
0
VERTEX
8
0
6
CONTINUOUS
62
252
70
128
10
0.000000
20
0.000000
30
0.000000
71
181
72
79
73
80
0
VERTEX
8
0
6
CONTINUOUS
62
252
70
128
10
0.000000
20
0.000000
30
0.000000
71
181
72
80
73
262
0
VERTEX
8
0
6
CONTINUOUS
62
252
70
128
10
0.000000
20
0.000000
30
0.000000
71
262
72
80
73
81
0
VERTEX
8
0
6
CONTINUOUS
62
252
70
128
10
0.000000
20
0.000000
30
0.000000
71
262
72
81
73
82
0
VERTEX
8
0
6
CONTINUOUS
62
252
70
128
10
0.000000
20
0.000000
30
0.000000
71
82
72
83
73
262
0
VERTEX
8
0
6
CONTINUOUS
62
252
70
128
10
0.000000
20
0.000000
30
0.000000
71
262
72
83
73
261
0
VERTEX
8
0
6
CONTINUOUS
62
252
70
128
10
0.000000
20
0.000000
30
0.000000
71
261
72
83
73
84
0
VERTEX
8
0
6
CONTINUOUS
62
252
70
128
10
0.000000
20
0.000000
30
0.000000
71
261
72
84
73
260
0
VERTEX
8
0
6
CONTINUOUS
62
252
70
128
10
0.000000
20
0.000000
30
0.000000
71
260
72
84
73
85
0
VERTEX
8
0
6
CONTINUOUS
62
252
70
128
10
0.000000
20
0.000000
30
0.000000
71
260
72
85
73
259
0
VERTEX
8
0
6
CONTINUOUS
62
252
70
128
10
0.000000
20
0.000000
30
0.000000
71
259
72
85
73
86
0
VERTEX
8
0
6
CONTINUOUS
62
252
70
128
10
0.000000
20
0.000000
30
0.000000
71
259
72
86
73
258
0
VERTEX
8
0
6
CONTINUOUS
62
252
70
128
10
0.000000
20
0.000000
30
0.000000
71
258
72
86
73
87
0
VERTEX
8
0
6
CONTINUOUS
62
252
70
128
10
0.000000
20
0.000000
30
0.000000
71
258
72
87
73
257
0
VERTEX
8
0
6
CONTINUOUS
62
252
70
128
10
0.000000
20
0.000000
30
0.000000
71
257
72
87
73
256
0
VERTEX
8
0
6
CONTINUOUS
62
252
70
128
10
0.000000
20
0.000000
30
0.000000
71
256
72
87
73
88
0
VERTEX
8
0
6
CONTINUOUS
62
252
70
128
10
0.000000
20
0.000000
30
0.000000
71
256
72
88
73
255
0
VERTEX
8
0
6
CONTINUOUS
62
252
70
128
10
0.000000
20
0.000000
30
0.000000
71
255
72
88
73
89
0
VERTEX
8
0
6
CONTINUOUS
62
252
70
128
10
0.000000
20
0.000000
30
0.000000
71
255
72
89
73
254
0
VERTEX
8
0
6
CONTINUOUS
62
252
70
128
10
0.000000
20
0.000000
30
0.000000
71
254
72
89
73
90
0
VERTEX
8
0
6
CONTINUOUS
62
252
70
128
10
0.000000
20
0.000000
30
0.000000
71
254
72
90
73
253
0
VERTEX
8
0
6
CONTINUOUS
62
252
70
128
10
0.000000
20
0.000000
30
0.000000
71
253
72
90
73
91
0
VERTEX
8
0
6
CONTINUOUS
62
252
70
128
10
0.000000
20
0.000000
30
0.000000
71
253
72
91
73
92
0
VERTEX
8
0
6
CONTINUOUS
62
252
70
128
10
0.000000
20
0.000000
30
0.000000
71
92
72
93
73
253
0
VERTEX
8
0
6
CONTINUOUS
62
252
70
128
10
0.000000
20
0.000000
30
0.000000
71
253
72
93
73
94
0
VERTEX
8
0
6
CONTINUOUS
62
252
70
128
10
0.000000
20
0.000000
30
0.000000
71
253
72
94
73
95
0
VERTEX
8
0
6
CONTINUOUS
62
252
70
128
10
0.000000
20
0.000000
30
0.000000
71
95
72
96
73
253
0
VERTEX
8
0
6
CONTINUOUS
62
252
70
128
10
0.000000
20
0.000000
30
0.000000
71
253
72
96
73
178
0
VERTEX
8
0
6
CONTINUOUS
62
252
70
128
10
0.000000
20
0.000000
30
0.000000
71
253
72
178
73
179
0
VERTEX
8
0
6
CONTINUOUS
62
252
70
128
10
0.000000
20
0.000000
30
0.000000
71
96
72
97
73
178
0
VERTEX
8
0
6
CONTINUOUS
62
252
70
128
10
0.000000
20
0.000000
30
0.000000
71
178
72
97
73
98
0
VERTEX
8
0
6
CONTINUOUS
62
252
70
128
10
0.000000
20
0.000000
30
0.000000
71
178
72
98
73
99
0
VERTEX
8
0
6
CONTINUOUS
62
252
70
128
10
0.000000
20
0.000000
30
0.000000
71
178
72
99
73
177
0
VERTEX
8
0
6
CONTINUOUS
62
252
70
128
10
0.000000
20
0.000000
30
0.000000
71
177
72
99
73
100
0
VERTEX
8
0
6
CONTINUOUS
62
252
70
128
10
0.000000
20
0.000000
30
0.000000
71
177
72
100
73
101
0
VERTEX
8
0
6
CONTINUOUS
62
252
70
128
10
0.000000
20
0.000000
30
0.000000
71
101
72
102
73
177
0
VERTEX
8
0
6
CONTINUOUS
62
252
70
128
10
0.000000
20
0.000000
30
0.000000
71
177
72
102
73
103
0
VERTEX
8
0
6
CONTINUOUS
62
252
70
128
10
0.000000
20
0.000000
30
0.000000
71
177
72
103
73
104
0
VERTEX
8
0
6
CONTINUOUS
62
252
70
128
10
0.000000
20
0.000000
30
0.000000
71
104
72
105
73
177
0
VERTEX
8
0
6
CONTINUOUS
62
252
70
128
10
0.000000
20
0.000000
30
0.000000
71
177
72
105
73
176
0
VERTEX
8
0
6
CONTINUOUS
62
252
70
128
10
0.000000
20
0.000000
30
0.000000
71
176
72
105
73
188
0
VERTEX
8
0
6
CONTINUOUS
62
252
70
128
10
0.000000
20
0.000000
30
0.000000
71
176
72
188
73
189
0
VERTEX
8
0
6
CONTINUOUS
62
252
70
128
10
0.000000
20
0.000000
30
0.000000
71
105
72
106
73
188
0
VERTEX
8
0
6
CONTINUOUS
62
252
70
128
10
0.000000
20
0.000000
30
0.000000
71
188
72
106
73
187
0
VERTEX
8
0
6
CONTINUOUS
62
252
70
128
10
0.000000
20
0.000000
30
0.000000
71
187
72
106
73
107
0
VERTEX
8
0
6
CONTINUOUS
62
252
70
128
10
0.000000
20
0.000000
30
0.000000
71
187
72
107
73
186
0
VERTEX
8
0
6
CONTINUOUS
62
252
70
128
10
0.000000
20
0.000000
30
0.000000
71
186
72
107
73
108
0
VERTEX
8
0
6
CONTINUOUS
62
252
70
128
10
0.000000
20
0.000000
30
0.000000
71
186
72
108
73
185
0
VERTEX
8
0
6
CONTINUOUS
62
252
70
128
10
0.000000
20
0.000000
30
0.000000
71
144
72
109
73
150
0
VERTEX
8
0
6
CONTINUOUS
62
252
70
128
10
0.000000
20
0.000000
30
0.000000
71
150
72
109
73
110
0
VERTEX
8
0
6
CONTINUOUS
62
252
70
128
10
0.000000
20
0.000000
30
0.000000
71
150
72
110
73
111
0
VERTEX
8
0
6
CONTINUOUS
62
252
70
128
10
0.000000
20
0.000000
30
0.000000
71
111
72
112
73
150
0
VERTEX
8
0
6
CONTINUOUS
62
252
70
128
10
0.000000
20
0.000000
30
0.000000
71
150
72
112
73
113
0
VERTEX
8
0
6
CONTINUOUS
62
252
70
128
10
0.000000
20
0.000000
30
0.000000
71
150
72
113
73
149
0
VERTEX
8
0
6
CONTINUOUS
62
252
70
128
10
0.000000
20
0.000000
30
0.000000
71
149
72
113
73
114
0
VERTEX
8
0
6
CONTINUOUS
62
252
70
128
10
0.000000
20
0.000000
30
0.000000
71
149
72
114
73
115
0
VERTEX
8
0
6
CONTINUOUS
62
252
70
128
10
0.000000
20
0.000000
30
0.000000
71
115
72
116
73
149
0
VERTEX
8
0
6
CONTINUOUS
62
252
70
128
10
0.000000
20
0.000000
30
0.000000
71
149
72
116
73
117
0
VERTEX
8
0
6
CONTINUOUS
62
252
70
128
10
0.000000
20
0.000000
30
0.000000
71
149
72
117
73
118
0
VERTEX
8
0
6
CONTINUOUS
62
252
70
128
10
0.000000
20
0.000000
30
0.000000
71
118
72
119
73
149
0
VERTEX
8
0
6
CONTINUOUS
62
252
70
128
10
0.000000
20
0.000000
30
0.000000
71
149
72
119
73
148
0
VERTEX
8
0
6
CONTINUOUS
62
252
70
128
10
0.000000
20
0.000000
30
0.000000
71
148
72
119
73
120
0
VERTEX
8
0
6
CONTINUOUS
62
252
70
128
10
0.000000
20
0.000000
30
0.000000
71
148
72
120
73
121
0
VERTEX
8
0
6
CONTINUOUS
62
252
70
128
10
0.000000
20
0.000000
30
0.000000
71
121
72
122
73
148
0
VERTEX
8
0
6
CONTINUOUS
62
252
70
128
10
0.000000
20
0.000000
30
0.000000
71
148
72
122
73
252
0
VERTEX
8
0
6
CONTINUOUS
62
252
70
128
10
0.000000
20
0.000000
30
0.000000
71
148
72
252
73
147
0
VERTEX
8
0
6
CONTINUOUS
62
252
70
128
10
0.000000
20
0.000000
30
0.000000
71
147
72
252
73
146
0
VERTEX
8
0
6
CONTINUOUS
62
252
70
128
10
0.000000
20
0.000000
30
0.000000
71
146
72
252
73
145
0
VERTEX
8
0
6
CONTINUOUS
62
252
70
128
10
0.000000
20
0.000000
30
0.000000
71
145
72
252
73
253
0
VERTEX
8
0
6
CONTINUOUS
62
252
70
128
10
0.000000
20
0.000000
30
0.000000
71
145
72
253
73
180
0
VERTEX
8
0
6
CONTINUOUS
62
252
70
128
10
0.000000
20
0.000000
30
0.000000
71
180
72
253
73
179
0
VERTEX
8
0
6
CONTINUOUS
62
252
70
128
10
0.000000
20
0.000000
30
0.000000
71
122
72
123
73
252
0
VERTEX
8
0
6
CONTINUOUS
62
252
70
128
10
0.000000
20
0.000000
30
0.000000
71
252
72
123
73
124
0
VERTEX
8
0
6
CONTINUOUS
62
252
70
128
10
0.000000
20
0.000000
30
0.000000
71
252
72
124
73
125
0
VERTEX
8
0
6
CONTINUOUS
62
252
70
128
10
0.000000
20
0.000000
30
0.000000
71
125
72
126
73
252
0
VERTEX
8
0
6
CONTINUOUS
62
252
70
128
10
0.000000
20
0.000000
30
0.000000
71
252
72
126
73
127
0
VERTEX
8
0
6
CONTINUOUS
62
252
70
128
10
0.000000
20
0.000000
30
0.000000
71
252
72
127
73
128
0
VERTEX
8
0
6
CONTINUOUS
62
252
70
128
10
0.000000
20
0.000000
30
0.000000
71
252
72
128
73
251
0
VERTEX
8
0
6
CONTINUOUS
62
252
70
128
10
0.000000
20
0.000000
30
0.000000
71
251
72
128
73
129
0
VERTEX
8
0
6
CONTINUOUS
62
252
70
128
10
0.000000
20
0.000000
30
0.000000
71
251
72
129
73
250
0
VERTEX
8
0
6
CONTINUOUS
62
252
70
128
10
0.000000
20
0.000000
30
0.000000
71
250
72
129
73
130
0
VERTEX
8
0
6
CONTINUOUS
62
252
70
128
10
0.000000
20
0.000000
30
0.000000
71
250
72
130
73
249
0
VERTEX
8
0
6
CONTINUOUS
62
252
70
128
10
0.000000
20
0.000000
30
0.000000
71
249
72
130
73
131
0
VERTEX
8
0
6
CONTINUOUS
62
252
70
128
10
0.000000
20
0.000000
30
0.000000
71
249
72
131
73
248
0
VERTEX
8
0
6
CONTINUOUS
62
252
70
128
10
0.000000
20
0.000000
30
0.000000
71
248
72
131
73
247
0
VERTEX
8
0
6
CONTINUOUS
62
252
70
128
10
0.000000
20
0.000000
30
0.000000
71
247
72
131
73
132
0
VERTEX
8
0
6
CONTINUOUS
62
252
70
128
10
0.000000
20
0.000000
30
0.000000
71
247
72
132
73
246
0
VERTEX
8
0
6
CONTINUOUS
62
252
70
128
10
0.000000
20
0.000000
30
0.000000
71
246
72
132
73
133
0
VERTEX
8
0
6
CONTINUOUS
62
252
70
128
10
0.000000
20
0.000000
30
0.000000
71
246
72
133
73
245
0
VERTEX
8
0
6
CONTINUOUS
62
252
70
128
10
0.000000
20
0.000000
30
0.000000
71
245
72
133
73
134
0
VERTEX
8
0
6
CONTINUOUS
62
252
70
128
10
0.000000
20
0.000000
30
0.000000
71
245
72
134
73
244
0
VERTEX
8
0
6
CONTINUOUS
62
252
70
128
10
0.000000
20
0.000000
30
0.000000
71
244
72
134
73
135
0
VERTEX
8
0
6
CONTINUOUS
62
252
70
128
10
0.000000
20
0.000000
30
0.000000
71
244
72
135
73
243
0
VERTEX
8
0
6
CONTINUOUS
62
252
70
128
10
0.000000
20
0.000000
30
0.000000
71
243
72
135
73
136
0
VERTEX
8
0
6
CONTINUOUS
62
252
70
128
10
0.000000
20
0.000000
30
0.000000
71
243
72
136
73
137
0
VERTEX
8
0
6
CONTINUOUS
62
252
70
128
10
0.000000
20
0.000000
30
0.000000
71
137
72
138
73
243
0
VERTEX
8
0
6
CONTINUOUS
62
252
70
128
10
0.000000
20
0.000000
30
0.000000
71
243
72
138
73
139
0
VERTEX
8
0
6
CONTINUOUS
62
252
70
128
10
0.000000
20
0.000000
30
0.000000
71
243
72
139
73
140
0
VERTEX
8
0
6
CONTINUOUS
62
252
70
128
10
0.000000
20
0.000000
30
0.000000
71
140
72
141
73
243
0
VERTEX
8
0
6
CONTINUOUS
62
252
70
128
10
0.000000
20
0.000000
30
0.000000
71
243
72
141
73
151
0
VERTEX
8
0
6
CONTINUOUS
62
252
70
128
10
0.000000
20
0.000000
30
0.000000
71
243
72
151
73
152
0
VERTEX
8
0
6
CONTINUOUS
62
252
70
128
10
0.000000
20
0.000000
30
0.000000
71
141
72
142
73
151
0
VERTEX
8
0
6
CONTINUOUS
62
252
70
128
10
0.000000
20
0.000000
30
0.000000
71
151
72
142
73
143
0
VERTEX
8
0
6
CONTINUOUS
62
252
70
128
10
0.000000
20
0.000000
30
0.000000
71
151
72
143
73
144
0
VERTEX
8
0
6
CONTINUOUS
62
252
70
128
10
0.000000
20
0.000000
30
0.000000
71
151
72
144
73
150
0
VERTEX
8
0
6
CONTINUOUS
62
252
70
128
10
0.000000
20
0.000000
30
0.000000
71
152
72
153
73
243
0
VERTEX
8
0
6
CONTINUOUS
62
252
70
128
10
0.000000
20
0.000000
30
0.000000
71
243
72
153
73
154
0
VERTEX
8
0
6
CONTINUOUS
62
252
70
128
10
0.000000
20
0.000000
30
0.000000
71
243
72
154
73
242
0
VERTEX
8
0
6
CONTINUOUS
62
252
70
128
10
0.000000
20
0.000000
30
0.000000
71
242
72
154
73
155
0
VERTEX
8
0
6
CONTINUOUS
62
252
70
128
10
0.000000
20
0.000000
30
0.000000
71
242
72
155
73
156
0
VERTEX
8
0
6
CONTINUOUS
62
252
70
128
10
0.000000
20
0.000000
30
0.000000
71
157
72
239
73
156
0
VERTEX
8
0
6
CONTINUOUS
62
252
70
128
10
0.000000
20
0.000000
30
0.000000
71
156
72
239
73
240
0
VERTEX
8
0
6
CONTINUOUS
62
252
70
128
10
0.000000
20
0.000000
30
0.000000
71
156
72
240
73
241
0
VERTEX
8
0
6
CONTINUOUS
62
252
70
128
10
0.000000
20
0.000000
30
0.000000
71
158
72
234
73
157
0
VERTEX
8
0
6
CONTINUOUS
62
252
70
128
10
0.000000
20
0.000000
30
0.000000
71
157
72
234
73
235
0
VERTEX
8
0
6
CONTINUOUS
62
252
70
128
10
0.000000
20
0.000000
30
0.000000
71
157
72
235
73
236
0
VERTEX
8
0
6
CONTINUOUS
62
252
70
128
10
0.000000
20
0.000000
30
0.000000
71
170
72
171
73
202
0
VERTEX
8
0
6
CONTINUOUS
62
252
70
128
10
0.000000
20
0.000000
30
0.000000
71
202
72
171
73
172
0
VERTEX
8
0
6
CONTINUOUS
62
252
70
128
10
0.000000
20
0.000000
30
0.000000
71
202
72
172
73
201
0
VERTEX
8
0
6
CONTINUOUS
62
252
70
128
10
0.000000
20
0.000000
30
0.000000
71
201
72
172
73
173
0
VERTEX
8
0
6
CONTINUOUS
62
252
70
128
10
0.000000
20
0.000000
30
0.000000
71
201
72
173
73
174
0
VERTEX
8
0
6
CONTINUOUS
62
252
70
128
10
0.000000
20
0.000000
30
0.000000
71
175
72
198
73
174
0
VERTEX
8
0
6
CONTINUOUS
62
252
70
128
10
0.000000
20
0.000000
30
0.000000
71
174
72
198
73
199
0
VERTEX
8
0
6
CONTINUOUS
62
252
70
128
10
0.000000
20
0.000000
30
0.000000
71
174
72
199
73
200
0
VERTEX
8
0
6
CONTINUOUS
62
252
70
128
10
0.000000
20
0.000000
30
0.000000
71
176
72
193
73
175
0
VERTEX
8
0
6
CONTINUOUS
62
252
70
128
10
0.000000
20
0.000000
30
0.000000
71
175
72
193
73
194
0
VERTEX
8
0
6
CONTINUOUS
62
252
70
128
10
0.000000
20
0.000000
30
0.000000
71
175
72
194
73
195
0
VERTEX
8
0
6
CONTINUOUS
62
252
70
128
10
0.000000
20
0.000000
30
0.000000
71
189
72
190
73
176
0
VERTEX
8
0
6
CONTINUOUS
62
252
70
128
10
0.000000
20
0.000000
30
0.000000
71
176
72
190
73
191
0
VERTEX
8
0
6
CONTINUOUS
62
252
70
128
10
0.000000
20
0.000000
30
0.000000
71
176
72
191
73
192
0
VERTEX
8
0
6
CONTINUOUS
62
252
70
128
10
0.000000
20
0.000000
30
0.000000
71
192
72
193
73
176
0
VERTEX
8
0
6
CONTINUOUS
62
252
70
128
10
0.000000
20
0.000000
30
0.000000
71
195
72
196
73
175
0
VERTEX
8
0
6
CONTINUOUS
62
252
70
128
10
0.000000
20
0.000000
30
0.000000
71
175
72
196
73
197
0
VERTEX
8
0
6
CONTINUOUS
62
252
70
128
10
0.000000
20
0.000000
30
0.000000
71
175
72
197
73
198
0
VERTEX
8
0
6
CONTINUOUS
62
252
70
128
10
0.000000
20
0.000000
30
0.000000
71
200
72
201
73
174
0
VERTEX
8
0
6
CONTINUOUS
62
252
70
128
10
0.000000
20
0.000000
30
0.000000
71
230
72
231
73
158
0
VERTEX
8
0
6
CONTINUOUS
62
252
70
128
10
0.000000
20
0.000000
30
0.000000
71
158
72
231
73
232
0
VERTEX
8
0
6
CONTINUOUS
62
252
70
128
10
0.000000
20
0.000000
30
0.000000
71
158
72
232
73
233
0
VERTEX
8
0
6
CONTINUOUS
62
252
70
128
10
0.000000
20
0.000000
30
0.000000
71
233
72
234
73
158
0
VERTEX
8
0
6
CONTINUOUS
62
252
70
128
10
0.000000
20
0.000000
30
0.000000
71
236
72
237
73
157
0
VERTEX
8
0
6
CONTINUOUS
62
252
70
128
10
0.000000
20
0.000000
30
0.000000
71
157
72
237
73
238
0
VERTEX
8
0
6
CONTINUOUS
62
252
70
128
10
0.000000
20
0.000000
30
0.000000
71
157
72
238
73
239
0
VERTEX
8
0
6
CONTINUOUS
62
252
70
128
10
0.000000
20
0.000000
30
0.000000
71
241
72
242
73
156
0
SEQEND
0
POLYLINE
66
1
8
0
6
CONTINUOUS
62
252
70
64
75
0
10
0.000000
20
0.000000
30
0.000000
0
VERTEX
8
0
6
CONTINUOUS
62
252
70
192
10
0.000000
20
-30.500000
30
-20.750000
0
VERTEX
8
0
6
CONTINUOUS
62
252
70
192
10
3.000000
20
-30.500000
30
-20.750000
0
VERTEX
8
0
6
CONTINUOUS
62
252
70
192
10
3.000000
20
-27.000000
30
-20.750000
0
VERTEX
8
0
6
CONTINUOUS
62
252
70
192
10
0.000000
20
-27.000000
30
-20.750000
0
VERTEX
8
0
6
CONTINUOUS
62
252
70
128
10
0.000000
20
0.000000
30
0.000000
71
1
72
2
73
4
0
VERTEX
8
0
6
CONTINUOUS
62
252
70
128
10
0.000000
20
0.000000
30
0.000000
71
4
72
2
73
3
0
SEQEND
0
POLYLINE
66
1
8
0
6
CONTINUOUS
62
252
70
64
75
0
10
0.000000
20
0.000000
30
0.000000
0
VERTEX
8
0
6
CONTINUOUS
62
252
70
192
10
3.000000
20
-30.500000
30
-14.250000
0
VERTEX
8
0
6
CONTINUOUS
62
252
70
192
10
-0.000000
20
-30.500000
30
-14.250000
0
VERTEX
8
0
6
CONTINUOUS
62
252
70
192
10
-0.000000
20
-27.000000
30
-14.250000
0
VERTEX
8
0
6
CONTINUOUS
62
252
70
192
10
3.000000
20
-27.000000
30
-14.250000
0
VERTEX
8
0
6
CONTINUOUS
62
252
70
128
10
0.000000
20
0.000000
30
0.000000
71
1
72
2
73
4
0
VERTEX
8
0
6
CONTINUOUS
62
252
70
128
10
0.000000
20
0.000000
30
0.000000
71
4
72
2
73
3
0
SEQEND
0
POLYLINE
66
1
8
0
6
CONTINUOUS
62
252
70
64
75
0
10
0.000000
20
0.000000
30
0.000000
0
VERTEX
8
0
6
CONTINUOUS
62
252
70
192
10
3.000000
20
-27.000000
30
-20.750000
0
VERTEX
8
0
6
CONTINUOUS
62
252
70
192
10
3.000000
20
-26.435643
30
-20.700625
0
VERTEX
8
0
6
CONTINUOUS
62
252
70
192
10
3.000000
20
-25.888435
30
-20.554001
0
VERTEX
8
0
6
CONTINUOUS
62
252
70
192
10
3.000000
20
-25.375000
30
-20.314583
0
VERTEX
8
0
6
CONTINUOUS
62
252
70
192
10
3.000000
20
-24.910940
30
-19.989644
0
VERTEX
8
0
6
CONTINUOUS
62
252
70
192
10
3.000000
20
-24.510356
30
-19.589060
0
VERTEX
8
0
6
CONTINUOUS
62
252
70
192
10
3.000000
20
-24.185417
30
-19.125000
0
VERTEX
8
0
6
CONTINUOUS
62
252
70
192
10
3.000000
20
-23.945999
30
-18.611565
0
VERTEX
8
0
6
CONTINUOUS
62
252
70
192
10
3.000000
20
-23.799375
30
-18.064357
0
VERTEX
8
0
6
CONTINUOUS
62
252
70
192
10
3.000000
20
-23.750000
30
-17.500000
0
VERTEX
8
0
6
CONTINUOUS
62
252
70
192
10
3.000000
20
-23.799375
30
-16.935643
0
VERTEX
8
0
6
CONTINUOUS
62
252
70
192
10
3.000000
20
-23.945999
30
-16.388435
0
VERTEX
8
0
6
CONTINUOUS
62
252
70
192
10
3.000000
20
-24.185417
30
-15.875000
0
VERTEX
8
0
6
CONTINUOUS
62
252
70
192
10
3.000000
20
-24.510356
30
-15.410940
0
VERTEX
8
0
6
CONTINUOUS
62
252
70
192
10
3.000000
20
-24.910940
30
-15.010356
0
VERTEX
8
0
6
CONTINUOUS
62
252
70
192
10
3.000000
20
-25.375000
30
-14.685417
0
VERTEX
8
0
6
CONTINUOUS
62
252
70
192
10
3.000000
20
-25.888435
30
-14.445999
0
VERTEX
8
0
6
CONTINUOUS
62
252
70
192
10
3.000000
20
-26.435643
30
-14.299375
0
VERTEX
8
0
6
CONTINUOUS
62
252
70
192
10
3.000000
20
-27.000000
30
-14.250000
0
VERTEX
8
0
6
CONTINUOUS
62
252
70
192
10
-0.000000
20
-27.000000
30
-14.250000
0
VERTEX
8
0
6
CONTINUOUS
62
252
70
192
10
0.000000
20
-26.435643
30
-14.299375
0
VERTEX
8
0
6
CONTINUOUS
62
252
70
192
10
0.000000
20
-25.888435
30
-14.445999
0
VERTEX
8
0
6
CONTINUOUS
62
252
70
192
10
0.000000
20
-25.375000
30
-14.685417
0
VERTEX
8
0
6
CONTINUOUS
62
252
70
192
10
0.000000
20
-24.910940
30
-15.010356
0
VERTEX
8
0
6
CONTINUOUS
62
252
70
192
10
0.000000
20
-24.510356
30
-15.410940
0
VERTEX
8
0
6
CONTINUOUS
62
252
70
192
10
0.000000
20
-24.185417
30
-15.875000
0
VERTEX
8
0
6
CONTINUOUS
62
252
70
192
10
0.000000
20
-23.945999
30
-16.388435
0
VERTEX
8
0
6
CONTINUOUS
62
252
70
192
10
0.000000
20
-23.799375
30
-16.935643
0
VERTEX
8
0
6
CONTINUOUS
62
252
70
192
10
0.000000
20
-23.750000
30
-17.500000
0
VERTEX
8
0
6
CONTINUOUS
62
252
70
192
10
0.000000
20
-23.799375
30
-18.064357
0
VERTEX
8
0
6
CONTINUOUS
62
252
70
192
10
0.000000
20
-23.945999
30
-18.611565
0
VERTEX
8
0
6
CONTINUOUS
62
252
70
192
10
0.000000
20
-24.185417
30
-19.125000
0
VERTEX
8
0
6
CONTINUOUS
62
252
70
192
10
0.000000
20
-24.510356
30
-19.589060
0
VERTEX
8
0
6
CONTINUOUS
62
252
70
192
10
0.000000
20
-24.910940
30
-19.989644
0
VERTEX
8
0
6
CONTINUOUS
62
252
70
192
10
0.000000
20
-25.375000
30
-20.314583
0
VERTEX
8
0
6
CONTINUOUS
62
252
70
192
10
0.000000
20
-25.888435
30
-20.554001
0
VERTEX
8
0
6
CONTINUOUS
62
252
70
192
10
0.000000
20
-26.435643
30
-20.700625
0
VERTEX
8
0
6
CONTINUOUS
62
252
70
192
10
0.000000
20
-27.000000
30
-20.750000
0
VERTEX
8
0
6
CONTINUOUS
62
252
70
128
10
0.000000
20
0.000000
30
0.000000
71
38
72
1
73
37
0
VERTEX
8
0
6
CONTINUOUS
62
252
70
128
10
0.000000
20
0.000000
30
0.000000
71
37
72
1
73
2
0
VERTEX
8
0
6
CONTINUOUS
62
252
70
128
10
0.000000
20
0.000000
30
0.000000
71
37
72
2
73
36
0
VERTEX
8
0
6
CONTINUOUS
62
252
70
128
10
0.000000
20
0.000000
30
0.000000
71
36
72
2
73
3
0
VERTEX
8
0
6
CONTINUOUS
62
252
70
128
10
0.000000
20
0.000000
30
0.000000
71
36
72
3
73
35
0
VERTEX
8
0
6
CONTINUOUS
62
252
70
128
10
0.000000
20
0.000000
30
0.000000
71
35
72
3
73
4
0
VERTEX
8
0
6
CONTINUOUS
62
252
70
128
10
0.000000
20
0.000000
30
0.000000
71
35
72
4
73
34
0
VERTEX
8
0
6
CONTINUOUS
62
252
70
128
10
0.000000
20
0.000000
30
0.000000
71
34
72
4
73
5
0
VERTEX
8
0
6
CONTINUOUS
62
252
70
128
10
0.000000
20
0.000000
30
0.000000
71
34
72
5
73
33
0
VERTEX
8
0
6
CONTINUOUS
62
252
70
128
10
0.000000
20
0.000000
30
0.000000
71
33
72
5
73
6
0
VERTEX
8
0
6
CONTINUOUS
62
252
70
128
10
0.000000
20
0.000000
30
0.000000
71
33
72
6
73
32
0
VERTEX
8
0
6
CONTINUOUS
62
252
70
128
10
0.000000
20
0.000000
30
0.000000
71
32
72
6
73
7
0
VERTEX
8
0
6
CONTINUOUS
62
252
70
128
10
0.000000
20
0.000000
30
0.000000
71
32
72
7
73
8
0
VERTEX
8
0
6
CONTINUOUS
62
252
70
128
10
0.000000
20
0.000000
30
0.000000
71
32
72
8
73
31
0
VERTEX
8
0
6
CONTINUOUS
62
252
70
128
10
0.000000
20
0.000000
30
0.000000
71
31
72
8
73
9
0
VERTEX
8
0
6
CONTINUOUS
62
252
70
128
10
0.000000
20
0.000000
30
0.000000
71
31
72
9
73
30
0
VERTEX
8
0
6
CONTINUOUS
62
252
70
128
10
0.000000
20
0.000000
30
0.000000
71
30
72
9
73
10
0
VERTEX
8
0
6
CONTINUOUS
62
252
70
128
10
0.000000
20
0.000000
30
0.000000
71
30
72
10
73
29
0
VERTEX
8
0
6
CONTINUOUS
62
252
70
128
10
0.000000
20
0.000000
30
0.000000
71
29
72
10
73
11
0
VERTEX
8
0
6
CONTINUOUS
62
252
70
128
10
0.000000
20
0.000000
30
0.000000
71
29
72
11
73
28
0
VERTEX
8
0
6
CONTINUOUS
62
252
70
128
10
0.000000
20
0.000000
30
0.000000
71
28
72
11
73
27
0
VERTEX
8
0
6
CONTINUOUS
62
252
70
128
10
0.000000
20
0.000000
30
0.000000
71
27
72
11
73
12
0
VERTEX
8
0
6
CONTINUOUS
62
252
70
128
10
0.000000
20
0.000000
30
0.000000
71
27
72
12
73
26
0
VERTEX
8
0
6
CONTINUOUS
62
252
70
128
10
0.000000
20
0.000000
30
0.000000
71
26
72
12
73
13
0
VERTEX
8
0
6
CONTINUOUS
62
252
70
128
10
0.000000
20
0.000000
30
0.000000
71
26
72
13
73
25
0
VERTEX
8
0
6
CONTINUOUS
62
252
70
128
10
0.000000
20
0.000000
30
0.000000
71
25
72
13
73
14
0
VERTEX
8
0
6
CONTINUOUS
62
252
70
128
10
0.000000
20
0.000000
30
0.000000
71
25
72
14
73
24
0
VERTEX
8
0
6
CONTINUOUS
62
252
70
128
10
0.000000
20
0.000000
30
0.000000
71
24
72
14
73
15
0
VERTEX
8
0
6
CONTINUOUS
62
252
70
128
10
0.000000
20
0.000000
30
0.000000
71
24
72
15
73
23
0
VERTEX
8
0
6
CONTINUOUS
62
252
70
128
10
0.000000
20
0.000000
30
0.000000
71
23
72
15
73
16
0
VERTEX
8
0
6
CONTINUOUS
62
252
70
128
10
0.000000
20
0.000000
30
0.000000
71
23
72
16
73
22
0
VERTEX
8
0
6
CONTINUOUS
62
252
70
128
10
0.000000
20
0.000000
30
0.000000
71
22
72
16
73
17
0
VERTEX
8
0
6
CONTINUOUS
62
252
70
128
10
0.000000
20
0.000000
30
0.000000
71
22
72
17
73
21
0
VERTEX
8
0
6
CONTINUOUS
62
252
70
128
10
0.000000
20
0.000000
30
0.000000
71
21
72
17
73
18
0
VERTEX
8
0
6
CONTINUOUS
62
252
70
128
10
0.000000
20
0.000000
30
0.000000
71
21
72
18
73
19
0
VERTEX
8
0
6
CONTINUOUS
62
252
70
128
10
0.000000
20
0.000000
30
0.000000
71
19
72
20
73
21
0
SEQEND
0
POLYLINE
66
1
8
0
6
CONTINUOUS
62
252
70
64
75
0
10
0.000000
20
0.000000
30
0.000000
0
VERTEX
8
0
6
CONTINUOUS
62
252
70
192
10
3.000000
20
-30.500000
30
-20.750000
0
VERTEX
8
0
6
CONTINUOUS
62
252
70
192
10
3.000000
20
-30.500000
30
-14.250000
0
VERTEX
8
0
6
CONTINUOUS
62
252
70
192
10
3.000000
20
-27.000000
30
-14.250000
0
VERTEX
8
0
6
CONTINUOUS
62
252
70
192
10
3.000000
20
-26.435643
30
-14.299375
0
VERTEX
8
0
6
CONTINUOUS
62
252
70
192
10
3.000000
20
-25.888435
30
-14.445999
0
VERTEX
8
0
6
CONTINUOUS
62
252
70
192
10
3.000000
20
-25.375000
30
-14.685417
0
VERTEX
8
0
6
CONTINUOUS
62
252
70
192
10
3.000000
20
-24.910940
30
-15.010356
0
VERTEX
8
0
6
CONTINUOUS
62
252
70
192
10
3.000000
20
-24.510356
30
-15.410940
0
VERTEX
8
0
6
CONTINUOUS
62
252
70
192
10
3.000000
20
-24.185417
30
-15.875000
0
VERTEX
8
0
6
CONTINUOUS
62
252
70
192
10
3.000000
20
-23.945999
30
-16.388435
0
VERTEX
8
0
6
CONTINUOUS
62
252
70
192
10
3.000000
20
-23.799375
30
-16.935643
0
VERTEX
8
0
6
CONTINUOUS
62
252
70
192
10
3.000000
20
-23.750000
30
-17.500000
0
VERTEX
8
0
6
CONTINUOUS
62
252
70
192
10
3.000000
20
-23.799375
30
-18.064357
0
VERTEX
8
0
6
CONTINUOUS
62
252
70
192
10
3.000000
20
-23.945999
30
-18.611565
0
VERTEX
8
0
6
CONTINUOUS
62
252
70
192
10
3.000000
20
-24.185417
30
-19.125000
0
VERTEX
8
0
6
CONTINUOUS
62
252
70
192
10
3.000000
20
-24.510356
30
-19.589060
0
VERTEX
8
0
6
CONTINUOUS
62
252
70
192
10
3.000000
20
-24.910940
30
-19.989644
0
VERTEX
8
0
6
CONTINUOUS
62
252
70
192
10
3.000000
20
-25.375000
30
-20.314583
0
VERTEX
8
0
6
CONTINUOUS
62
252
70
192
10
3.000000
20
-25.888435
30
-20.554001
0
VERTEX
8
0
6
CONTINUOUS
62
252
70
192
10
3.000000
20
-26.435643
30
-20.700625
0
VERTEX
8
0
6
CONTINUOUS
62
252
70
192
10
3.000000
20
-27.000000
30
-20.750000
0
VERTEX
8
0
6
CONTINUOUS
62
252
70
128
10
0.000000
20
0.000000
30
0.000000
71
2
72
12
73
1
0
VERTEX
8
0
6
CONTINUOUS
62
252
70
128
10
0.000000
20
0.000000
30
0.000000
71
1
72
12
73
13
0
VERTEX
8
0
6
CONTINUOUS
62
252
70
128
10
0.000000
20
0.000000
30
0.000000
71
1
72
13
73
14
0
VERTEX
8
0
6
CONTINUOUS
62
252
70
128
10
0.000000
20
0.000000
30
0.000000
71
3
72
7
73
2
0
VERTEX
8
0
6
CONTINUOUS
62
252
70
128
10
0.000000
20
0.000000
30
0.000000
71
2
72
7
73
8
0
VERTEX
8
0
6
CONTINUOUS
62
252
70
128
10
0.000000
20
0.000000
30
0.000000
71
2
72
8
73
9
0
VERTEX
8
0
6
CONTINUOUS
62
252
70
128
10
0.000000
20
0.000000
30
0.000000
71
4
72
5
73
3
0
VERTEX
8
0
6
CONTINUOUS
62
252
70
128
10
0.000000
20
0.000000
30
0.000000
71
3
72
5
73
6
0
VERTEX
8
0
6
CONTINUOUS
62
252
70
128
10
0.000000
20
0.000000
30
0.000000
71
3
72
6
73
7
0
VERTEX
8
0
6
CONTINUOUS
62
252
70
128
10
0.000000
20
0.000000
30
0.000000
71
9
72
10
73
2
0
VERTEX
8
0
6
CONTINUOUS
62
252
70
128
10
0.000000
20
0.000000
30
0.000000
71
2
72
10
73
11
0
VERTEX
8
0
6
CONTINUOUS
62
252
70
128
10
0.000000
20
0.000000
30
0.000000
71
2
72
11
73
12
0
VERTEX
8
0
6
CONTINUOUS
62
252
70
128
10
0.000000
20
0.000000
30
0.000000
71
14
72
15
73
1
0
VERTEX
8
0
6
CONTINUOUS
62
252
70
128
10
0.000000
20
0.000000
30
0.000000
71
1
72
15
73
16
0
VERTEX
8
0
6
CONTINUOUS
62
252
70
128
10
0.000000
20
0.000000
30
0.000000
71
1
72
16
73
17
0
VERTEX
8
0
6
CONTINUOUS
62
252
70
128
10
0.000000
20
0.000000
30
0.000000
71
1
72
17
73
21
0
VERTEX
8
0
6
CONTINUOUS
62
252
70
128
10
0.000000
20
0.000000
30
0.000000
71
21
72
17
73
18
0
VERTEX
8
0
6
CONTINUOUS
62
252
70
128
10
0.000000
20
0.000000
30
0.000000
71
21
72
18
73
19
0
VERTEX
8
0
6
CONTINUOUS
62
252
70
128
10
0.000000
20
0.000000
30
0.000000
71
19
72
20
73
21
0
SEQEND
0
POLYLINE
66
1
8
0
6
CONTINUOUS
62
252
70
64
75
0
10
0.000000
20
0.000000
30
0.000000
0
VERTEX
8
0
6
CONTINUOUS
62
252
70
192
10
0.000000
20
24.748737
30
-26.998737
0
VERTEX
8
0
6
CONTINUOUS
62
252
70
192
10
0.000000
20
24.358029
30
-26.964555
0
VERTEX
8
0
6
CONTINUOUS
62
252
70
192
10
0.000000
20
23.979192
30
-26.863046
0
VERTEX
8
0
6
CONTINUOUS
62
252
70
192
10
0.000000
20
23.623737
30
-26.697294
0
VERTEX
8
0
6
CONTINUOUS
62
252
70
192
10
0.000000
20
23.302465
30
-26.472337
0
VERTEX
8
0
6
CONTINUOUS
62
252
70
192
10
0.000000
20
23.025137
30
-26.195009
0
VERTEX
8
0
6
CONTINUOUS
62
252
70
192
10
0.000000
20
22.800180
30
-25.873737
0
VERTEX
8
0
6
CONTINUOUS
62
252
70
192
10
0.000000
20
22.634429
30
-25.518283
0
VERTEX
8
0
6
CONTINUOUS
62
252
70
192
10
0.000000
20
22.532920
30
-25.139446
0
VERTEX
8
0
6
CONTINUOUS
62
252
70
192
10
0.000000
20
22.498737
30
-24.748737
0
VERTEX
8
0
6
CONTINUOUS
62
252
70
192
10
0.000000
20
22.532920
30
-24.358029
0
VERTEX
8
0
6
CONTINUOUS
62
252
70
192
10
0.000000
20
22.634429
30
-23.979192
0
VERTEX
8
0
6
CONTINUOUS
62
252
70
192
10
0.000000
20
22.800180
30
-23.623737
0
VERTEX
8
0
6
CONTINUOUS
62
252
70
192
10
0.000000
20
23.025137
30
-23.302465
0
VERTEX
8
0
6
CONTINUOUS
62
252
70
192
10
0.000000
20
23.302465
30
-23.025137
0
VERTEX
8
0
6
CONTINUOUS
62
252
70
192
10
0.000000
20
23.623737
30
-22.800180
0
VERTEX
8
0
6
CONTINUOUS
62
252
70
192
10
0.000000
20
23.979192
30
-22.634429
0
VERTEX
8
0
6
CONTINUOUS
62
252
70
192
10
0.000000
20
24.358029
30
-22.532920
0
VERTEX
8
0
6
CONTINUOUS
62
252
70
192
10
0.000000
20
24.748737
30
-22.498737
0
VERTEX
8
0
6
CONTINUOUS
62
252
70
192
10
0.000000
20
25.139446
30
-22.532920
0
VERTEX
8
0
6
CONTINUOUS
62
252
70
192
10
0.000000
20
25.518283
30
-22.634429
0
VERTEX
8
0
6
CONTINUOUS
62
252
70
192
10
0.000000
20
25.873737
30
-22.800180
0
VERTEX
8
0
6
CONTINUOUS
62
252
70
192
10
0.000000
20
26.195009
30
-23.025137
0
VERTEX
8
0
6
CONTINUOUS
62
252
70
192
10
0.000000
20
26.472337
30
-23.302465
0
VERTEX
8
0
6
CONTINUOUS
62
252
70
192
10
0.000000
20
26.697294
30
-23.623737
0
VERTEX
8
0
6
CONTINUOUS
62
252
70
192
10
0.000000
20
26.863046
30
-23.979192
0
VERTEX
8
0
6
CONTINUOUS
62
252
70
192
10
0.000000
20
26.964555
30
-24.358029
0
VERTEX
8
0
6
CONTINUOUS
62
252
70
192
10
0.000000
20
26.998737
30
-24.748737
0
VERTEX
8
0
6
CONTINUOUS
62
252
70
192
10
0.000000
20
26.964555
30
-25.139446
0
VERTEX
8
0
6
CONTINUOUS
62
252
70
192
10
0.000000
20
26.863046
30
-25.518283
0
VERTEX
8
0
6
CONTINUOUS
62
252
70
192
10
0.000000
20
26.697294
30
-25.873737
0
VERTEX
8
0
6
CONTINUOUS
62
252
70
192
10
0.000000
20
26.472337
30
-26.195009
0
VERTEX
8
0
6
CONTINUOUS
62
252
70
192
10
0.000000
20
26.195009
30
-26.472337
0
VERTEX
8
0
6
CONTINUOUS
62
252
70
192
10
0.000000
20
25.873737
30
-26.697294
0
VERTEX
8
0
6
CONTINUOUS
62
252
70
192
10
0.000000
20
25.518283
30
-26.863046
0
VERTEX
8
0
6
CONTINUOUS
62
252
70
192
10
0.000000
20
25.139446
30
-26.964555
0
VERTEX
8
0
6
CONTINUOUS
62
252
70
192
10
8.000000
20
24.748737
30
-26.998737
0
VERTEX
8
0
6
CONTINUOUS
62
252
70
192
10
8.000000
20
25.139446
30
-26.964555
0
VERTEX
8
0
6
CONTINUOUS
62
252
70
192
10
8.000000
20
25.518283
30
-26.863046
0
VERTEX
8
0
6
CONTINUOUS
62
252
70
192
10
8.000000
20
25.873737
30
-26.697294
0
VERTEX
8
0
6
CONTINUOUS
62
252
70
192
10
8.000000
20
26.195009
30
-26.472337
0
VERTEX
8
0
6
CONTINUOUS
62
252
70
192
10
8.000000
20
26.472337
30
-26.195009
0
VERTEX
8
0
6
CONTINUOUS
62
252
70
192
10
8.000000
20
26.697294
30
-25.873737
0
VERTEX
8
0
6
CONTINUOUS
62
252
70
192
10
8.000000
20
26.863046
30
-25.518283
0
VERTEX
8
0
6
CONTINUOUS
62
252
70
192
10
8.000000
20
26.964555
30
-25.139446
0
VERTEX
8
0
6
CONTINUOUS
62
252
70
192
10
8.000000
20
26.998737
30
-24.748737
0
VERTEX
8
0
6
CONTINUOUS
62
252
70
192
10
8.000000
20
26.964555
30
-24.358029
0
VERTEX
8
0
6
CONTINUOUS
62
252
70
192
10
8.000000
20
26.863046
30
-23.979192
0
VERTEX
8
0
6
CONTINUOUS
62
252
70
192
10
8.000000
20
26.697294
30
-23.623737
0
VERTEX
8
0
6
CONTINUOUS
62
252
70
192
10
8.000000
20
26.472337
30
-23.302465
0
VERTEX
8
0
6
CONTINUOUS
62
252
70
192
10
8.000000
20
26.195009
30
-23.025137
0
VERTEX
8
0
6
CONTINUOUS
62
252
70
192
10
8.000000
20
25.873737
30
-22.800180
0
VERTEX
8
0
6
CONTINUOUS
62
252
70
192
10
8.000000
20
25.518283
30
-22.634429
0
VERTEX
8
0
6
CONTINUOUS
62
252
70
192
10
8.000000
20
25.139446
30
-22.532920
0
VERTEX
8
0
6
CONTINUOUS
62
252
70
192
10
8.000000
20
24.748737
30
-22.498737
0
VERTEX
8
0
6
CONTINUOUS
62
252
70
192
10
8.000000
20
24.358029
30
-22.532920
0
VERTEX
8
0
6
CONTINUOUS
62
252
70
192
10
8.000000
20
23.979192
30
-22.634429
0
VERTEX
8
0
6
CONTINUOUS
62
252
70
192
10
8.000000
20
23.623737
30
-22.800180
0
VERTEX
8
0
6
CONTINUOUS
62
252
70
192
10
8.000000
20
23.302465
30
-23.025137
0
VERTEX
8
0
6
CONTINUOUS
62
252
70
192
10
8.000000
20
23.025137
30
-23.302465
0
VERTEX
8
0
6
CONTINUOUS
62
252
70
192
10
8.000000
20
22.800180
30
-23.623737
0
VERTEX
8
0
6
CONTINUOUS
62
252
70
192
10
8.000000
20
22.634429
30
-23.979192
0
VERTEX
8
0
6
CONTINUOUS
62
252
70
192
10
8.000000
20
22.532920
30
-24.358029
0
VERTEX
8
0
6
CONTINUOUS
62
252
70
192
10
8.000000
20
22.498737
30
-24.748737
0
VERTEX
8
0
6
CONTINUOUS
62
252
70
192
10
8.000000
20
22.532920
30
-25.139446
0
VERTEX
8
0
6
CONTINUOUS
62
252
70
192
10
8.000000
20
22.634429
30
-25.518283
0
VERTEX
8
0
6
CONTINUOUS
62
252
70
192
10
8.000000
20
22.800180
30
-25.873737
0
VERTEX
8
0
6
CONTINUOUS
62
252
70
192
10
8.000000
20
23.025137
30
-26.195009
0
VERTEX
8
0
6
CONTINUOUS
62
252
70
192
10
8.000000
20
23.302465
30
-26.472337
0
VERTEX
8
0
6
CONTINUOUS
62
252
70
192
10
8.000000
20
23.623737
30
-26.697294
0
VERTEX
8
0
6
CONTINUOUS
62
252
70
192
10
8.000000
20
23.979192
30
-26.863046
0
VERTEX
8
0
6
CONTINUOUS
62
252
70
192
10
8.000000
20
24.358029
30
-26.964555
0
VERTEX
8
0
6
CONTINUOUS
62
252
70
128
10
0.000000
20
0.000000
30
0.000000
71
2
72
72
73
1
0
VERTEX
8
0
6
CONTINUOUS
62
252
70
128
10
0.000000
20
0.000000
30
0.000000
71
1
72
72
73
37
0
VERTEX
8
0
6
CONTINUOUS
62
252
70
128
10
0.000000
20
0.000000
30
0.000000
71
1
72
37
73
38
0
VERTEX
8
0
6
CONTINUOUS
62
252
70
128
10
0.000000
20
0.000000
30
0.000000
71
72
72
2
73
71
0
VERTEX
8
0
6
CONTINUOUS
62
252
70
128
10
0.000000
20
0.000000
30
0.000000
71
71
72
2
73
3
0
VERTEX
8
0
6
CONTINUOUS
62
252
70
128
10
0.000000
20
0.000000
30
0.000000
71
71
72
3
73
70
0
VERTEX
8
0
6
CONTINUOUS
62
252
70
128
10
0.000000
20
0.000000
30
0.000000
71
70
72
3
73
4
0
VERTEX
8
0
6
CONTINUOUS
62
252
70
128
10
0.000000
20
0.000000
30
0.000000
71
70
72
4
73
69
0
VERTEX
8
0
6
CONTINUOUS
62
252
70
128
10
0.000000
20
0.000000
30
0.000000
71
69
72
4
73
5
0
VERTEX
8
0
6
CONTINUOUS
62
252
70
128
10
0.000000
20
0.000000
30
0.000000
71
69
72
5
73
68
0
VERTEX
8
0
6
CONTINUOUS
62
252
70
128
10
0.000000
20
0.000000
30
0.000000
71
68
72
5
73
6
0
VERTEX
8
0
6
CONTINUOUS
62
252
70
128
10
0.000000
20
0.000000
30
0.000000
71
68
72
6
73
67
0
VERTEX
8
0
6
CONTINUOUS
62
252
70
128
10
0.000000
20
0.000000
30
0.000000
71
67
72
6
73
7
0
VERTEX
8
0
6
CONTINUOUS
62
252
70
128
10
0.000000
20
0.000000
30
0.000000
71
67
72
7
73
66
0
VERTEX
8
0
6
CONTINUOUS
62
252
70
128
10
0.000000
20
0.000000
30
0.000000
71
66
72
7
73
8
0
VERTEX
8
0
6
CONTINUOUS
62
252
70
128
10
0.000000
20
0.000000
30
0.000000
71
66
72
8
73
65
0
VERTEX
8
0
6
CONTINUOUS
62
252
70
128
10
0.000000
20
0.000000
30
0.000000
71
65
72
8
73
9
0
VERTEX
8
0
6
CONTINUOUS
62
252
70
128
10
0.000000
20
0.000000
30
0.000000
71
65
72
9
73
64
0
VERTEX
8
0
6
CONTINUOUS
62
252
70
128
10
0.000000
20
0.000000
30
0.000000
71
64
72
9
73
10
0
VERTEX
8
0
6
CONTINUOUS
62
252
70
128
10
0.000000
20
0.000000
30
0.000000
71
64
72
10
73
63
0
VERTEX
8
0
6
CONTINUOUS
62
252
70
128
10
0.000000
20
0.000000
30
0.000000
71
63
72
10
73
11
0
VERTEX
8
0
6
CONTINUOUS
62
252
70
128
10
0.000000
20
0.000000
30
0.000000
71
63
72
11
73
62
0
VERTEX
8
0
6
CONTINUOUS
62
252
70
128
10
0.000000
20
0.000000
30
0.000000
71
62
72
11
73
12
0
VERTEX
8
0
6
CONTINUOUS
62
252
70
128
10
0.000000
20
0.000000
30
0.000000
71
62
72
12
73
61
0
VERTEX
8
0
6
CONTINUOUS
62
252
70
128
10
0.000000
20
0.000000
30
0.000000
71
61
72
12
73
13
0
VERTEX
8
0
6
CONTINUOUS
62
252
70
128
10
0.000000
20
0.000000
30
0.000000
71
61
72
13
73
60
0
VERTEX
8
0
6
CONTINUOUS
62
252
70
128
10
0.000000
20
0.000000
30
0.000000
71
60
72
13
73
14
0
VERTEX
8
0
6
CONTINUOUS
62
252
70
128
10
0.000000
20
0.000000
30
0.000000
71
60
72
14
73
59
0
VERTEX
8
0
6
CONTINUOUS
62
252
70
128
10
0.000000
20
0.000000
30
0.000000
71
59
72
14
73
15
0
VERTEX
8
0
6
CONTINUOUS
62
252
70
128
10
0.000000
20
0.000000
30
0.000000
71
59
72
15
73
58
0
VERTEX
8
0
6
CONTINUOUS
62
252
70
128
10
0.000000
20
0.000000
30
0.000000
71
58
72
15
73
16
0
VERTEX
8
0
6
CONTINUOUS
62
252
70
128
10
0.000000
20
0.000000
30
0.000000
71
58
72
16
73
57
0
VERTEX
8
0
6
CONTINUOUS
62
252
70
128
10
0.000000
20
0.000000
30
0.000000
71
57
72
16
73
17
0
VERTEX
8
0
6
CONTINUOUS
62
252
70
128
10
0.000000
20
0.000000
30
0.000000
71
57
72
17
73
56
0
VERTEX
8
0
6
CONTINUOUS
62
252
70
128
10
0.000000
20
0.000000
30
0.000000
71
56
72
17
73
18
0
VERTEX
8
0
6
CONTINUOUS
62
252
70
128
10
0.000000
20
0.000000
30
0.000000
71
56
72
18
73
55
0
VERTEX
8
0
6
CONTINUOUS
62
252
70
128
10
0.000000
20
0.000000
30
0.000000
71
55
72
18
73
19
0
VERTEX
8
0
6
CONTINUOUS
62
252
70
128
10
0.000000
20
0.000000
30
0.000000
71
55
72
19
73
54
0
VERTEX
8
0
6
CONTINUOUS
62
252
70
128
10
0.000000
20
0.000000
30
0.000000
71
54
72
19
73
20
0
VERTEX
8
0
6
CONTINUOUS
62
252
70
128
10
0.000000
20
0.000000
30
0.000000
71
54
72
20
73
53
0
VERTEX
8
0
6
CONTINUOUS
62
252
70
128
10
0.000000
20
0.000000
30
0.000000
71
53
72
20
73
21
0
VERTEX
8
0
6
CONTINUOUS
62
252
70
128
10
0.000000
20
0.000000
30
0.000000
71
53
72
21
73
52
0
VERTEX
8
0
6
CONTINUOUS
62
252
70
128
10
0.000000
20
0.000000
30
0.000000
71
52
72
21
73
22
0
VERTEX
8
0
6
CONTINUOUS
62
252
70
128
10
0.000000
20
0.000000
30
0.000000
71
52
72
22
73
23
0
VERTEX
8
0
6
CONTINUOUS
62
252
70
128
10
0.000000
20
0.000000
30
0.000000
71
52
72
23
73
51
0
VERTEX
8
0
6
CONTINUOUS
62
252
70
128
10
0.000000
20
0.000000
30
0.000000
71
51
72
23
73
24
0
VERTEX
8
0
6
CONTINUOUS
62
252
70
128
10
0.000000
20
0.000000
30
0.000000
71
51
72
24
73
50
0
VERTEX
8
0
6
CONTINUOUS
62
252
70
128
10
0.000000
20
0.000000
30
0.000000
71
50
72
24
73
25
0
VERTEX
8
0
6
CONTINUOUS
62
252
70
128
10
0.000000
20
0.000000
30
0.000000
71
50
72
25
73
49
0
VERTEX
8
0
6
CONTINUOUS
62
252
70
128
10
0.000000
20
0.000000
30
0.000000
71
49
72
25
73
26
0
VERTEX
8
0
6
CONTINUOUS
62
252
70
128
10
0.000000
20
0.000000
30
0.000000
71
49
72
26
73
48
0
VERTEX
8
0
6
CONTINUOUS
62
252
70
128
10
0.000000
20
0.000000
30
0.000000
71
48
72
26
73
27
0
VERTEX
8
0
6
CONTINUOUS
62
252
70
128
10
0.000000
20
0.000000
30
0.000000
71
48
72
27
73
47
0
VERTEX
8
0
6
CONTINUOUS
62
252
70
128
10
0.000000
20
0.000000
30
0.000000
71
47
72
27
73
28
0
VERTEX
8
0
6
CONTINUOUS
62
252
70
128
10
0.000000
20
0.000000
30
0.000000
71
47
72
28
73
46
0
VERTEX
8
0
6
CONTINUOUS
62
252
70
128
10
0.000000
20
0.000000
30
0.000000
71
46
72
28
73
29
0
VERTEX
8
0
6
CONTINUOUS
62
252
70
128
10
0.000000
20
0.000000
30
0.000000
71
46
72
29
73
45
0
VERTEX
8
0
6
CONTINUOUS
62
252
70
128
10
0.000000
20
0.000000
30
0.000000
71
45
72
29
73
44
0
VERTEX
8
0
6
CONTINUOUS
62
252
70
128
10
0.000000
20
0.000000
30
0.000000
71
44
72
29
73
30
0
VERTEX
8
0
6
CONTINUOUS
62
252
70
128
10
0.000000
20
0.000000
30
0.000000
71
44
72
30
73
43
0
VERTEX
8
0
6
CONTINUOUS
62
252
70
128
10
0.000000
20
0.000000
30
0.000000
71
43
72
30
73
31
0
VERTEX
8
0
6
CONTINUOUS
62
252
70
128
10
0.000000
20
0.000000
30
0.000000
71
43
72
31
73
32
0
VERTEX
8
0
6
CONTINUOUS
62
252
70
128
10
0.000000
20
0.000000
30
0.000000
71
43
72
32
73
42
0
VERTEX
8
0
6
CONTINUOUS
62
252
70
128
10
0.000000
20
0.000000
30
0.000000
71
42
72
32
73
33
0
VERTEX
8
0
6
CONTINUOUS
62
252
70
128
10
0.000000
20
0.000000
30
0.000000
71
42
72
33
73
41
0
VERTEX
8
0
6
CONTINUOUS
62
252
70
128
10
0.000000
20
0.000000
30
0.000000
71
41
72
33
73
34
0
VERTEX
8
0
6
CONTINUOUS
62
252
70
128
10
0.000000
20
0.000000
30
0.000000
71
41
72
34
73
40
0
VERTEX
8
0
6
CONTINUOUS
62
252
70
128
10
0.000000
20
0.000000
30
0.000000
71
40
72
34
73
35
0
VERTEX
8
0
6
CONTINUOUS
62
252
70
128
10
0.000000
20
0.000000
30
0.000000
71
40
72
35
73
39
0
VERTEX
8
0
6
CONTINUOUS
62
252
70
128
10
0.000000
20
0.000000
30
0.000000
71
39
72
35
73
36
0
VERTEX
8
0
6
CONTINUOUS
62
252
70
128
10
0.000000
20
0.000000
30
0.000000
71
39
72
36
73
38
0
VERTEX
8
0
6
CONTINUOUS
62
252
70
128
10
0.000000
20
0.000000
30
0.000000
71
38
72
36
73
1
0
SEQEND
0
POLYLINE
66
1
8
0
6
CONTINUOUS
62
252
70
64
75
0
10
0.000000
20
0.000000
30
0.000000
0
VERTEX
8
0
6
CONTINUOUS
62
252
70
192
10
0.000000
20
-24.748737
30
-26.998737
0
VERTEX
8
0
6
CONTINUOUS
62
252
70
192
10
0.000000
20
-25.139446
30
-26.964555
0
VERTEX
8
0
6
CONTINUOUS
62
252
70
192
10
0.000000
20
-25.518283
30
-26.863046
0
VERTEX
8
0
6
CONTINUOUS
62
252
70
192
10
0.000000
20
-25.873737
30
-26.697294
0
VERTEX
8
0
6
CONTINUOUS
62
252
70
192
10
0.000000
20
-26.195009
30
-26.472337
0
VERTEX
8
0
6
CONTINUOUS
62
252
70
192
10
0.000000
20
-26.472337
30
-26.195009
0
VERTEX
8
0
6
CONTINUOUS
62
252
70
192
10
0.000000
20
-26.697294
30
-25.873737
0
VERTEX
8
0
6
CONTINUOUS
62
252
70
192
10
0.000000
20
-26.863046
30
-25.518283
0
VERTEX
8
0
6
CONTINUOUS
62
252
70
192
10
0.000000
20
-26.964555
30
-25.139446
0
VERTEX
8
0
6
CONTINUOUS
62
252
70
192
10
0.000000
20
-26.998737
30
-24.748737
0
VERTEX
8
0
6
CONTINUOUS
62
252
70
192
10
0.000000
20
-26.964555
30
-24.358029
0
VERTEX
8
0
6
CONTINUOUS
62
252
70
192
10
0.000000
20
-26.863046
30
-23.979192
0
VERTEX
8
0
6
CONTINUOUS
62
252
70
192
10
0.000000
20
-26.697294
30
-23.623737
0
VERTEX
8
0
6
CONTINUOUS
62
252
70
192
10
0.000000
20
-26.472337
30
-23.302465
0
VERTEX
8
0
6
CONTINUOUS
62
252
70
192
10
0.000000
20
-26.195009
30
-23.025137
0
VERTEX
8
0
6
CONTINUOUS
62
252
70
192
10
0.000000
20
-25.873737
30
-22.800180
0
VERTEX
8
0
6
CONTINUOUS
62
252
70
192
10
0.000000
20
-25.518283
30
-22.634429
0
VERTEX
8
0
6
CONTINUOUS
62
252
70
192
10
0.000000
20
-25.139446
30
-22.532920
0
VERTEX
8
0
6
CONTINUOUS
62
252
70
192
10
0.000000
20
-24.748737
30
-22.498737
0
VERTEX
8
0
6
CONTINUOUS
62
252
70
192
10
0.000000
20
-24.358029
30
-22.532920
0
VERTEX
8
0
6
CONTINUOUS
62
252
70
192
10
0.000000
20
-23.979192
30
-22.634429
0
VERTEX
8
0
6
CONTINUOUS
62
252
70
192
10
0.000000
20
-23.623737
30
-22.800180
0
VERTEX
8
0
6
CONTINUOUS
62
252
70
192
10
0.000000
20
-23.302465
30
-23.025137
0
VERTEX
8
0
6
CONTINUOUS
62
252
70
192
10
0.000000
20
-23.025137
30
-23.302465
0
VERTEX
8
0
6
CONTINUOUS
62
252
70
192
10
0.000000
20
-22.800180
30
-23.623737
0
VERTEX
8
0
6
CONTINUOUS
62
252
70
192
10
0.000000
20
-22.634429
30
-23.979192
0
VERTEX
8
0
6
CONTINUOUS
62
252
70
192
10
0.000000
20
-22.532920
30
-24.358029
0
VERTEX
8
0
6
CONTINUOUS
62
252
70
192
10
0.000000
20
-22.498737
30
-24.748737
0
VERTEX
8
0
6
CONTINUOUS
62
252
70
192
10
0.000000
20
-22.532920
30
-25.139446
0
VERTEX
8
0
6
CONTINUOUS
62
252
70
192
10
0.000000
20
-22.634429
30
-25.518283
0
VERTEX
8
0
6
CONTINUOUS
62
252
70
192
10
0.000000
20
-22.800180
30
-25.873737
0
VERTEX
8
0
6
CONTINUOUS
62
252
70
192
10
0.000000
20
-23.025137
30
-26.195009
0
VERTEX
8
0
6
CONTINUOUS
62
252
70
192
10
0.000000
20
-23.302465
30
-26.472337
0
VERTEX
8
0
6
CONTINUOUS
62
252
70
192
10
0.000000
20
-23.623737
30
-26.697294
0
VERTEX
8
0
6
CONTINUOUS
62
252
70
192
10
0.000000
20
-23.979192
30
-26.863046
0
VERTEX
8
0
6
CONTINUOUS
62
252
70
192
10
0.000000
20
-24.358029
30
-26.964555
0
VERTEX
8
0
6
CONTINUOUS
62
252
70
192
10
8.000000
20
-24.748737
30
-26.998737
0
VERTEX
8
0
6
CONTINUOUS
62
252
70
192
10
8.000000
20
-24.358029
30
-26.964555
0
VERTEX
8
0
6
CONTINUOUS
62
252
70
192
10
8.000000
20
-23.979192
30
-26.863046
0
VERTEX
8
0
6
CONTINUOUS
62
252
70
192
10
8.000000
20
-23.623737
30
-26.697294
0
VERTEX
8
0
6
CONTINUOUS
62
252
70
192
10
8.000000
20
-23.302465
30
-26.472337
0
VERTEX
8
0
6
CONTINUOUS
62
252
70
192
10
8.000000
20
-23.025137
30
-26.195009
0
VERTEX
8
0
6
CONTINUOUS
62
252
70
192
10
8.000000
20
-22.800180
30
-25.873737
0
VERTEX
8
0
6
CONTINUOUS
62
252
70
192
10
8.000000
20
-22.634429
30
-25.518283
0
VERTEX
8
0
6
CONTINUOUS
62
252
70
192
10
8.000000
20
-22.532920
30
-25.139446
0
VERTEX
8
0
6
CONTINUOUS
62
252
70
192
10
8.000000
20
-22.498737
30
-24.748737
0
VERTEX
8
0
6
CONTINUOUS
62
252
70
192
10
8.000000
20
-22.532920
30
-24.358029
0
VERTEX
8
0
6
CONTINUOUS
62
252
70
192
10
8.000000
20
-22.634429
30
-23.979192
0
VERTEX
8
0
6
CONTINUOUS
62
252
70
192
10
8.000000
20
-22.800180
30
-23.623737
0
VERTEX
8
0
6
CONTINUOUS
62
252
70
192
10
8.000000
20
-23.025137
30
-23.302465
0
VERTEX
8
0
6
CONTINUOUS
62
252
70
192
10
8.000000
20
-23.302465
30
-23.025137
0
VERTEX
8
0
6
CONTINUOUS
62
252
70
192
10
8.000000
20
-23.623737
30
-22.800180
0
VERTEX
8
0
6
CONTINUOUS
62
252
70
192
10
8.000000
20
-23.979192
30
-22.634429
0
VERTEX
8
0
6
CONTINUOUS
62
252
70
192
10
8.000000
20
-24.358029
30
-22.532920
0
VERTEX
8
0
6
CONTINUOUS
62
252
70
192
10
8.000000
20
-24.748737
30
-22.498737
0
VERTEX
8
0
6
CONTINUOUS
62
252
70
192
10
8.000000
20
-25.139446
30
-22.532920
0
VERTEX
8
0
6
CONTINUOUS
62
252
70
192
10
8.000000
20
-25.518283
30
-22.634429
0
VERTEX
8
0
6
CONTINUOUS
62
252
70
192
10
8.000000
20
-25.873737
30
-22.800180
0
VERTEX
8
0
6
CONTINUOUS
62
252
70
192
10
8.000000
20
-26.195009
30
-23.025137
0
VERTEX
8
0
6
CONTINUOUS
62
252
70
192
10
8.000000
20
-26.472337
30
-23.302465
0
VERTEX
8
0
6
CONTINUOUS
62
252
70
192
10
8.000000
20
-26.697294
30
-23.623737
0
VERTEX
8
0
6
CONTINUOUS
62
252
70
192
10
8.000000
20
-26.863046
30
-23.979192
0
VERTEX
8
0
6
CONTINUOUS
62
252
70
192
10
8.000000
20
-26.964555
30
-24.358029
0
VERTEX
8
0
6
CONTINUOUS
62
252
70
192
10
8.000000
20
-26.998737
30
-24.748737
0
VERTEX
8
0
6
CONTINUOUS
62
252
70
192
10
8.000000
20
-26.964555
30
-25.139446
0
VERTEX
8
0
6
CONTINUOUS
62
252
70
192
10
8.000000
20
-26.863046
30
-25.518283
0
VERTEX
8
0
6
CONTINUOUS
62
252
70
192
10
8.000000
20
-26.697294
30
-25.873737
0
VERTEX
8
0
6
CONTINUOUS
62
252
70
192
10
8.000000
20
-26.472337
30
-26.195009
0
VERTEX
8
0
6
CONTINUOUS
62
252
70
192
10
8.000000
20
-26.195009
30
-26.472337
0
VERTEX
8
0
6
CONTINUOUS
62
252
70
192
10
8.000000
20
-25.873737
30
-26.697294
0
VERTEX
8
0
6
CONTINUOUS
62
252
70
192
10
8.000000
20
-25.518283
30
-26.863046
0
VERTEX
8
0
6
CONTINUOUS
62
252
70
192
10
8.000000
20
-25.139446
30
-26.964555
0
VERTEX
8
0
6
CONTINUOUS
62
252
70
128
10
0.000000
20
0.000000
30
0.000000
71
2
72
72
73
1
0
VERTEX
8
0
6
CONTINUOUS
62
252
70
128
10
0.000000
20
0.000000
30
0.000000
71
1
72
72
73
37
0
VERTEX
8
0
6
CONTINUOUS
62
252
70
128
10
0.000000
20
0.000000
30
0.000000
71
1
72
37
73
38
0
VERTEX
8
0
6
CONTINUOUS
62
252
70
128
10
0.000000
20
0.000000
30
0.000000
71
72
72
2
73
71
0
VERTEX
8
0
6
CONTINUOUS
62
252
70
128
10
0.000000
20
0.000000
30
0.000000
71
71
72
2
73
3
0
VERTEX
8
0
6
CONTINUOUS
62
252
70
128
10
0.000000
20
0.000000
30
0.000000
71
71
72
3
73
70
0
VERTEX
8
0
6
CONTINUOUS
62
252
70
128
10
0.000000
20
0.000000
30
0.000000
71
70
72
3
73
4
0
VERTEX
8
0
6
CONTINUOUS
62
252
70
128
10
0.000000
20
0.000000
30
0.000000
71
70
72
4
73
69
0
VERTEX
8
0
6
CONTINUOUS
62
252
70
128
10
0.000000
20
0.000000
30
0.000000
71
69
72
4
73
5
0
VERTEX
8
0
6
CONTINUOUS
62
252
70
128
10
0.000000
20
0.000000
30
0.000000
71
69
72
5
73
68
0
VERTEX
8
0
6
CONTINUOUS
62
252
70
128
10
0.000000
20
0.000000
30
0.000000
71
68
72
5
73
6
0
VERTEX
8
0
6
CONTINUOUS
62
252
70
128
10
0.000000
20
0.000000
30
0.000000
71
68
72
6
73
67
0
VERTEX
8
0
6
CONTINUOUS
62
252
70
128
10
0.000000
20
0.000000
30
0.000000
71
67
72
6
73
7
0
VERTEX
8
0
6
CONTINUOUS
62
252
70
128
10
0.000000
20
0.000000
30
0.000000
71
67
72
7
73
66
0
VERTEX
8
0
6
CONTINUOUS
62
252
70
128
10
0.000000
20
0.000000
30
0.000000
71
66
72
7
73
8
0
VERTEX
8
0
6
CONTINUOUS
62
252
70
128
10
0.000000
20
0.000000
30
0.000000
71
66
72
8
73
65
0
VERTEX
8
0
6
CONTINUOUS
62
252
70
128
10
0.000000
20
0.000000
30
0.000000
71
65
72
8
73
9
0
VERTEX
8
0
6
CONTINUOUS
62
252
70
128
10
0.000000
20
0.000000
30
0.000000
71
65
72
9
73
64
0
VERTEX
8
0
6
CONTINUOUS
62
252
70
128
10
0.000000
20
0.000000
30
0.000000
71
64
72
9
73
10
0
VERTEX
8
0
6
CONTINUOUS
62
252
70
128
10
0.000000
20
0.000000
30
0.000000
71
64
72
10
73
63
0
VERTEX
8
0
6
CONTINUOUS
62
252
70
128
10
0.000000
20
0.000000
30
0.000000
71
63
72
10
73
11
0
VERTEX
8
0
6
CONTINUOUS
62
252
70
128
10
0.000000
20
0.000000
30
0.000000
71
63
72
11
73
62
0
VERTEX
8
0
6
CONTINUOUS
62
252
70
128
10
0.000000
20
0.000000
30
0.000000
71
62
72
11
73
12
0
VERTEX
8
0
6
CONTINUOUS
62
252
70
128
10
0.000000
20
0.000000
30
0.000000
71
62
72
12
73
61
0
VERTEX
8
0
6
CONTINUOUS
62
252
70
128
10
0.000000
20
0.000000
30
0.000000
71
61
72
12
73
13
0
VERTEX
8
0
6
CONTINUOUS
62
252
70
128
10
0.000000
20
0.000000
30
0.000000
71
61
72
13
73
60
0
VERTEX
8
0
6
CONTINUOUS
62
252
70
128
10
0.000000
20
0.000000
30
0.000000
71
60
72
13
73
14
0
VERTEX
8
0
6
CONTINUOUS
62
252
70
128
10
0.000000
20
0.000000
30
0.000000
71
60
72
14
73
59
0
VERTEX
8
0
6
CONTINUOUS
62
252
70
128
10
0.000000
20
0.000000
30
0.000000
71
59
72
14
73
15
0
VERTEX
8
0
6
CONTINUOUS
62
252
70
128
10
0.000000
20
0.000000
30
0.000000
71
59
72
15
73
58
0
VERTEX
8
0
6
CONTINUOUS
62
252
70
128
10
0.000000
20
0.000000
30
0.000000
71
58
72
15
73
16
0
VERTEX
8
0
6
CONTINUOUS
62
252
70
128
10
0.000000
20
0.000000
30
0.000000
71
58
72
16
73
57
0
VERTEX
8
0
6
CONTINUOUS
62
252
70
128
10
0.000000
20
0.000000
30
0.000000
71
57
72
16
73
17
0
VERTEX
8
0
6
CONTINUOUS
62
252
70
128
10
0.000000
20
0.000000
30
0.000000
71
57
72
17
73
56
0
VERTEX
8
0
6
CONTINUOUS
62
252
70
128
10
0.000000
20
0.000000
30
0.000000
71
56
72
17
73
18
0
VERTEX
8
0
6
CONTINUOUS
62
252
70
128
10
0.000000
20
0.000000
30
0.000000
71
56
72
18
73
55
0
VERTEX
8
0
6
CONTINUOUS
62
252
70
128
10
0.000000
20
0.000000
30
0.000000
71
55
72
18
73
19
0
VERTEX
8
0
6
CONTINUOUS
62
252
70
128
10
0.000000
20
0.000000
30
0.000000
71
55
72
19
73
54
0
VERTEX
8
0
6
CONTINUOUS
62
252
70
128
10
0.000000
20
0.000000
30
0.000000
71
54
72
19
73
20
0
VERTEX
8
0
6
CONTINUOUS
62
252
70
128
10
0.000000
20
0.000000
30
0.000000
71
54
72
20
73
53
0
VERTEX
8
0
6
CONTINUOUS
62
252
70
128
10
0.000000
20
0.000000
30
0.000000
71
53
72
20
73
21
0
VERTEX
8
0
6
CONTINUOUS
62
252
70
128
10
0.000000
20
0.000000
30
0.000000
71
53
72
21
73
52
0
VERTEX
8
0
6
CONTINUOUS
62
252
70
128
10
0.000000
20
0.000000
30
0.000000
71
52
72
21
73
22
0
VERTEX
8
0
6
CONTINUOUS
62
252
70
128
10
0.000000
20
0.000000
30
0.000000
71
52
72
22
73
23
0
VERTEX
8
0
6
CONTINUOUS
62
252
70
128
10
0.000000
20
0.000000
30
0.000000
71
52
72
23
73
51
0
VERTEX
8
0
6
CONTINUOUS
62
252
70
128
10
0.000000
20
0.000000
30
0.000000
71
51
72
23
73
24
0
VERTEX
8
0
6
CONTINUOUS
62
252
70
128
10
0.000000
20
0.000000
30
0.000000
71
51
72
24
73
50
0
VERTEX
8
0
6
CONTINUOUS
62
252
70
128
10
0.000000
20
0.000000
30
0.000000
71
50
72
24
73
25
0
VERTEX
8
0
6
CONTINUOUS
62
252
70
128
10
0.000000
20
0.000000
30
0.000000
71
50
72
25
73
49
0
VERTEX
8
0
6
CONTINUOUS
62
252
70
128
10
0.000000
20
0.000000
30
0.000000
71
49
72
25
73
26
0
VERTEX
8
0
6
CONTINUOUS
62
252
70
128
10
0.000000
20
0.000000
30
0.000000
71
49
72
26
73
48
0
VERTEX
8
0
6
CONTINUOUS
62
252
70
128
10
0.000000
20
0.000000
30
0.000000
71
48
72
26
73
27
0
VERTEX
8
0
6
CONTINUOUS
62
252
70
128
10
0.000000
20
0.000000
30
0.000000
71
48
72
27
73
47
0
VERTEX
8
0
6
CONTINUOUS
62
252
70
128
10
0.000000
20
0.000000
30
0.000000
71
47
72
27
73
28
0
VERTEX
8
0
6
CONTINUOUS
62
252
70
128
10
0.000000
20
0.000000
30
0.000000
71
47
72
28
73
46
0
VERTEX
8
0
6
CONTINUOUS
62
252
70
128
10
0.000000
20
0.000000
30
0.000000
71
46
72
28
73
29
0
VERTEX
8
0
6
CONTINUOUS
62
252
70
128
10
0.000000
20
0.000000
30
0.000000
71
46
72
29
73
45
0
VERTEX
8
0
6
CONTINUOUS
62
252
70
128
10
0.000000
20
0.000000
30
0.000000
71
45
72
29
73
44
0
VERTEX
8
0
6
CONTINUOUS
62
252
70
128
10
0.000000
20
0.000000
30
0.000000
71
44
72
29
73
30
0
VERTEX
8
0
6
CONTINUOUS
62
252
70
128
10
0.000000
20
0.000000
30
0.000000
71
44
72
30
73
43
0
VERTEX
8
0
6
CONTINUOUS
62
252
70
128
10
0.000000
20
0.000000
30
0.000000
71
43
72
30
73
31
0
VERTEX
8
0
6
CONTINUOUS
62
252
70
128
10
0.000000
20
0.000000
30
0.000000
71
43
72
31
73
32
0
VERTEX
8
0
6
CONTINUOUS
62
252
70
128
10
0.000000
20
0.000000
30
0.000000
71
43
72
32
73
42
0
VERTEX
8
0
6
CONTINUOUS
62
252
70
128
10
0.000000
20
0.000000
30
0.000000
71
42
72
32
73
33
0
VERTEX
8
0
6
CONTINUOUS
62
252
70
128
10
0.000000
20
0.000000
30
0.000000
71
42
72
33
73
41
0
VERTEX
8
0
6
CONTINUOUS
62
252
70
128
10
0.000000
20
0.000000
30
0.000000
71
41
72
33
73
34
0
VERTEX
8
0
6
CONTINUOUS
62
252
70
128
10
0.000000
20
0.000000
30
0.000000
71
41
72
34
73
40
0
VERTEX
8
0
6
CONTINUOUS
62
252
70
128
10
0.000000
20
0.000000
30
0.000000
71
40
72
34
73
35
0
VERTEX
8
0
6
CONTINUOUS
62
252
70
128
10
0.000000
20
0.000000
30
0.000000
71
40
72
35
73
39
0
VERTEX
8
0
6
CONTINUOUS
62
252
70
128
10
0.000000
20
0.000000
30
0.000000
71
39
72
35
73
36
0
VERTEX
8
0
6
CONTINUOUS
62
252
70
128
10
0.000000
20
0.000000
30
0.000000
71
39
72
36
73
38
0
VERTEX
8
0
6
CONTINUOUS
62
252
70
128
10
0.000000
20
0.000000
30
0.000000
71
38
72
36
73
1
0
SEQEND
0
POLYLINE
66
1
8
0
6
CONTINUOUS
62
252
70
64
75
0
10
0.000000
20
0.000000
30
0.000000
0
VERTEX
8
0
6
CONTINUOUS
62
252
70
192
10
-0.000000
20
24.748737
30
22.498737
0
VERTEX
8
0
6
CONTINUOUS
62
252
70
192
10
-0.000000
20
24.358029
30
22.532920
0
VERTEX
8
0
6
CONTINUOUS
62
252
70
192
10
-0.000000
20
23.979192
30
22.634429
0
VERTEX
8
0
6
CONTINUOUS
62
252
70
192
10
-0.000000
20
23.623737
30
22.800180
0
VERTEX
8
0
6
CONTINUOUS
62
252
70
192
10
-0.000000
20
23.302465
30
23.025137
0
VERTEX
8
0
6
CONTINUOUS
62
252
70
192
10
-0.000000
20
23.025137
30
23.302465
0
VERTEX
8
0
6
CONTINUOUS
62
252
70
192
10
-0.000000
20
22.800180
30
23.623737
0
VERTEX
8
0
6
CONTINUOUS
62
252
70
192
10
-0.000000
20
22.634429
30
23.979192
0
VERTEX
8
0
6
CONTINUOUS
62
252
70
192
10
-0.000000
20
22.532920
30
24.358029
0
VERTEX
8
0
6
CONTINUOUS
62
252
70
192
10
-0.000000
20
22.498737
30
24.748737
0
VERTEX
8
0
6
CONTINUOUS
62
252
70
192
10
-0.000000
20
22.532920
30
25.139446
0
VERTEX
8
0
6
CONTINUOUS
62
252
70
192
10
-0.000000
20
22.634429
30
25.518283
0
VERTEX
8
0
6
CONTINUOUS
62
252
70
192
10
-0.000000
20
22.800180
30
25.873737
0
VERTEX
8
0
6
CONTINUOUS
62
252
70
192
10
-0.000000
20
23.025137
30
26.195009
0
VERTEX
8
0
6
CONTINUOUS
62
252
70
192
10
-0.000000
20
23.302465
30
26.472337
0
VERTEX
8
0
6
CONTINUOUS
62
252
70
192
10
-0.000000
20
23.623737
30
26.697294
0
VERTEX
8
0
6
CONTINUOUS
62
252
70
192
10
-0.000000
20
23.979192
30
26.863046
0
VERTEX
8
0
6
CONTINUOUS
62
252
70
192
10
-0.000000
20
24.358029
30
26.964555
0
VERTEX
8
0
6
CONTINUOUS
62
252
70
192
10
-0.000000
20
24.748737
30
26.998737
0
VERTEX
8
0
6
CONTINUOUS
62
252
70
192
10
-0.000000
20
25.139446
30
26.964555
0
VERTEX
8
0
6
CONTINUOUS
62
252
70
192
10
-0.000000
20
25.518283
30
26.863046
0
VERTEX
8
0
6
CONTINUOUS
62
252
70
192
10
-0.000000
20
25.873737
30
26.697294
0
VERTEX
8
0
6
CONTINUOUS
62
252
70
192
10
-0.000000
20
26.195009
30
26.472337
0
VERTEX
8
0
6
CONTINUOUS
62
252
70
192
10
-0.000000
20
26.472337
30
26.195009
0
VERTEX
8
0
6
CONTINUOUS
62
252
70
192
10
-0.000000
20
26.697294
30
25.873737
0
VERTEX
8
0
6
CONTINUOUS
62
252
70
192
10
-0.000000
20
26.863046
30
25.518283
0
VERTEX
8
0
6
CONTINUOUS
62
252
70
192
10
-0.000000
20
26.964555
30
25.139446
0
VERTEX
8
0
6
CONTINUOUS
62
252
70
192
10
-0.000000
20
26.998737
30
24.748737
0
VERTEX
8
0
6
CONTINUOUS
62
252
70
192
10
-0.000000
20
26.964555
30
24.358029
0
VERTEX
8
0
6
CONTINUOUS
62
252
70
192
10
-0.000000
20
26.863046
30
23.979192
0
VERTEX
8
0
6
CONTINUOUS
62
252
70
192
10
-0.000000
20
26.697294
30
23.623737
0
VERTEX
8
0
6
CONTINUOUS
62
252
70
192
10
-0.000000
20
26.472337
30
23.302465
0
VERTEX
8
0
6
CONTINUOUS
62
252
70
192
10
-0.000000
20
26.195009
30
23.025137
0
VERTEX
8
0
6
CONTINUOUS
62
252
70
192
10
-0.000000
20
25.873737
30
22.800180
0
VERTEX
8
0
6
CONTINUOUS
62
252
70
192
10
-0.000000
20
25.518283
30
22.634429
0
VERTEX
8
0
6
CONTINUOUS
62
252
70
192
10
-0.000000
20
25.139446
30
22.532920
0
VERTEX
8
0
6
CONTINUOUS
62
252
70
192
10
8.000000
20
24.748737
30
22.498737
0
VERTEX
8
0
6
CONTINUOUS
62
252
70
192
10
8.000000
20
25.139446
30
22.532920
0
VERTEX
8
0
6
CONTINUOUS
62
252
70
192
10
8.000000
20
25.518283
30
22.634429
0
VERTEX
8
0
6
CONTINUOUS
62
252
70
192
10
8.000000
20
25.873737
30
22.800180
0
VERTEX
8
0
6
CONTINUOUS
62
252
70
192
10
8.000000
20
26.195009
30
23.025137
0
VERTEX
8
0
6
CONTINUOUS
62
252
70
192
10
8.000000
20
26.472337
30
23.302465
0
VERTEX
8
0
6
CONTINUOUS
62
252
70
192
10
8.000000
20
26.697294
30
23.623737
0
VERTEX
8
0
6
CONTINUOUS
62
252
70
192
10
8.000000
20
26.863046
30
23.979192
0
VERTEX
8
0
6
CONTINUOUS
62
252
70
192
10
8.000000
20
26.964555
30
24.358029
0
VERTEX
8
0
6
CONTINUOUS
62
252
70
192
10
8.000000
20
26.998737
30
24.748737
0
VERTEX
8
0
6
CONTINUOUS
62
252
70
192
10
8.000000
20
26.964555
30
25.139446
0
VERTEX
8
0
6
CONTINUOUS
62
252
70
192
10
8.000000
20
26.863046
30
25.518283
0
VERTEX
8
0
6
CONTINUOUS
62
252
70
192
10
8.000000
20
26.697294
30
25.873737
0
VERTEX
8
0
6
CONTINUOUS
62
252
70
192
10
8.000000
20
26.472337
30
26.195009
0
VERTEX
8
0
6
CONTINUOUS
62
252
70
192
10
8.000000
20
26.195009
30
26.472337
0
VERTEX
8
0
6
CONTINUOUS
62
252
70
192
10
8.000000
20
25.873737
30
26.697294
0
VERTEX
8
0
6
CONTINUOUS
62
252
70
192
10
8.000000
20
25.518283
30
26.863046
0
VERTEX
8
0
6
CONTINUOUS
62
252
70
192
10
8.000000
20
25.139446
30
26.964555
0
VERTEX
8
0
6
CONTINUOUS
62
252
70
192
10
8.000000
20
24.748737
30
26.998737
0
VERTEX
8
0
6
CONTINUOUS
62
252
70
192
10
8.000000
20
24.358029
30
26.964555
0
VERTEX
8
0
6
CONTINUOUS
62
252
70
192
10
8.000000
20
23.979192
30
26.863046
0
VERTEX
8
0
6
CONTINUOUS
62
252
70
192
10
8.000000
20
23.623737
30
26.697294
0
VERTEX
8
0
6
CONTINUOUS
62
252
70
192
10
8.000000
20
23.302465
30
26.472337
0
VERTEX
8
0
6
CONTINUOUS
62
252
70
192
10
8.000000
20
23.025137
30
26.195009
0
VERTEX
8
0
6
CONTINUOUS
62
252
70
192
10
8.000000
20
22.800180
30
25.873737
0
VERTEX
8
0
6
CONTINUOUS
62
252
70
192
10
8.000000
20
22.634429
30
25.518283
0
VERTEX
8
0
6
CONTINUOUS
62
252
70
192
10
8.000000
20
22.532920
30
25.139446
0
VERTEX
8
0
6
CONTINUOUS
62
252
70
192
10
8.000000
20
22.498737
30
24.748737
0
VERTEX
8
0
6
CONTINUOUS
62
252
70
192
10
8.000000
20
22.532920
30
24.358029
0
VERTEX
8
0
6
CONTINUOUS
62
252
70
192
10
8.000000
20
22.634429
30
23.979192
0
VERTEX
8
0
6
CONTINUOUS
62
252
70
192
10
8.000000
20
22.800180
30
23.623737
0
VERTEX
8
0
6
CONTINUOUS
62
252
70
192
10
8.000000
20
23.025137
30
23.302465
0
VERTEX
8
0
6
CONTINUOUS
62
252
70
192
10
8.000000
20
23.302465
30
23.025137
0
VERTEX
8
0
6
CONTINUOUS
62
252
70
192
10
8.000000
20
23.623737
30
22.800180
0
VERTEX
8
0
6
CONTINUOUS
62
252
70
192
10
8.000000
20
23.979192
30
22.634429
0
VERTEX
8
0
6
CONTINUOUS
62
252
70
192
10
8.000000
20
24.358029
30
22.532920
0
VERTEX
8
0
6
CONTINUOUS
62
252
70
128
10
0.000000
20
0.000000
30
0.000000
71
2
72
72
73
1
0
VERTEX
8
0
6
CONTINUOUS
62
252
70
128
10
0.000000
20
0.000000
30
0.000000
71
1
72
72
73
37
0
VERTEX
8
0
6
CONTINUOUS
62
252
70
128
10
0.000000
20
0.000000
30
0.000000
71
1
72
37
73
38
0
VERTEX
8
0
6
CONTINUOUS
62
252
70
128
10
0.000000
20
0.000000
30
0.000000
71
72
72
2
73
71
0
VERTEX
8
0
6
CONTINUOUS
62
252
70
128
10
0.000000
20
0.000000
30
0.000000
71
71
72
2
73
3
0
VERTEX
8
0
6
CONTINUOUS
62
252
70
128
10
0.000000
20
0.000000
30
0.000000
71
71
72
3
73
70
0
VERTEX
8
0
6
CONTINUOUS
62
252
70
128
10
0.000000
20
0.000000
30
0.000000
71
70
72
3
73
4
0
VERTEX
8
0
6
CONTINUOUS
62
252
70
128
10
0.000000
20
0.000000
30
0.000000
71
70
72
4
73
69
0
VERTEX
8
0
6
CONTINUOUS
62
252
70
128
10
0.000000
20
0.000000
30
0.000000
71
69
72
4
73
5
0
VERTEX
8
0
6
CONTINUOUS
62
252
70
128
10
0.000000
20
0.000000
30
0.000000
71
69
72
5
73
68
0
VERTEX
8
0
6
CONTINUOUS
62
252
70
128
10
0.000000
20
0.000000
30
0.000000
71
68
72
5
73
6
0
VERTEX
8
0
6
CONTINUOUS
62
252
70
128
10
0.000000
20
0.000000
30
0.000000
71
68
72
6
73
67
0
VERTEX
8
0
6
CONTINUOUS
62
252
70
128
10
0.000000
20
0.000000
30
0.000000
71
67
72
6
73
7
0
VERTEX
8
0
6
CONTINUOUS
62
252
70
128
10
0.000000
20
0.000000
30
0.000000
71
67
72
7
73
66
0
VERTEX
8
0
6
CONTINUOUS
62
252
70
128
10
0.000000
20
0.000000
30
0.000000
71
66
72
7
73
8
0
VERTEX
8
0
6
CONTINUOUS
62
252
70
128
10
0.000000
20
0.000000
30
0.000000
71
66
72
8
73
65
0
VERTEX
8
0
6
CONTINUOUS
62
252
70
128
10
0.000000
20
0.000000
30
0.000000
71
65
72
8
73
9
0
VERTEX
8
0
6
CONTINUOUS
62
252
70
128
10
0.000000
20
0.000000
30
0.000000
71
65
72
9
73
64
0
VERTEX
8
0
6
CONTINUOUS
62
252
70
128
10
0.000000
20
0.000000
30
0.000000
71
64
72
9
73
10
0
VERTEX
8
0
6
CONTINUOUS
62
252
70
128
10
0.000000
20
0.000000
30
0.000000
71
64
72
10
73
63
0
VERTEX
8
0
6
CONTINUOUS
62
252
70
128
10
0.000000
20
0.000000
30
0.000000
71
63
72
10
73
11
0
VERTEX
8
0
6
CONTINUOUS
62
252
70
128
10
0.000000
20
0.000000
30
0.000000
71
63
72
11
73
62
0
VERTEX
8
0
6
CONTINUOUS
62
252
70
128
10
0.000000
20
0.000000
30
0.000000
71
62
72
11
73
12
0
VERTEX
8
0
6
CONTINUOUS
62
252
70
128
10
0.000000
20
0.000000
30
0.000000
71
62
72
12
73
61
0
VERTEX
8
0
6
CONTINUOUS
62
252
70
128
10
0.000000
20
0.000000
30
0.000000
71
61
72
12
73
13
0
VERTEX
8
0
6
CONTINUOUS
62
252
70
128
10
0.000000
20
0.000000
30
0.000000
71
61
72
13
73
60
0
VERTEX
8
0
6
CONTINUOUS
62
252
70
128
10
0.000000
20
0.000000
30
0.000000
71
60
72
13
73
14
0
VERTEX
8
0
6
CONTINUOUS
62
252
70
128
10
0.000000
20
0.000000
30
0.000000
71
60
72
14
73
59
0
VERTEX
8
0
6
CONTINUOUS
62
252
70
128
10
0.000000
20
0.000000
30
0.000000
71
59
72
14
73
15
0
VERTEX
8
0
6
CONTINUOUS
62
252
70
128
10
0.000000
20
0.000000
30
0.000000
71
59
72
15
73
58
0
VERTEX
8
0
6
CONTINUOUS
62
252
70
128
10
0.000000
20
0.000000
30
0.000000
71
58
72
15
73
16
0
VERTEX
8
0
6
CONTINUOUS
62
252
70
128
10
0.000000
20
0.000000
30
0.000000
71
58
72
16
73
57
0
VERTEX
8
0
6
CONTINUOUS
62
252
70
128
10
0.000000
20
0.000000
30
0.000000
71
57
72
16
73
17
0
VERTEX
8
0
6
CONTINUOUS
62
252
70
128
10
0.000000
20
0.000000
30
0.000000
71
57
72
17
73
56
0
VERTEX
8
0
6
CONTINUOUS
62
252
70
128
10
0.000000
20
0.000000
30
0.000000
71
56
72
17
73
18
0
VERTEX
8
0
6
CONTINUOUS
62
252
70
128
10
0.000000
20
0.000000
30
0.000000
71
56
72
18
73
55
0
VERTEX
8
0
6
CONTINUOUS
62
252
70
128
10
0.000000
20
0.000000
30
0.000000
71
55
72
18
73
19
0
VERTEX
8
0
6
CONTINUOUS
62
252
70
128
10
0.000000
20
0.000000
30
0.000000
71
55
72
19
73
54
0
VERTEX
8
0
6
CONTINUOUS
62
252
70
128
10
0.000000
20
0.000000
30
0.000000
71
54
72
19
73
20
0
VERTEX
8
0
6
CONTINUOUS
62
252
70
128
10
0.000000
20
0.000000
30
0.000000
71
54
72
20
73
53
0
VERTEX
8
0
6
CONTINUOUS
62
252
70
128
10
0.000000
20
0.000000
30
0.000000
71
53
72
20
73
21
0
VERTEX
8
0
6
CONTINUOUS
62
252
70
128
10
0.000000
20
0.000000
30
0.000000
71
53
72
21
73
52
0
VERTEX
8
0
6
CONTINUOUS
62
252
70
128
10
0.000000
20
0.000000
30
0.000000
71
52
72
21
73
22
0
VERTEX
8
0
6
CONTINUOUS
62
252
70
128
10
0.000000
20
0.000000
30
0.000000
71
52
72
22
73
23
0
VERTEX
8
0
6
CONTINUOUS
62
252
70
128
10
0.000000
20
0.000000
30
0.000000
71
52
72
23
73
51
0
VERTEX
8
0
6
CONTINUOUS
62
252
70
128
10
0.000000
20
0.000000
30
0.000000
71
51
72
23
73
24
0
VERTEX
8
0
6
CONTINUOUS
62
252
70
128
10
0.000000
20
0.000000
30
0.000000
71
51
72
24
73
50
0
VERTEX
8
0
6
CONTINUOUS
62
252
70
128
10
0.000000
20
0.000000
30
0.000000
71
50
72
24
73
25
0
VERTEX
8
0
6
CONTINUOUS
62
252
70
128
10
0.000000
20
0.000000
30
0.000000
71
50
72
25
73
49
0
VERTEX
8
0
6
CONTINUOUS
62
252
70
128
10
0.000000
20
0.000000
30
0.000000
71
49
72
25
73
26
0
VERTEX
8
0
6
CONTINUOUS
62
252
70
128
10
0.000000
20
0.000000
30
0.000000
71
49
72
26
73
48
0
VERTEX
8
0
6
CONTINUOUS
62
252
70
128
10
0.000000
20
0.000000
30
0.000000
71
48
72
26
73
27
0
VERTEX
8
0
6
CONTINUOUS
62
252
70
128
10
0.000000
20
0.000000
30
0.000000
71
48
72
27
73
47
0
VERTEX
8
0
6
CONTINUOUS
62
252
70
128
10
0.000000
20
0.000000
30
0.000000
71
47
72
27
73
28
0
VERTEX
8
0
6
CONTINUOUS
62
252
70
128
10
0.000000
20
0.000000
30
0.000000
71
47
72
28
73
46
0
VERTEX
8
0
6
CONTINUOUS
62
252
70
128
10
0.000000
20
0.000000
30
0.000000
71
46
72
28
73
29
0
VERTEX
8
0
6
CONTINUOUS
62
252
70
128
10
0.000000
20
0.000000
30
0.000000
71
46
72
29
73
45
0
VERTEX
8
0
6
CONTINUOUS
62
252
70
128
10
0.000000
20
0.000000
30
0.000000
71
45
72
29
73
44
0
VERTEX
8
0
6
CONTINUOUS
62
252
70
128
10
0.000000
20
0.000000
30
0.000000
71
44
72
29
73
30
0
VERTEX
8
0
6
CONTINUOUS
62
252
70
128
10
0.000000
20
0.000000
30
0.000000
71
44
72
30
73
43
0
VERTEX
8
0
6
CONTINUOUS
62
252
70
128
10
0.000000
20
0.000000
30
0.000000
71
43
72
30
73
31
0
VERTEX
8
0
6
CONTINUOUS
62
252
70
128
10
0.000000
20
0.000000
30
0.000000
71
43
72
31
73
32
0
VERTEX
8
0
6
CONTINUOUS
62
252
70
128
10
0.000000
20
0.000000
30
0.000000
71
43
72
32
73
42
0
VERTEX
8
0
6
CONTINUOUS
62
252
70
128
10
0.000000
20
0.000000
30
0.000000
71
42
72
32
73
33
0
VERTEX
8
0
6
CONTINUOUS
62
252
70
128
10
0.000000
20
0.000000
30
0.000000
71
42
72
33
73
41
0
VERTEX
8
0
6
CONTINUOUS
62
252
70
128
10
0.000000
20
0.000000
30
0.000000
71
41
72
33
73
34
0
VERTEX
8
0
6
CONTINUOUS
62
252
70
128
10
0.000000
20
0.000000
30
0.000000
71
41
72
34
73
40
0
VERTEX
8
0
6
CONTINUOUS
62
252
70
128
10
0.000000
20
0.000000
30
0.000000
71
40
72
34
73
35
0
VERTEX
8
0
6
CONTINUOUS
62
252
70
128
10
0.000000
20
0.000000
30
0.000000
71
40
72
35
73
39
0
VERTEX
8
0
6
CONTINUOUS
62
252
70
128
10
0.000000
20
0.000000
30
0.000000
71
39
72
35
73
36
0
VERTEX
8
0
6
CONTINUOUS
62
252
70
128
10
0.000000
20
0.000000
30
0.000000
71
39
72
36
73
38
0
VERTEX
8
0
6
CONTINUOUS
62
252
70
128
10
0.000000
20
0.000000
30
0.000000
71
38
72
36
73
1
0
SEQEND
0
POLYLINE
66
1
8
0
6
CONTINUOUS
62
252
70
64
75
0
10
0.000000
20
0.000000
30
0.000000
0
VERTEX
8
0
6
CONTINUOUS
62
252
70
192
10
-0.000000
20
-24.748737
30
22.498737
0
VERTEX
8
0
6
CONTINUOUS
62
252
70
192
10
-0.000000
20
-25.139446
30
22.532920
0
VERTEX
8
0
6
CONTINUOUS
62
252
70
192
10
-0.000000
20
-25.518283
30
22.634429
0
VERTEX
8
0
6
CONTINUOUS
62
252
70
192
10
-0.000000
20
-25.873737
30
22.800180
0
VERTEX
8
0
6
CONTINUOUS
62
252
70
192
10
-0.000000
20
-26.195009
30
23.025137
0
VERTEX
8
0
6
CONTINUOUS
62
252
70
192
10
-0.000000
20
-26.472337
30
23.302465
0
VERTEX
8
0
6
CONTINUOUS
62
252
70
192
10
-0.000000
20
-26.697294
30
23.623737
0
VERTEX
8
0
6
CONTINUOUS
62
252
70
192
10
-0.000000
20
-26.863046
30
23.979192
0
VERTEX
8
0
6
CONTINUOUS
62
252
70
192
10
-0.000000
20
-26.964555
30
24.358029
0
VERTEX
8
0
6
CONTINUOUS
62
252
70
192
10
-0.000000
20
-26.998737
30
24.748737
0
VERTEX
8
0
6
CONTINUOUS
62
252
70
192
10
-0.000000
20
-26.964555
30
25.139446
0
VERTEX
8
0
6
CONTINUOUS
62
252
70
192
10
-0.000000
20
-26.863046
30
25.518283
0
VERTEX
8
0
6
CONTINUOUS
62
252
70
192
10
-0.000000
20
-26.697294
30
25.873737
0
VERTEX
8
0
6
CONTINUOUS
62
252
70
192
10
-0.000000
20
-26.472337
30
26.195009
0
VERTEX
8
0
6
CONTINUOUS
62
252
70
192
10
-0.000000
20
-26.195009
30
26.472337
0
VERTEX
8
0
6
CONTINUOUS
62
252
70
192
10
-0.000000
20
-25.873737
30
26.697294
0
VERTEX
8
0
6
CONTINUOUS
62
252
70
192
10
-0.000000
20
-25.518283
30
26.863046
0
VERTEX
8
0
6
CONTINUOUS
62
252
70
192
10
-0.000000
20
-25.139446
30
26.964555
0
VERTEX
8
0
6
CONTINUOUS
62
252
70
192
10
-0.000000
20
-24.748737
30
26.998737
0
VERTEX
8
0
6
CONTINUOUS
62
252
70
192
10
-0.000000
20
-24.358029
30
26.964555
0
VERTEX
8
0
6
CONTINUOUS
62
252
70
192
10
-0.000000
20
-23.979192
30
26.863046
0
VERTEX
8
0
6
CONTINUOUS
62
252
70
192
10
-0.000000
20
-23.623737
30
26.697294
0
VERTEX
8
0
6
CONTINUOUS
62
252
70
192
10
-0.000000
20
-23.302465
30
26.472337
0
VERTEX
8
0
6
CONTINUOUS
62
252
70
192
10
-0.000000
20
-23.025137
30
26.195009
0
VERTEX
8
0
6
CONTINUOUS
62
252
70
192
10
-0.000000
20
-22.800180
30
25.873737
0
VERTEX
8
0
6
CONTINUOUS
62
252
70
192
10
-0.000000
20
-22.634429
30
25.518283
0
VERTEX
8
0
6
CONTINUOUS
62
252
70
192
10
-0.000000
20
-22.532920
30
25.139446
0
VERTEX
8
0
6
CONTINUOUS
62
252
70
192
10
-0.000000
20
-22.498737
30
24.748737
0
VERTEX
8
0
6
CONTINUOUS
62
252
70
192
10
-0.000000
20
-22.532920
30
24.358029
0
VERTEX
8
0
6
CONTINUOUS
62
252
70
192
10
-0.000000
20
-22.634429
30
23.979192
0
VERTEX
8
0
6
CONTINUOUS
62
252
70
192
10
-0.000000
20
-22.800180
30
23.623737
0
VERTEX
8
0
6
CONTINUOUS
62
252
70
192
10
-0.000000
20
-23.025137
30
23.302465
0
VERTEX
8
0
6
CONTINUOUS
62
252
70
192
10
-0.000000
20
-23.302465
30
23.025137
0
VERTEX
8
0
6
CONTINUOUS
62
252
70
192
10
-0.000000
20
-23.623737
30
22.800180
0
VERTEX
8
0
6
CONTINUOUS
62
252
70
192
10
-0.000000
20
-23.979192
30
22.634429
0
VERTEX
8
0
6
CONTINUOUS
62
252
70
192
10
-0.000000
20
-24.358029
30
22.532920
0
VERTEX
8
0
6
CONTINUOUS
62
252
70
192
10
8.000000
20
-24.748737
30
22.498737
0
VERTEX
8
0
6
CONTINUOUS
62
252
70
192
10
8.000000
20
-24.358029
30
22.532920
0
VERTEX
8
0
6
CONTINUOUS
62
252
70
192
10
8.000000
20
-23.979192
30
22.634429
0
VERTEX
8
0
6
CONTINUOUS
62
252
70
192
10
8.000000
20
-23.623737
30
22.800180
0
VERTEX
8
0
6
CONTINUOUS
62
252
70
192
10
8.000000
20
-23.302465
30
23.025137
0
VERTEX
8
0
6
CONTINUOUS
62
252
70
192
10
8.000000
20
-23.025137
30
23.302465
0
VERTEX
8
0
6
CONTINUOUS
62
252
70
192
10
8.000000
20
-22.800180
30
23.623737
0
VERTEX
8
0
6
CONTINUOUS
62
252
70
192
10
8.000000
20
-22.634429
30
23.979192
0
VERTEX
8
0
6
CONTINUOUS
62
252
70
192
10
8.000000
20
-22.532920
30
24.358029
0
VERTEX
8
0
6
CONTINUOUS
62
252
70
192
10
8.000000
20
-22.498737
30
24.748737
0
VERTEX
8
0
6
CONTINUOUS
62
252
70
192
10
8.000000
20
-22.532920
30
25.139446
0
VERTEX
8
0
6
CONTINUOUS
62
252
70
192
10
8.000000
20
-22.634429
30
25.518283
0
VERTEX
8
0
6
CONTINUOUS
62
252
70
192
10
8.000000
20
-22.800180
30
25.873737
0
VERTEX
8
0
6
CONTINUOUS
62
252
70
192
10
8.000000
20
-23.025137
30
26.195009
0
VERTEX
8
0
6
CONTINUOUS
62
252
70
192
10
8.000000
20
-23.302465
30
26.472337
0
VERTEX
8
0
6
CONTINUOUS
62
252
70
192
10
8.000000
20
-23.623737
30
26.697294
0
VERTEX
8
0
6
CONTINUOUS
62
252
70
192
10
8.000000
20
-23.979192
30
26.863046
0
VERTEX
8
0
6
CONTINUOUS
62
252
70
192
10
8.000000
20
-24.358029
30
26.964555
0
VERTEX
8
0
6
CONTINUOUS
62
252
70
192
10
8.000000
20
-24.748737
30
26.998737
0
VERTEX
8
0
6
CONTINUOUS
62
252
70
192
10
8.000000
20
-25.139446
30
26.964555
0
VERTEX
8
0
6
CONTINUOUS
62
252
70
192
10
8.000000
20
-25.518283
30
26.863046
0
VERTEX
8
0
6
CONTINUOUS
62
252
70
192
10
8.000000
20
-25.873737
30
26.697294
0
VERTEX
8
0
6
CONTINUOUS
62
252
70
192
10
8.000000
20
-26.195009
30
26.472337
0
VERTEX
8
0
6
CONTINUOUS
62
252
70
192
10
8.000000
20
-26.472337
30
26.195009
0
VERTEX
8
0
6
CONTINUOUS
62
252
70
192
10
8.000000
20
-26.697294
30
25.873737
0
VERTEX
8
0
6
CONTINUOUS
62
252
70
192
10
8.000000
20
-26.863046
30
25.518283
0
VERTEX
8
0
6
CONTINUOUS
62
252
70
192
10
8.000000
20
-26.964555
30
25.139446
0
VERTEX
8
0
6
CONTINUOUS
62
252
70
192
10
8.000000
20
-26.998737
30
24.748737
0
VERTEX
8
0
6
CONTINUOUS
62
252
70
192
10
8.000000
20
-26.964555
30
24.358029
0
VERTEX
8
0
6
CONTINUOUS
62
252
70
192
10
8.000000
20
-26.863046
30
23.979192
0
VERTEX
8
0
6
CONTINUOUS
62
252
70
192
10
8.000000
20
-26.697294
30
23.623737
0
VERTEX
8
0
6
CONTINUOUS
62
252
70
192
10
8.000000
20
-26.472337
30
23.302465
0
VERTEX
8
0
6
CONTINUOUS
62
252
70
192
10
8.000000
20
-26.195009
30
23.025137
0
VERTEX
8
0
6
CONTINUOUS
62
252
70
192
10
8.000000
20
-25.873737
30
22.800180
0
VERTEX
8
0
6
CONTINUOUS
62
252
70
192
10
8.000000
20
-25.518283
30
22.634429
0
VERTEX
8
0
6
CONTINUOUS
62
252
70
192
10
8.000000
20
-25.139446
30
22.532920
0
VERTEX
8
0
6
CONTINUOUS
62
252
70
128
10
0.000000
20
0.000000
30
0.000000
71
2
72
72
73
1
0
VERTEX
8
0
6
CONTINUOUS
62
252
70
128
10
0.000000
20
0.000000
30
0.000000
71
1
72
72
73
37
0
VERTEX
8
0
6
CONTINUOUS
62
252
70
128
10
0.000000
20
0.000000
30
0.000000
71
1
72
37
73
38
0
VERTEX
8
0
6
CONTINUOUS
62
252
70
128
10
0.000000
20
0.000000
30
0.000000
71
72
72
2
73
71
0
VERTEX
8
0
6
CONTINUOUS
62
252
70
128
10
0.000000
20
0.000000
30
0.000000
71
71
72
2
73
3
0
VERTEX
8
0
6
CONTINUOUS
62
252
70
128
10
0.000000
20
0.000000
30
0.000000
71
71
72
3
73
70
0
VERTEX
8
0
6
CONTINUOUS
62
252
70
128
10
0.000000
20
0.000000
30
0.000000
71
70
72
3
73
4
0
VERTEX
8
0
6
CONTINUOUS
62
252
70
128
10
0.000000
20
0.000000
30
0.000000
71
70
72
4
73
69
0
VERTEX
8
0
6
CONTINUOUS
62
252
70
128
10
0.000000
20
0.000000
30
0.000000
71
69
72
4
73
5
0
VERTEX
8
0
6
CONTINUOUS
62
252
70
128
10
0.000000
20
0.000000
30
0.000000
71
69
72
5
73
68
0
VERTEX
8
0
6
CONTINUOUS
62
252
70
128
10
0.000000
20
0.000000
30
0.000000
71
68
72
5
73
6
0
VERTEX
8
0
6
CONTINUOUS
62
252
70
128
10
0.000000
20
0.000000
30
0.000000
71
68
72
6
73
67
0
VERTEX
8
0
6
CONTINUOUS
62
252
70
128
10
0.000000
20
0.000000
30
0.000000
71
67
72
6
73
7
0
VERTEX
8
0
6
CONTINUOUS
62
252
70
128
10
0.000000
20
0.000000
30
0.000000
71
67
72
7
73
66
0
VERTEX
8
0
6
CONTINUOUS
62
252
70
128
10
0.000000
20
0.000000
30
0.000000
71
66
72
7
73
8
0
VERTEX
8
0
6
CONTINUOUS
62
252
70
128
10
0.000000
20
0.000000
30
0.000000
71
66
72
8
73
65
0
VERTEX
8
0
6
CONTINUOUS
62
252
70
128
10
0.000000
20
0.000000
30
0.000000
71
65
72
8
73
9
0
VERTEX
8
0
6
CONTINUOUS
62
252
70
128
10
0.000000
20
0.000000
30
0.000000
71
65
72
9
73
64
0
VERTEX
8
0
6
CONTINUOUS
62
252
70
128
10
0.000000
20
0.000000
30
0.000000
71
64
72
9
73
10
0
VERTEX
8
0
6
CONTINUOUS
62
252
70
128
10
0.000000
20
0.000000
30
0.000000
71
64
72
10
73
63
0
VERTEX
8
0
6
CONTINUOUS
62
252
70
128
10
0.000000
20
0.000000
30
0.000000
71
63
72
10
73
11
0
VERTEX
8
0
6
CONTINUOUS
62
252
70
128
10
0.000000
20
0.000000
30
0.000000
71
63
72
11
73
62
0
VERTEX
8
0
6
CONTINUOUS
62
252
70
128
10
0.000000
20
0.000000
30
0.000000
71
62
72
11
73
12
0
VERTEX
8
0
6
CONTINUOUS
62
252
70
128
10
0.000000
20
0.000000
30
0.000000
71
62
72
12
73
61
0
VERTEX
8
0
6
CONTINUOUS
62
252
70
128
10
0.000000
20
0.000000
30
0.000000
71
61
72
12
73
13
0
VERTEX
8
0
6
CONTINUOUS
62
252
70
128
10
0.000000
20
0.000000
30
0.000000
71
61
72
13
73
60
0
VERTEX
8
0
6
CONTINUOUS
62
252
70
128
10
0.000000
20
0.000000
30
0.000000
71
60
72
13
73
14
0
VERTEX
8
0
6
CONTINUOUS
62
252
70
128
10
0.000000
20
0.000000
30
0.000000
71
60
72
14
73
59
0
VERTEX
8
0
6
CONTINUOUS
62
252
70
128
10
0.000000
20
0.000000
30
0.000000
71
59
72
14
73
15
0
VERTEX
8
0
6
CONTINUOUS
62
252
70
128
10
0.000000
20
0.000000
30
0.000000
71
59
72
15
73
58
0
VERTEX
8
0
6
CONTINUOUS
62
252
70
128
10
0.000000
20
0.000000
30
0.000000
71
58
72
15
73
16
0
VERTEX
8
0
6
CONTINUOUS
62
252
70
128
10
0.000000
20
0.000000
30
0.000000
71
58
72
16
73
57
0
VERTEX
8
0
6
CONTINUOUS
62
252
70
128
10
0.000000
20
0.000000
30
0.000000
71
57
72
16
73
17
0
VERTEX
8
0
6
CONTINUOUS
62
252
70
128
10
0.000000
20
0.000000
30
0.000000
71
57
72
17
73
56
0
VERTEX
8
0
6
CONTINUOUS
62
252
70
128
10
0.000000
20
0.000000
30
0.000000
71
56
72
17
73
18
0
VERTEX
8
0
6
CONTINUOUS
62
252
70
128
10
0.000000
20
0.000000
30
0.000000
71
56
72
18
73
55
0
VERTEX
8
0
6
CONTINUOUS
62
252
70
128
10
0.000000
20
0.000000
30
0.000000
71
55
72
18
73
19
0
VERTEX
8
0
6
CONTINUOUS
62
252
70
128
10
0.000000
20
0.000000
30
0.000000
71
55
72
19
73
54
0
VERTEX
8
0
6
CONTINUOUS
62
252
70
128
10
0.000000
20
0.000000
30
0.000000
71
54
72
19
73
20
0
VERTEX
8
0
6
CONTINUOUS
62
252
70
128
10
0.000000
20
0.000000
30
0.000000
71
54
72
20
73
53
0
VERTEX
8
0
6
CONTINUOUS
62
252
70
128
10
0.000000
20
0.000000
30
0.000000
71
53
72
20
73
21
0
VERTEX
8
0
6
CONTINUOUS
62
252
70
128
10
0.000000
20
0.000000
30
0.000000
71
53
72
21
73
52
0
VERTEX
8
0
6
CONTINUOUS
62
252
70
128
10
0.000000
20
0.000000
30
0.000000
71
52
72
21
73
22
0
VERTEX
8
0
6
CONTINUOUS
62
252
70
128
10
0.000000
20
0.000000
30
0.000000
71
52
72
22
73
23
0
VERTEX
8
0
6
CONTINUOUS
62
252
70
128
10
0.000000
20
0.000000
30
0.000000
71
52
72
23
73
51
0
VERTEX
8
0
6
CONTINUOUS
62
252
70
128
10
0.000000
20
0.000000
30
0.000000
71
51
72
23
73
24
0
VERTEX
8
0
6
CONTINUOUS
62
252
70
128
10
0.000000
20
0.000000
30
0.000000
71
51
72
24
73
50
0
VERTEX
8
0
6
CONTINUOUS
62
252
70
128
10
0.000000
20
0.000000
30
0.000000
71
50
72
24
73
25
0
VERTEX
8
0
6
CONTINUOUS
62
252
70
128
10
0.000000
20
0.000000
30
0.000000
71
50
72
25
73
49
0
VERTEX
8
0
6
CONTINUOUS
62
252
70
128
10
0.000000
20
0.000000
30
0.000000
71
49
72
25
73
26
0
VERTEX
8
0
6
CONTINUOUS
62
252
70
128
10
0.000000
20
0.000000
30
0.000000
71
49
72
26
73
48
0
VERTEX
8
0
6
CONTINUOUS
62
252
70
128
10
0.000000
20
0.000000
30
0.000000
71
48
72
26
73
27
0
VERTEX
8
0
6
CONTINUOUS
62
252
70
128
10
0.000000
20
0.000000
30
0.000000
71
48
72
27
73
47
0
VERTEX
8
0
6
CONTINUOUS
62
252
70
128
10
0.000000
20
0.000000
30
0.000000
71
47
72
27
73
28
0
VERTEX
8
0
6
CONTINUOUS
62
252
70
128
10
0.000000
20
0.000000
30
0.000000
71
47
72
28
73
46
0
VERTEX
8
0
6
CONTINUOUS
62
252
70
128
10
0.000000
20
0.000000
30
0.000000
71
46
72
28
73
29
0
VERTEX
8
0
6
CONTINUOUS
62
252
70
128
10
0.000000
20
0.000000
30
0.000000
71
46
72
29
73
45
0
VERTEX
8
0
6
CONTINUOUS
62
252
70
128
10
0.000000
20
0.000000
30
0.000000
71
45
72
29
73
44
0
VERTEX
8
0
6
CONTINUOUS
62
252
70
128
10
0.000000
20
0.000000
30
0.000000
71
44
72
29
73
30
0
VERTEX
8
0
6
CONTINUOUS
62
252
70
128
10
0.000000
20
0.000000
30
0.000000
71
44
72
30
73
43
0
VERTEX
8
0
6
CONTINUOUS
62
252
70
128
10
0.000000
20
0.000000
30
0.000000
71
43
72
30
73
31
0
VERTEX
8
0
6
CONTINUOUS
62
252
70
128
10
0.000000
20
0.000000
30
0.000000
71
43
72
31
73
32
0
VERTEX
8
0
6
CONTINUOUS
62
252
70
128
10
0.000000
20
0.000000
30
0.000000
71
43
72
32
73
42
0
VERTEX
8
0
6
CONTINUOUS
62
252
70
128
10
0.000000
20
0.000000
30
0.000000
71
42
72
32
73
33
0
VERTEX
8
0
6
CONTINUOUS
62
252
70
128
10
0.000000
20
0.000000
30
0.000000
71
42
72
33
73
41
0
VERTEX
8
0
6
CONTINUOUS
62
252
70
128
10
0.000000
20
0.000000
30
0.000000
71
41
72
33
73
34
0
VERTEX
8
0
6
CONTINUOUS
62
252
70
128
10
0.000000
20
0.000000
30
0.000000
71
41
72
34
73
40
0
VERTEX
8
0
6
CONTINUOUS
62
252
70
128
10
0.000000
20
0.000000
30
0.000000
71
40
72
34
73
35
0
VERTEX
8
0
6
CONTINUOUS
62
252
70
128
10
0.000000
20
0.000000
30
0.000000
71
40
72
35
73
39
0
VERTEX
8
0
6
CONTINUOUS
62
252
70
128
10
0.000000
20
0.000000
30
0.000000
71
39
72
35
73
36
0
VERTEX
8
0
6
CONTINUOUS
62
252
70
128
10
0.000000
20
0.000000
30
0.000000
71
39
72
36
73
38
0
VERTEX
8
0
6
CONTINUOUS
62
252
70
128
10
0.000000
20
0.000000
30
0.000000
71
38
72
36
73
1
0
SEQEND
0
POLYLINE
66
1
8
0
6
CONTINUOUS
62
252
70
64
75
0
10
0.000000
20
0.000000
30
0.000000
0
VERTEX
8
0
6
CONTINUOUS
62
252
70
192
10
8.000000
20
-25.500000
30
30.500000
0
VERTEX
8
0
6
CONTINUOUS
62
252
70
192
10
8.000000
20
25.500000
30
30.500000
0
VERTEX
8
0
6
CONTINUOUS
62
252
70
192
10
0.000000
20
25.500000
30
30.500000
0
VERTEX
8
0
6
CONTINUOUS
62
252
70
192
10
0.000000
20
-25.500000
30
30.500000
0
VERTEX
8
0
6
CONTINUOUS
62
252
70
128
10
0.000000
20
0.000000
30
0.000000
71
2
72
3
73
1
0
VERTEX
8
0
6
CONTINUOUS
62
252
70
128
10
0.000000
20
0.000000
30
0.000000
71
1
72
3
73
4
0
SEQEND
0
POLYLINE
66
1
8
0
6
CONTINUOUS
62
252
70
64
75
0
10
0.000000
20
0.000000
30
0.000000
0
VERTEX
8
0
6
CONTINUOUS
62
252
70
192
10
8.000000
20
25.500000
30
30.500000
0
VERTEX
8
0
6
CONTINUOUS
62
252
70
192
10
8.000000
20
26.368241
30
30.424039
0
VERTEX
8
0
6
CONTINUOUS
62
252
70
192
10
8.000000
20
27.210101
30
30.198463
0
VERTEX
8
0
6
CONTINUOUS
62
252
70
192
10
8.000000
20
28.000000
30
29.830127
0
VERTEX
8
0
6
CONTINUOUS
62
252
70
192
10
8.000000
20
28.713938
30
29.330222
0
VERTEX
8
0
6
CONTINUOUS
62
252
70
192
10
8.000000
20
29.330222
30
28.713938
0
VERTEX
8
0
6
CONTINUOUS
62
252
70
192
10
8.000000
20
29.830127
30
28.000000
0
VERTEX
8
0
6
CONTINUOUS
62
252
70
192
10
8.000000
20
30.198463
30
27.210101
0
VERTEX
8
0
6
CONTINUOUS
62
252
70
192
10
8.000000
20
30.424039
30
26.368241
0
VERTEX
8
0
6
CONTINUOUS
62
252
70
192
10
8.000000
20
30.500000
30
25.500000
0
VERTEX
8
0
6
CONTINUOUS
62
252
70
192
10
0.000000
20
30.500000
30
25.500000
0
VERTEX
8
0
6
CONTINUOUS
62
252
70
192
10
0.000000
20
30.424039
30
26.368241
0
VERTEX
8
0
6
CONTINUOUS
62
252
70
192
10
0.000000
20
30.198463
30
27.210101
0
VERTEX
8
0
6
CONTINUOUS
62
252
70
192
10
0.000000
20
29.830127
30
28.000000
0
VERTEX
8
0
6
CONTINUOUS
62
252
70
192
10
0.000000
20
29.330222
30
28.713938
0
VERTEX
8
0
6
CONTINUOUS
62
252
70
192
10
0.000000
20
28.713938
30
29.330222
0
VERTEX
8
0
6
CONTINUOUS
62
252
70
192
10
0.000000
20
28.000000
30
29.830127
0
VERTEX
8
0
6
CONTINUOUS
62
252
70
192
10
0.000000
20
27.210101
30
30.198463
0
VERTEX
8
0
6
CONTINUOUS
62
252
70
192
10
0.000000
20
26.368241
30
30.424039
0
VERTEX
8
0
6
CONTINUOUS
62
252
70
192
10
0.000000
20
25.500000
30
30.500000
0
VERTEX
8
0
6
CONTINUOUS
62
252
70
128
10
0.000000
20
0.000000
30
0.000000
71
20
72
1
73
19
0
VERTEX
8
0
6
CONTINUOUS
62
252
70
128
10
0.000000
20
0.000000
30
0.000000
71
19
72
1
73
2
0
VERTEX
8
0
6
CONTINUOUS
62
252
70
128
10
0.000000
20
0.000000
30
0.000000
71
19
72
2
73
18
0
VERTEX
8
0
6
CONTINUOUS
62
252
70
128
10
0.000000
20
0.000000
30
0.000000
71
18
72
2
73
3
0
VERTEX
8
0
6
CONTINUOUS
62
252
70
128
10
0.000000
20
0.000000
30
0.000000
71
18
72
3
73
17
0
VERTEX
8
0
6
CONTINUOUS
62
252
70
128
10
0.000000
20
0.000000
30
0.000000
71
17
72
3
73
4
0
VERTEX
8
0
6
CONTINUOUS
62
252
70
128
10
0.000000
20
0.000000
30
0.000000
71
17
72
4
73
16
0
VERTEX
8
0
6
CONTINUOUS
62
252
70
128
10
0.000000
20
0.000000
30
0.000000
71
16
72
4
73
5
0
VERTEX
8
0
6
CONTINUOUS
62
252
70
128
10
0.000000
20
0.000000
30
0.000000
71
16
72
5
73
15
0
VERTEX
8
0
6
CONTINUOUS
62
252
70
128
10
0.000000
20
0.000000
30
0.000000
71
15
72
5
73
6
0
VERTEX
8
0
6
CONTINUOUS
62
252
70
128
10
0.000000
20
0.000000
30
0.000000
71
15
72
6
73
7
0
VERTEX
8
0
6
CONTINUOUS
62
252
70
128
10
0.000000
20
0.000000
30
0.000000
71
15
72
7
73
14
0
VERTEX
8
0
6
CONTINUOUS
62
252
70
128
10
0.000000
20
0.000000
30
0.000000
71
14
72
7
73
8
0
VERTEX
8
0
6
CONTINUOUS
62
252
70
128
10
0.000000
20
0.000000
30
0.000000
71
14
72
8
73
13
0
VERTEX
8
0
6
CONTINUOUS
62
252
70
128
10
0.000000
20
0.000000
30
0.000000
71
13
72
8
73
12
0
VERTEX
8
0
6
CONTINUOUS
62
252
70
128
10
0.000000
20
0.000000
30
0.000000
71
12
72
8
73
9
0
VERTEX
8
0
6
CONTINUOUS
62
252
70
128
10
0.000000
20
0.000000
30
0.000000
71
12
72
9
73
11
0
VERTEX
8
0
6
CONTINUOUS
62
252
70
128
10
0.000000
20
0.000000
30
0.000000
71
11
72
9
73
10
0
SEQEND
0
POLYLINE
66
1
8
0
6
CONTINUOUS
62
252
70
64
75
0
10
0.000000
20
0.000000
30
0.000000
0
VERTEX
8
0
6
CONTINUOUS
62
252
70
192
10
3.000000
20
30.500000
30
20.750000
0
VERTEX
8
0
6
CONTINUOUS
62
252
70
192
10
0.000000
20
30.500000
30
20.750000
0
VERTEX
8
0
6
CONTINUOUS
62
252
70
192
10
0.000000
20
30.500000
30
25.500000
0
VERTEX
8
0
6
CONTINUOUS
62
252
70
192
10
8.000000
20
30.500000
30
25.500000
0
VERTEX
8
0
6
CONTINUOUS
62
252
70
192
10
8.000000
20
30.500000
30
-25.500000
0
VERTEX
8
0
6
CONTINUOUS
62
252
70
192
10
0.000000
20
30.500000
30
-25.500000
0
VERTEX
8
0
6
CONTINUOUS
62
252
70
192
10
0.000000
20
30.500000
30
14.250000
0
VERTEX
8
0
6
CONTINUOUS
62
252
70
192
10
3.000000
20
30.500000
30
14.250000
0
VERTEX
8
0
6
CONTINUOUS
62
252
70
128
10
0.000000
20
0.000000
30
0.000000
71
2
72
3
73
1
0
VERTEX
8
0
6
CONTINUOUS
62
252
70
128
10
0.000000
20
0.000000
30
0.000000
71
1
72
3
73
4
0
VERTEX
8
0
6
CONTINUOUS
62
252
70
128
10
0.000000
20
0.000000
30
0.000000
71
1
72
4
73
8
0
VERTEX
8
0
6
CONTINUOUS
62
252
70
128
10
0.000000
20
0.000000
30
0.000000
71
8
72
4
73
5
0
VERTEX
8
0
6
CONTINUOUS
62
252
70
128
10
0.000000
20
0.000000
30
0.000000
71
8
72
5
73
6
0
VERTEX
8
0
6
CONTINUOUS
62
252
70
128
10
0.000000
20
0.000000
30
0.000000
71
6
72
7
73
8
0
SEQEND
0
POLYLINE
66
1
8
0
6
CONTINUOUS
62
252
70
64
75
0
10
0.000000
20
0.000000
30
0.000000
0
VERTEX
8
0
6
CONTINUOUS
62
252
70
192
10
8.000000
20
30.500000
30
-25.500000
0
VERTEX
8
0
6
CONTINUOUS
62
252
70
192
10
8.000000
20
30.424039
30
-26.368241
0
VERTEX
8
0
6
CONTINUOUS
62
252
70
192
10
8.000000
20
30.198463
30
-27.210101
0
VERTEX
8
0
6
CONTINUOUS
62
252
70
192
10
8.000000
20
29.830127
30
-28.000000
0
VERTEX
8
0
6
CONTINUOUS
62
252
70
192
10
8.000000
20
29.330222
30
-28.713938
0
VERTEX
8
0
6
CONTINUOUS
62
252
70
192
10
8.000000
20
28.713938
30
-29.330222
0
VERTEX
8
0
6
CONTINUOUS
62
252
70
192
10
8.000000
20
28.000000
30
-29.830127
0
VERTEX
8
0
6
CONTINUOUS
62
252
70
192
10
8.000000
20
27.210101
30
-30.198463
0
VERTEX
8
0
6
CONTINUOUS
62
252
70
192
10
8.000000
20
26.368241
30
-30.424039
0
VERTEX
8
0
6
CONTINUOUS
62
252
70
192
10
8.000000
20
25.500000
30
-30.500000
0
VERTEX
8
0
6
CONTINUOUS
62
252
70
192
10
0.000000
20
25.500000
30
-30.500000
0
VERTEX
8
0
6
CONTINUOUS
62
252
70
192
10
0.000000
20
26.368241
30
-30.424039
0
VERTEX
8
0
6
CONTINUOUS
62
252
70
192
10
0.000000
20
27.210101
30
-30.198463
0
VERTEX
8
0
6
CONTINUOUS
62
252
70
192
10
0.000000
20
28.000000
30
-29.830127
0
VERTEX
8
0
6
CONTINUOUS
62
252
70
192
10
0.000000
20
28.713938
30
-29.330222
0
VERTEX
8
0
6
CONTINUOUS
62
252
70
192
10
0.000000
20
29.330222
30
-28.713938
0
VERTEX
8
0
6
CONTINUOUS
62
252
70
192
10
0.000000
20
29.830127
30
-28.000000
0
VERTEX
8
0
6
CONTINUOUS
62
252
70
192
10
0.000000
20
30.198463
30
-27.210101
0
VERTEX
8
0
6
CONTINUOUS
62
252
70
192
10
0.000000
20
30.424039
30
-26.368241
0
VERTEX
8
0
6
CONTINUOUS
62
252
70
192
10
0.000000
20
30.500000
30
-25.500000
0
VERTEX
8
0
6
CONTINUOUS
62
252
70
128
10
0.000000
20
0.000000
30
0.000000
71
20
72
1
73
19
0
VERTEX
8
0
6
CONTINUOUS
62
252
70
128
10
0.000000
20
0.000000
30
0.000000
71
19
72
1
73
2
0
VERTEX
8
0
6
CONTINUOUS
62
252
70
128
10
0.000000
20
0.000000
30
0.000000
71
19
72
2
73
18
0
VERTEX
8
0
6
CONTINUOUS
62
252
70
128
10
0.000000
20
0.000000
30
0.000000
71
18
72
2
73
3
0
VERTEX
8
0
6
CONTINUOUS
62
252
70
128
10
0.000000
20
0.000000
30
0.000000
71
18
72
3
73
4
0
VERTEX
8
0
6
CONTINUOUS
62
252
70
128
10
0.000000
20
0.000000
30
0.000000
71
18
72
4
73
17
0
VERTEX
8
0
6
CONTINUOUS
62
252
70
128
10
0.000000
20
0.000000
30
0.000000
71
17
72
4
73
5
0
VERTEX
8
0
6
CONTINUOUS
62
252
70
128
10
0.000000
20
0.000000
30
0.000000
71
17
72
5
73
16
0
VERTEX
8
0
6
CONTINUOUS
62
252
70
128
10
0.000000
20
0.000000
30
0.000000
71
16
72
5
73
15
0
VERTEX
8
0
6
CONTINUOUS
62
252
70
128
10
0.000000
20
0.000000
30
0.000000
71
15
72
5
73
6
0
VERTEX
8
0
6
CONTINUOUS
62
252
70
128
10
0.000000
20
0.000000
30
0.000000
71
15
72
6
73
14
0
VERTEX
8
0
6
CONTINUOUS
62
252
70
128
10
0.000000
20
0.000000
30
0.000000
71
14
72
6
73
7
0
VERTEX
8
0
6
CONTINUOUS
62
252
70
128
10
0.000000
20
0.000000
30
0.000000
71
14
72
7
73
8
0
VERTEX
8
0
6
CONTINUOUS
62
252
70
128
10
0.000000
20
0.000000
30
0.000000
71
14
72
8
73
13
0
VERTEX
8
0
6
CONTINUOUS
62
252
70
128
10
0.000000
20
0.000000
30
0.000000
71
13
72
8
73
9
0
VERTEX
8
0
6
CONTINUOUS
62
252
70
128
10
0.000000
20
0.000000
30
0.000000
71
13
72
9
73
12
0
VERTEX
8
0
6
CONTINUOUS
62
252
70
128
10
0.000000
20
0.000000
30
0.000000
71
12
72
9
73
11
0
VERTEX
8
0
6
CONTINUOUS
62
252
70
128
10
0.000000
20
0.000000
30
0.000000
71
11
72
9
73
10
0
SEQEND
0
POLYLINE
66
1
8
0
6
CONTINUOUS
62
252
70
64
75
0
10
0.000000
20
0.000000
30
0.000000
0
VERTEX
8
0
6
CONTINUOUS
62
252
70
192
10
8.000000
20
25.500000
30
-30.500000
0
VERTEX
8
0
6
CONTINUOUS
62
252
70
192
10
8.000000
20
-25.500000
30
-30.500000
0
VERTEX
8
0
6
CONTINUOUS
62
252
70
192
10
0.000000
20
-25.500000
30
-30.500000
0
VERTEX
8
0
6
CONTINUOUS
62
252
70
192
10
0.000000
20
25.500000
30
-30.500000
0
VERTEX
8
0
6
CONTINUOUS
62
252
70
128
10
0.000000
20
0.000000
30
0.000000
71
2
72
3
73
1
0
VERTEX
8
0
6
CONTINUOUS
62
252
70
128
10
0.000000
20
0.000000
30
0.000000
71
1
72
3
73
4
0
SEQEND
0
POLYLINE
66
1
8
0
6
CONTINUOUS
62
252
70
64
75
0
10
0.000000
20
0.000000
30
0.000000
0
VERTEX
8
0
6
CONTINUOUS
62
252
70
192
10
8.000000
20
-25.500000
30
-30.500000
0
VERTEX
8
0
6
CONTINUOUS
62
252
70
192
10
8.000000
20
-26.368241
30
-30.424039
0
VERTEX
8
0
6
CONTINUOUS
62
252
70
192
10
8.000000
20
-27.210101
30
-30.198463
0
VERTEX
8
0
6
CONTINUOUS
62
252
70
192
10
8.000000
20
-28.000000
30
-29.830127
0
VERTEX
8
0
6
CONTINUOUS
62
252
70
192
10
8.000000
20
-28.713938
30
-29.330222
0
VERTEX
8
0
6
CONTINUOUS
62
252
70
192
10
8.000000
20
-29.330222
30
-28.713938
0
VERTEX
8
0
6
CONTINUOUS
62
252
70
192
10
8.000000
20
-29.830127
30
-28.000000
0
VERTEX
8
0
6
CONTINUOUS
62
252
70
192
10
8.000000
20
-30.198463
30
-27.210101
0
VERTEX
8
0
6
CONTINUOUS
62
252
70
192
10
8.000000
20
-30.424039
30
-26.368241
0
VERTEX
8
0
6
CONTINUOUS
62
252
70
192
10
8.000000
20
-30.500000
30
-25.500000
0
VERTEX
8
0
6
CONTINUOUS
62
252
70
192
10
0.000000
20
-30.500000
30
-25.500000
0
VERTEX
8
0
6
CONTINUOUS
62
252
70
192
10
0.000000
20
-30.424039
30
-26.368241
0
VERTEX
8
0
6
CONTINUOUS
62
252
70
192
10
0.000000
20
-30.198463
30
-27.210101
0
VERTEX
8
0
6
CONTINUOUS
62
252
70
192
10
0.000000
20
-29.830127
30
-28.000000
0
VERTEX
8
0
6
CONTINUOUS
62
252
70
192
10
0.000000
20
-29.330222
30
-28.713938
0
VERTEX
8
0
6
CONTINUOUS
62
252
70
192
10
0.000000
20
-28.713938
30
-29.330222
0
VERTEX
8
0
6
CONTINUOUS
62
252
70
192
10
0.000000
20
-28.000000
30
-29.830127
0
VERTEX
8
0
6
CONTINUOUS
62
252
70
192
10
0.000000
20
-27.210101
30
-30.198463
0
VERTEX
8
0
6
CONTINUOUS
62
252
70
192
10
0.000000
20
-26.368241
30
-30.424039
0
VERTEX
8
0
6
CONTINUOUS
62
252
70
192
10
0.000000
20
-25.500000
30
-30.500000
0
VERTEX
8
0
6
CONTINUOUS
62
252
70
128
10
0.000000
20
0.000000
30
0.000000
71
20
72
1
73
19
0
VERTEX
8
0
6
CONTINUOUS
62
252
70
128
10
0.000000
20
0.000000
30
0.000000
71
19
72
1
73
2
0
VERTEX
8
0
6
CONTINUOUS
62
252
70
128
10
0.000000
20
0.000000
30
0.000000
71
19
72
2
73
3
0
VERTEX
8
0
6
CONTINUOUS
62
252
70
128
10
0.000000
20
0.000000
30
0.000000
71
19
72
3
73
18
0
VERTEX
8
0
6
CONTINUOUS
62
252
70
128
10
0.000000
20
0.000000
30
0.000000
71
18
72
3
73
4
0
VERTEX
8
0
6
CONTINUOUS
62
252
70
128
10
0.000000
20
0.000000
30
0.000000
71
18
72
4
73
17
0
VERTEX
8
0
6
CONTINUOUS
62
252
70
128
10
0.000000
20
0.000000
30
0.000000
71
17
72
4
73
16
0
VERTEX
8
0
6
CONTINUOUS
62
252
70
128
10
0.000000
20
0.000000
30
0.000000
71
16
72
4
73
5
0
VERTEX
8
0
6
CONTINUOUS
62
252
70
128
10
0.000000
20
0.000000
30
0.000000
71
16
72
5
73
6
0
VERTEX
8
0
6
CONTINUOUS
62
252
70
128
10
0.000000
20
0.000000
30
0.000000
71
16
72
6
73
15
0
VERTEX
8
0
6
CONTINUOUS
62
252
70
128
10
0.000000
20
0.000000
30
0.000000
71
15
72
6
73
7
0
VERTEX
8
0
6
CONTINUOUS
62
252
70
128
10
0.000000
20
0.000000
30
0.000000
71
15
72
7
73
14
0
VERTEX
8
0
6
CONTINUOUS
62
252
70
128
10
0.000000
20
0.000000
30
0.000000
71
14
72
7
73
8
0
VERTEX
8
0
6
CONTINUOUS
62
252
70
128
10
0.000000
20
0.000000
30
0.000000
71
14
72
8
73
13
0
VERTEX
8
0
6
CONTINUOUS
62
252
70
128
10
0.000000
20
0.000000
30
0.000000
71
13
72
8
73
9
0
VERTEX
8
0
6
CONTINUOUS
62
252
70
128
10
0.000000
20
0.000000
30
0.000000
71
13
72
9
73
12
0
VERTEX
8
0
6
CONTINUOUS
62
252
70
128
10
0.000000
20
0.000000
30
0.000000
71
12
72
9
73
10
0
VERTEX
8
0
6
CONTINUOUS
62
252
70
128
10
0.000000
20
0.000000
30
0.000000
71
12
72
10
73
11
0
SEQEND
0
POLYLINE
66
1
8
0
6
CONTINUOUS
62
252
70
64
75
0
10
0.000000
20
0.000000
30
0.000000
0
VERTEX
8
0
6
CONTINUOUS
62
252
70
192
10
3.000000
20
-30.500000
30
-20.750000
0
VERTEX
8
0
6
CONTINUOUS
62
252
70
192
10
0.000000
20
-30.500000
30
-20.750000
0
VERTEX
8
0
6
CONTINUOUS
62
252
70
192
10
0.000000
20
-30.500000
30
-25.500000
0
VERTEX
8
0
6
CONTINUOUS
62
252
70
192
10
8.000000
20
-30.500000
30
-25.500000
0
VERTEX
8
0
6
CONTINUOUS
62
252
70
192
10
8.000000
20
-30.500000
30
25.500000
0
VERTEX
8
0
6
CONTINUOUS
62
252
70
192
10
0.000000
20
-30.500000
30
25.500000
0
VERTEX
8
0
6
CONTINUOUS
62
252
70
192
10
-0.000000
20
-30.500000
30
-14.250000
0
VERTEX
8
0
6
CONTINUOUS
62
252
70
192
10
3.000000
20
-30.500000
30
-14.250000
0
VERTEX
8
0
6
CONTINUOUS
62
252
70
128
10
0.000000
20
0.000000
30
0.000000
71
2
72
3
73
1
0
VERTEX
8
0
6
CONTINUOUS
62
252
70
128
10
0.000000
20
0.000000
30
0.000000
71
1
72
3
73
4
0
VERTEX
8
0
6
CONTINUOUS
62
252
70
128
10
0.000000
20
0.000000
30
0.000000
71
1
72
4
73
8
0
VERTEX
8
0
6
CONTINUOUS
62
252
70
128
10
0.000000
20
0.000000
30
0.000000
71
8
72
4
73
5
0
VERTEX
8
0
6
CONTINUOUS
62
252
70
128
10
0.000000
20
0.000000
30
0.000000
71
8
72
5
73
6
0
VERTEX
8
0
6
CONTINUOUS
62
252
70
128
10
0.000000
20
0.000000
30
0.000000
71
6
72
7
73
8
0
SEQEND
0
POLYLINE
66
1
8
0
6
CONTINUOUS
62
252
70
64
75
0
10
0.000000
20
0.000000
30
0.000000
0
VERTEX
8
0
6
CONTINUOUS
62
252
70
192
10
8.000000
20
-30.500000
30
25.500000
0
VERTEX
8
0
6
CONTINUOUS
62
252
70
192
10
8.000000
20
-30.424039
30
26.368241
0
VERTEX
8
0
6
CONTINUOUS
62
252
70
192
10
8.000000
20
-30.198463
30
27.210101
0
VERTEX
8
0
6
CONTINUOUS
62
252
70
192
10
8.000000
20
-29.830127
30
28.000000
0
VERTEX
8
0
6
CONTINUOUS
62
252
70
192
10
8.000000
20
-29.330222
30
28.713938
0
VERTEX
8
0
6
CONTINUOUS
62
252
70
192
10
8.000000
20
-28.713938
30
29.330222
0
VERTEX
8
0
6
CONTINUOUS
62
252
70
192
10
8.000000
20
-28.000000
30
29.830127
0
VERTEX
8
0
6
CONTINUOUS
62
252
70
192
10
8.000000
20
-27.210101
30
30.198463
0
VERTEX
8
0
6
CONTINUOUS
62
252
70
192
10
8.000000
20
-26.368241
30
30.424039
0
VERTEX
8
0
6
CONTINUOUS
62
252
70
192
10
8.000000
20
-25.500000
30
30.500000
0
VERTEX
8
0
6
CONTINUOUS
62
252
70
192
10
0.000000
20
-25.500000
30
30.500000
0
VERTEX
8
0
6
CONTINUOUS
62
252
70
192
10
0.000000
20
-26.368241
30
30.424039
0
VERTEX
8
0
6
CONTINUOUS
62
252
70
192
10
0.000000
20
-27.210101
30
30.198463
0
VERTEX
8
0
6
CONTINUOUS
62
252
70
192
10
0.000000
20
-28.000000
30
29.830127
0
VERTEX
8
0
6
CONTINUOUS
62
252
70
192
10
0.000000
20
-28.713938
30
29.330222
0
VERTEX
8
0
6
CONTINUOUS
62
252
70
192
10
0.000000
20
-29.330222
30
28.713938
0
VERTEX
8
0
6
CONTINUOUS
62
252
70
192
10
0.000000
20
-29.830127
30
28.000000
0
VERTEX
8
0
6
CONTINUOUS
62
252
70
192
10
0.000000
20
-30.198463
30
27.210101
0
VERTEX
8
0
6
CONTINUOUS
62
252
70
192
10
0.000000
20
-30.424039
30
26.368241
0
VERTEX
8
0
6
CONTINUOUS
62
252
70
192
10
0.000000
20
-30.500000
30
25.500000
0
VERTEX
8
0
6
CONTINUOUS
62
252
70
128
10
0.000000
20
0.000000
30
0.000000
71
1
72
2
73
20
0
VERTEX
8
0
6
CONTINUOUS
62
252
70
128
10
0.000000
20
0.000000
30
0.000000
71
20
72
2
73
19
0
VERTEX
8
0
6
CONTINUOUS
62
252
70
128
10
0.000000
20
0.000000
30
0.000000
71
19
72
2
73
18
0
VERTEX
8
0
6
CONTINUOUS
62
252
70
128
10
0.000000
20
0.000000
30
0.000000
71
18
72
2
73
3
0
VERTEX
8
0
6
CONTINUOUS
62
252
70
128
10
0.000000
20
0.000000
30
0.000000
71
18
72
3
73
4
0
VERTEX
8
0
6
CONTINUOUS
62
252
70
128
10
0.000000
20
0.000000
30
0.000000
71
18
72
4
73
17
0
VERTEX
8
0
6
CONTINUOUS
62
252
70
128
10
0.000000
20
0.000000
30
0.000000
71
17
72
4
73
5
0
VERTEX
8
0
6
CONTINUOUS
62
252
70
128
10
0.000000
20
0.000000
30
0.000000
71
17
72
5
73
16
0
VERTEX
8
0
6
CONTINUOUS
62
252
70
128
10
0.000000
20
0.000000
30
0.000000
71
16
72
5
73
6
0
VERTEX
8
0
6
CONTINUOUS
62
252
70
128
10
0.000000
20
0.000000
30
0.000000
71
16
72
6
73
15
0
VERTEX
8
0
6
CONTINUOUS
62
252
70
128
10
0.000000
20
0.000000
30
0.000000
71
15
72
6
73
7
0
VERTEX
8
0
6
CONTINUOUS
62
252
70
128
10
0.000000
20
0.000000
30
0.000000
71
15
72
7
73
14
0
VERTEX
8
0
6
CONTINUOUS
62
252
70
128
10
0.000000
20
0.000000
30
0.000000
71
14
72
7
73
8
0
VERTEX
8
0
6
CONTINUOUS
62
252
70
128
10
0.000000
20
0.000000
30
0.000000
71
14
72
8
73
13
0
VERTEX
8
0
6
CONTINUOUS
62
252
70
128
10
0.000000
20
0.000000
30
0.000000
71
13
72
8
73
9
0
VERTEX
8
0
6
CONTINUOUS
62
252
70
128
10
0.000000
20
0.000000
30
0.000000
71
13
72
9
73
12
0
VERTEX
8
0
6
CONTINUOUS
62
252
70
128
10
0.000000
20
0.000000
30
0.000000
71
12
72
9
73
10
0
VERTEX
8
0
6
CONTINUOUS
62
252
70
128
10
0.000000
20
0.000000
30
0.000000
71
12
72
10
73
11
0
SEQEND
0
POLYLINE
66
1
8
0
6
CONTINUOUS
62
252
70
64
75
0
10
0.000000
20
0.000000
30
0.000000
0
VERTEX
8
0
6
CONTINUOUS
62
252
70
192
10
-0.000000
20
0.000000
30
24.000000
0
VERTEX
8
0
6
CONTINUOUS
62
252
70
192
10
-0.000000
20
-4.167556
30
23.635386
0
VERTEX
8
0
6
CONTINUOUS
62
252
70
192
10
-0.000000
20
-8.208483
30
22.552623
0
VERTEX
8
0
6
CONTINUOUS
62
252
70
192
10
-0.000000
20
-12.000000
30
20.784610
0
VERTEX
8
0
6
CONTINUOUS
62
252
70
192
10
-0.000000
20
-15.426903
30
18.385067
0
VERTEX
8
0
6
CONTINUOUS
62
252
70
192
10
-0.000000
20
-18.385067
30
15.426903
0
VERTEX
8
0
6
CONTINUOUS
62
252
70
192
10
-0.000000
20
-20.784610
30
12.000000
0
VERTEX
8
0
6
CONTINUOUS
62
252
70
192
10
-0.000000
20
-22.552623
30
8.208483
0
VERTEX
8
0
6
CONTINUOUS
62
252
70
192
10
-0.000000
20
-23.635386
30
4.167556
0
VERTEX
8
0
6
CONTINUOUS
62
252
70
192
10
-0.000000
20
-24.000000
30
0.000000
0
VERTEX
8
0
6
CONTINUOUS
62
252
70
192
10
0.000000
20
-23.635386
30
-4.167556
0
VERTEX
8
0
6
CONTINUOUS
62
252
70
192
10
0.000000
20
-22.552623
30
-8.208483
0
VERTEX
8
0
6
CONTINUOUS
62
252
70
192
10
0.000000
20
-20.784610
30
-12.000000
0
VERTEX
8
0
6
CONTINUOUS
62
252
70
192
10
0.000000
20
-18.385067
30
-15.426903
0
VERTEX
8
0
6
CONTINUOUS
62
252
70
192
10
0.000000
20
-15.426903
30
-18.385067
0
VERTEX
8
0
6
CONTINUOUS
62
252
70
192
10
0.000000
20
-12.000000
30
-20.784610
0
VERTEX
8
0
6
CONTINUOUS
62
252
70
192
10
0.000000
20
-8.208483
30
-22.552623
0
VERTEX
8
0
6
CONTINUOUS
62
252
70
192
10
0.000000
20
-4.167556
30
-23.635386
0
VERTEX
8
0
6
CONTINUOUS
62
252
70
192
10
0.000000
20
-0.000000
30
-24.000000
0
VERTEX
8
0
6
CONTINUOUS
62
252
70
192
10
0.000000
20
4.167556
30
-23.635386
0
VERTEX
8
0
6
CONTINUOUS
62
252
70
192
10
0.000000
20
8.208483
30
-22.552623
0
VERTEX
8
0
6
CONTINUOUS
62
252
70
192
10
0.000000
20
12.000000
30
-20.784610
0
VERTEX
8
0
6
CONTINUOUS
62
252
70
192
10
0.000000
20
15.426903
30
-18.385067
0
VERTEX
8
0
6
CONTINUOUS
62
252
70
192
10
0.000000
20
18.385067
30
-15.426903
0
VERTEX
8
0
6
CONTINUOUS
62
252
70
192
10
0.000000
20
20.784610
30
-12.000000
0
VERTEX
8
0
6
CONTINUOUS
62
252
70
192
10
0.000000
20
22.552623
30
-8.208483
0
VERTEX
8
0
6
CONTINUOUS
62
252
70
192
10
0.000000
20
23.635386
30
-4.167556
0
VERTEX
8
0
6
CONTINUOUS
62
252
70
192
10
0.000000
20
24.000000
30
-0.000000
0
VERTEX
8
0
6
CONTINUOUS
62
252
70
192
10
-0.000000
20
23.635386
30
4.167556
0
VERTEX
8
0
6
CONTINUOUS
62
252
70
192
10
-0.000000
20
22.552623
30
8.208483
0
VERTEX
8
0
6
CONTINUOUS
62
252
70
192
10
-0.000000
20
20.784610
30
12.000000
0
VERTEX
8
0
6
CONTINUOUS
62
252
70
192
10
-0.000000
20
18.385067
30
15.426903
0
VERTEX
8
0
6
CONTINUOUS
62
252
70
192
10
-0.000000
20
15.426903
30
18.385067
0
VERTEX
8
0
6
CONTINUOUS
62
252
70
192
10
-0.000000
20
12.000000
30
20.784610
0
VERTEX
8
0
6
CONTINUOUS
62
252
70
192
10
-0.000000
20
8.208483
30
22.552623
0
VERTEX
8
0
6
CONTINUOUS
62
252
70
192
10
-0.000000
20
4.167556
30
23.635386
0
VERTEX
8
0
6
CONTINUOUS
62
252
70
192
10
-3.000000
20
0.000000
30
24.000000
0
VERTEX
8
0
6
CONTINUOUS
62
252
70
192
10
-3.000000
20
4.167556
30
23.635386
0
VERTEX
8
0
6
CONTINUOUS
62
252
70
192
10
-3.000000
20
8.208483
30
22.552623
0
VERTEX
8
0
6
CONTINUOUS
62
252
70
192
10
-3.000000
20
12.000000
30
20.784610
0
VERTEX
8
0
6
CONTINUOUS
62
252
70
192
10
-3.000000
20
15.426903
30
18.385067
0
VERTEX
8
0
6
CONTINUOUS
62
252
70
192
10
-3.000000
20
18.385067
30
15.426903
0
VERTEX
8
0
6
CONTINUOUS
62
252
70
192
10
-3.000000
20
20.784610
30
12.000000
0
VERTEX
8
0
6
CONTINUOUS
62
252
70
192
10
-3.000000
20
22.552623
30
8.208483
0
VERTEX
8
0
6
CONTINUOUS
62
252
70
192
10
-3.000000
20
23.635386
30
4.167556
0
VERTEX
8
0
6
CONTINUOUS
62
252
70
192
10
-3.000000
20
24.000000
30
-0.000000
0
VERTEX
8
0
6
CONTINUOUS
62
252
70
192
10
-3.000000
20
23.635386
30
-4.167556
0
VERTEX
8
0
6
CONTINUOUS
62
252
70
192
10
-3.000000
20
22.552623
30
-8.208483
0
VERTEX
8
0
6
CONTINUOUS
62
252
70
192
10
-3.000000
20
20.784610
30
-12.000000
0
VERTEX
8
0
6
CONTINUOUS
62
252
70
192
10
-3.000000
20
18.385067
30
-15.426903
0
VERTEX
8
0
6
CONTINUOUS
62
252
70
192
10
-3.000000
20
15.426903
30
-18.385067
0
VERTEX
8
0
6
CONTINUOUS
62
252
70
192
10
-3.000000
20
12.000000
30
-20.784610
0
VERTEX
8
0
6
CONTINUOUS
62
252
70
192
10
-3.000000
20
8.208483
30
-22.552623
0
VERTEX
8
0
6
CONTINUOUS
62
252
70
192
10
-3.000000
20
4.167556
30
-23.635386
0
VERTEX
8
0
6
CONTINUOUS
62
252
70
192
10
-3.000000
20
-0.000000
30
-24.000000
0
VERTEX
8
0
6
CONTINUOUS
62
252
70
192
10
-3.000000
20
-4.167556
30
-23.635386
0
VERTEX
8
0
6
CONTINUOUS
62
252
70
192
10
-3.000000
20
-8.208483
30
-22.552623
0
VERTEX
8
0
6
CONTINUOUS
62
252
70
192
10
-3.000000
20
-12.000000
30
-20.784610
0
VERTEX
8
0
6
CONTINUOUS
62
252
70
192
10
-3.000000
20
-15.426903
30
-18.385067
0
VERTEX
8
0
6
CONTINUOUS
62
252
70
192
10
-3.000000
20
-18.385067
30
-15.426903
0
VERTEX
8
0
6
CONTINUOUS
62
252
70
192
10
-3.000000
20
-20.784610
30
-12.000000
0
VERTEX
8
0
6
CONTINUOUS
62
252
70
192
10
-3.000000
20
-22.552623
30
-8.208483
0
VERTEX
8
0
6
CONTINUOUS
62
252
70
192
10
-3.000000
20
-23.635386
30
-4.167556
0
VERTEX
8
0
6
CONTINUOUS
62
252
70
192
10
-3.000000
20
-24.000000
30
0.000000
0
VERTEX
8
0
6
CONTINUOUS
62
252
70
192
10
-3.000000
20
-23.635386
30
4.167556
0
VERTEX
8
0
6
CONTINUOUS
62
252
70
192
10
-3.000000
20
-22.552623
30
8.208483
0
VERTEX
8
0
6
CONTINUOUS
62
252
70
192
10
-3.000000
20
-20.784610
30
12.000000
0
VERTEX
8
0
6
CONTINUOUS
62
252
70
192
10
-3.000000
20
-18.385067
30
15.426903
0
VERTEX
8
0
6
CONTINUOUS
62
252
70
192
10
-3.000000
20
-15.426903
30
18.385067
0
VERTEX
8
0
6
CONTINUOUS
62
252
70
192
10
-3.000000
20
-12.000000
30
20.784610
0
VERTEX
8
0
6
CONTINUOUS
62
252
70
192
10
-3.000000
20
-8.208483
30
22.552623
0
VERTEX
8
0
6
CONTINUOUS
62
252
70
192
10
-3.000000
20
-4.167556
30
23.635386
0
VERTEX
8
0
6
CONTINUOUS
62
252
70
128
10
0.000000
20
0.000000
30
0.000000
71
36
72
1
73
37
0
VERTEX
8
0
6
CONTINUOUS
62
252
70
128
10
0.000000
20
0.000000
30
0.000000
71
37
72
1
73
2
0
VERTEX
8
0
6
CONTINUOUS
62
252
70
128
10
0.000000
20
0.000000
30
0.000000
71
37
72
2
73
72
0
VERTEX
8
0
6
CONTINUOUS
62
252
70
128
10
0.000000
20
0.000000
30
0.000000
71
72
72
2
73
71
0
VERTEX
8
0
6
CONTINUOUS
62
252
70
128
10
0.000000
20
0.000000
30
0.000000
71
71
72
2
73
3
0
VERTEX
8
0
6
CONTINUOUS
62
252
70
128
10
0.000000
20
0.000000
30
0.000000
71
71
72
3
73
70
0
VERTEX
8
0
6
CONTINUOUS
62
252
70
128
10
0.000000
20
0.000000
30
0.000000
71
70
72
3
73
4
0
VERTEX
8
0
6
CONTINUOUS
62
252
70
128
10
0.000000
20
0.000000
30
0.000000
71
70
72
4
73
69
0
VERTEX
8
0
6
CONTINUOUS
62
252
70
128
10
0.000000
20
0.000000
30
0.000000
71
69
72
4
73
5
0
VERTEX
8
0
6
CONTINUOUS
62
252
70
128
10
0.000000
20
0.000000
30
0.000000
71
69
72
5
73
68
0
VERTEX
8
0
6
CONTINUOUS
62
252
70
128
10
0.000000
20
0.000000
30
0.000000
71
68
72
5
73
6
0
VERTEX
8
0
6
CONTINUOUS
62
252
70
128
10
0.000000
20
0.000000
30
0.000000
71
68
72
6
73
67
0
VERTEX
8
0
6
CONTINUOUS
62
252
70
128
10
0.000000
20
0.000000
30
0.000000
71
67
72
6
73
7
0
VERTEX
8
0
6
CONTINUOUS
62
252
70
128
10
0.000000
20
0.000000
30
0.000000
71
67
72
7
73
66
0
VERTEX
8
0
6
CONTINUOUS
62
252
70
128
10
0.000000
20
0.000000
30
0.000000
71
66
72
7
73
8
0
VERTEX
8
0
6
CONTINUOUS
62
252
70
128
10
0.000000
20
0.000000
30
0.000000
71
66
72
8
73
65
0
VERTEX
8
0
6
CONTINUOUS
62
252
70
128
10
0.000000
20
0.000000
30
0.000000
71
65
72
8
73
9
0
VERTEX
8
0
6
CONTINUOUS
62
252
70
128
10
0.000000
20
0.000000
30
0.000000
71
65
72
9
73
64
0
VERTEX
8
0
6
CONTINUOUS
62
252
70
128
10
0.000000
20
0.000000
30
0.000000
71
64
72
9
73
10
0
VERTEX
8
0
6
CONTINUOUS
62
252
70
128
10
0.000000
20
0.000000
30
0.000000
71
64
72
10
73
63
0
VERTEX
8
0
6
CONTINUOUS
62
252
70
128
10
0.000000
20
0.000000
30
0.000000
71
63
72
10
73
11
0
VERTEX
8
0
6
CONTINUOUS
62
252
70
128
10
0.000000
20
0.000000
30
0.000000
71
63
72
11
73
62
0
VERTEX
8
0
6
CONTINUOUS
62
252
70
128
10
0.000000
20
0.000000
30
0.000000
71
62
72
11
73
12
0
VERTEX
8
0
6
CONTINUOUS
62
252
70
128
10
0.000000
20
0.000000
30
0.000000
71
62
72
12
73
61
0
VERTEX
8
0
6
CONTINUOUS
62
252
70
128
10
0.000000
20
0.000000
30
0.000000
71
61
72
12
73
13
0
VERTEX
8
0
6
CONTINUOUS
62
252
70
128
10
0.000000
20
0.000000
30
0.000000
71
61
72
13
73
60
0
VERTEX
8
0
6
CONTINUOUS
62
252
70
128
10
0.000000
20
0.000000
30
0.000000
71
60
72
13
73
14
0
VERTEX
8
0
6
CONTINUOUS
62
252
70
128
10
0.000000
20
0.000000
30
0.000000
71
60
72
14
73
59
0
VERTEX
8
0
6
CONTINUOUS
62
252
70
128
10
0.000000
20
0.000000
30
0.000000
71
59
72
14
73
15
0
VERTEX
8
0
6
CONTINUOUS
62
252
70
128
10
0.000000
20
0.000000
30
0.000000
71
59
72
15
73
58
0
VERTEX
8
0
6
CONTINUOUS
62
252
70
128
10
0.000000
20
0.000000
30
0.000000
71
58
72
15
73
16
0
VERTEX
8
0
6
CONTINUOUS
62
252
70
128
10
0.000000
20
0.000000
30
0.000000
71
58
72
16
73
57
0
VERTEX
8
0
6
CONTINUOUS
62
252
70
128
10
0.000000
20
0.000000
30
0.000000
71
57
72
16
73
17
0
VERTEX
8
0
6
CONTINUOUS
62
252
70
128
10
0.000000
20
0.000000
30
0.000000
71
57
72
17
73
56
0
VERTEX
8
0
6
CONTINUOUS
62
252
70
128
10
0.000000
20
0.000000
30
0.000000
71
56
72
17
73
18
0
VERTEX
8
0
6
CONTINUOUS
62
252
70
128
10
0.000000
20
0.000000
30
0.000000
71
56
72
18
73
55
0
VERTEX
8
0
6
CONTINUOUS
62
252
70
128
10
0.000000
20
0.000000
30
0.000000
71
55
72
18
73
19
0
VERTEX
8
0
6
CONTINUOUS
62
252
70
128
10
0.000000
20
0.000000
30
0.000000
71
55
72
19
73
54
0
VERTEX
8
0
6
CONTINUOUS
62
252
70
128
10
0.000000
20
0.000000
30
0.000000
71
54
72
19
73
20
0
VERTEX
8
0
6
CONTINUOUS
62
252
70
128
10
0.000000
20
0.000000
30
0.000000
71
54
72
20
73
53
0
VERTEX
8
0
6
CONTINUOUS
62
252
70
128
10
0.000000
20
0.000000
30
0.000000
71
53
72
20
73
21
0
VERTEX
8
0
6
CONTINUOUS
62
252
70
128
10
0.000000
20
0.000000
30
0.000000
71
53
72
21
73
52
0
VERTEX
8
0
6
CONTINUOUS
62
252
70
128
10
0.000000
20
0.000000
30
0.000000
71
52
72
21
73
22
0
VERTEX
8
0
6
CONTINUOUS
62
252
70
128
10
0.000000
20
0.000000
30
0.000000
71
52
72
22
73
51
0
VERTEX
8
0
6
CONTINUOUS
62
252
70
128
10
0.000000
20
0.000000
30
0.000000
71
51
72
22
73
23
0
VERTEX
8
0
6
CONTINUOUS
62
252
70
128
10
0.000000
20
0.000000
30
0.000000
71
51
72
23
73
50
0
VERTEX
8
0
6
CONTINUOUS
62
252
70
128
10
0.000000
20
0.000000
30
0.000000
71
50
72
23
73
24
0
VERTEX
8
0
6
CONTINUOUS
62
252
70
128
10
0.000000
20
0.000000
30
0.000000
71
50
72
24
73
49
0
VERTEX
8
0
6
CONTINUOUS
62
252
70
128
10
0.000000
20
0.000000
30
0.000000
71
49
72
24
73
25
0
VERTEX
8
0
6
CONTINUOUS
62
252
70
128
10
0.000000
20
0.000000
30
0.000000
71
49
72
25
73
48
0
VERTEX
8
0
6
CONTINUOUS
62
252
70
128
10
0.000000
20
0.000000
30
0.000000
71
48
72
25
73
26
0
VERTEX
8
0
6
CONTINUOUS
62
252
70
128
10
0.000000
20
0.000000
30
0.000000
71
48
72
26
73
47
0
VERTEX
8
0
6
CONTINUOUS
62
252
70
128
10
0.000000
20
0.000000
30
0.000000
71
47
72
26
73
27
0
VERTEX
8
0
6
CONTINUOUS
62
252
70
128
10
0.000000
20
0.000000
30
0.000000
71
47
72
27
73
46
0
VERTEX
8
0
6
CONTINUOUS
62
252
70
128
10
0.000000
20
0.000000
30
0.000000
71
46
72
27
73
28
0
VERTEX
8
0
6
CONTINUOUS
62
252
70
128
10
0.000000
20
0.000000
30
0.000000
71
46
72
28
73
45
0
VERTEX
8
0
6
CONTINUOUS
62
252
70
128
10
0.000000
20
0.000000
30
0.000000
71
45
72
28
73
29
0
VERTEX
8
0
6
CONTINUOUS
62
252
70
128
10
0.000000
20
0.000000
30
0.000000
71
45
72
29
73
44
0
VERTEX
8
0
6
CONTINUOUS
62
252
70
128
10
0.000000
20
0.000000
30
0.000000
71
44
72
29
73
30
0
VERTEX
8
0
6
CONTINUOUS
62
252
70
128
10
0.000000
20
0.000000
30
0.000000
71
44
72
30
73
43
0
VERTEX
8
0
6
CONTINUOUS
62
252
70
128
10
0.000000
20
0.000000
30
0.000000
71
43
72
30
73
31
0
VERTEX
8
0
6
CONTINUOUS
62
252
70
128
10
0.000000
20
0.000000
30
0.000000
71
43
72
31
73
42
0
VERTEX
8
0
6
CONTINUOUS
62
252
70
128
10
0.000000
20
0.000000
30
0.000000
71
42
72
31
73
32
0
VERTEX
8
0
6
CONTINUOUS
62
252
70
128
10
0.000000
20
0.000000
30
0.000000
71
42
72
32
73
41
0
VERTEX
8
0
6
CONTINUOUS
62
252
70
128
10
0.000000
20
0.000000
30
0.000000
71
41
72
32
73
33
0
VERTEX
8
0
6
CONTINUOUS
62
252
70
128
10
0.000000
20
0.000000
30
0.000000
71
41
72
33
73
40
0
VERTEX
8
0
6
CONTINUOUS
62
252
70
128
10
0.000000
20
0.000000
30
0.000000
71
40
72
33
73
34
0
VERTEX
8
0
6
CONTINUOUS
62
252
70
128
10
0.000000
20
0.000000
30
0.000000
71
40
72
34
73
39
0
VERTEX
8
0
6
CONTINUOUS
62
252
70
128
10
0.000000
20
0.000000
30
0.000000
71
39
72
34
73
35
0
VERTEX
8
0
6
CONTINUOUS
62
252
70
128
10
0.000000
20
0.000000
30
0.000000
71
39
72
35
73
38
0
VERTEX
8
0
6
CONTINUOUS
62
252
70
128
10
0.000000
20
0.000000
30
0.000000
71
38
72
35
73
36
0
VERTEX
8
0
6
CONTINUOUS
62
252
70
128
10
0.000000
20
0.000000
30
0.000000
71
38
72
36
73
37
0
SEQEND
0
POLYLINE
66
1
8
0
6
CONTINUOUS
62
252
70
64
75
0
10
0.000000
20
0.000000
30
0.000000
0
VERTEX
8
0
6
CONTINUOUS
62
252
70
192
10
-0.000000
20
0.000000
30
24.000000
0
VERTEX
8
0
6
CONTINUOUS
62
252
70
192
10
-0.000000
20
4.167556
30
23.635386
0
VERTEX
8
0
6
CONTINUOUS
62
252
70
192
10
-0.000000
20
8.208483
30
22.552623
0
VERTEX
8
0
6
CONTINUOUS
62
252
70
192
10
-0.000000
20
12.000000
30
20.784610
0
VERTEX
8
0
6
CONTINUOUS
62
252
70
192
10
-0.000000
20
15.426903
30
18.385067
0
VERTEX
8
0
6
CONTINUOUS
62
252
70
192
10
-0.000000
20
18.385067
30
15.426903
0
VERTEX
8
0
6
CONTINUOUS
62
252
70
192
10
-0.000000
20
20.784610
30
12.000000
0
VERTEX
8
0
6
CONTINUOUS
62
252
70
192
10
-0.000000
20
22.552623
30
8.208483
0
VERTEX
8
0
6
CONTINUOUS
62
252
70
192
10
-0.000000
20
23.635386
30
4.167556
0
VERTEX
8
0
6
CONTINUOUS
62
252
70
192
10
0.000000
20
24.000000
30
-0.000000
0
VERTEX
8
0
6
CONTINUOUS
62
252
70
192
10
0.000000
20
23.635386
30
-4.167556
0
VERTEX
8
0
6
CONTINUOUS
62
252
70
192
10
0.000000
20
22.552623
30
-8.208483
0
VERTEX
8
0
6
CONTINUOUS
62
252
70
192
10
0.000000
20
20.784610
30
-12.000000
0
VERTEX
8
0
6
CONTINUOUS
62
252
70
192
10
0.000000
20
18.385067
30
-15.426903
0
VERTEX
8
0
6
CONTINUOUS
62
252
70
192
10
0.000000
20
15.426903
30
-18.385067
0
VERTEX
8
0
6
CONTINUOUS
62
252
70
192
10
0.000000
20
12.000000
30
-20.784610
0
VERTEX
8
0
6
CONTINUOUS
62
252
70
192
10
0.000000
20
8.208483
30
-22.552623
0
VERTEX
8
0
6
CONTINUOUS
62
252
70
192
10
0.000000
20
4.167556
30
-23.635386
0
VERTEX
8
0
6
CONTINUOUS
62
252
70
192
10
0.000000
20
-0.000000
30
-24.000000
0
VERTEX
8
0
6
CONTINUOUS
62
252
70
192
10
0.000000
20
-4.167556
30
-23.635386
0
VERTEX
8
0
6
CONTINUOUS
62
252
70
192
10
0.000000
20
-8.208483
30
-22.552623
0
VERTEX
8
0
6
CONTINUOUS
62
252
70
192
10
0.000000
20
-12.000000
30
-20.784610
0
VERTEX
8
0
6
CONTINUOUS
62
252
70
192
10
0.000000
20
-15.426903
30
-18.385067
0
VERTEX
8
0
6
CONTINUOUS
62
252
70
192
10
0.000000
20
-18.385067
30
-15.426903
0
VERTEX
8
0
6
CONTINUOUS
62
252
70
192
10
0.000000
20
-20.784610
30
-12.000000
0
VERTEX
8
0
6
CONTINUOUS
62
252
70
192
10
0.000000
20
-22.552623
30
-8.208483
0
VERTEX
8
0
6
CONTINUOUS
62
252
70
192
10
0.000000
20
-23.635386
30
-4.167556
0
VERTEX
8
0
6
CONTINUOUS
62
252
70
192
10
-0.000000
20
-24.000000
30
0.000000
0
VERTEX
8
0
6
CONTINUOUS
62
252
70
192
10
-0.000000
20
-23.635386
30
4.167556
0
VERTEX
8
0
6
CONTINUOUS
62
252
70
192
10
-0.000000
20
-22.552623
30
8.208483
0
VERTEX
8
0
6
CONTINUOUS
62
252
70
192
10
-0.000000
20
-20.784610
30
12.000000
0
VERTEX
8
0
6
CONTINUOUS
62
252
70
192
10
-0.000000
20
-18.385067
30
15.426903
0
VERTEX
8
0
6
CONTINUOUS
62
252
70
192
10
-0.000000
20
-15.426903
30
18.385067
0
VERTEX
8
0
6
CONTINUOUS
62
252
70
192
10
-0.000000
20
-12.000000
30
20.784610
0
VERTEX
8
0
6
CONTINUOUS
62
252
70
192
10
-0.000000
20
-8.208483
30
22.552623
0
VERTEX
8
0
6
CONTINUOUS
62
252
70
192
10
-0.000000
20
-4.167556
30
23.635386
0
VERTEX
8
0
6
CONTINUOUS
62
252
70
128
10
0.000000
20
0.000000
30
0.000000
71
2
72
18
73
1
0
VERTEX
8
0
6
CONTINUOUS
62
252
70
128
10
0.000000
20
0.000000
30
0.000000
71
1
72
18
73
19
0
VERTEX
8
0
6
CONTINUOUS
62
252
70
128
10
0.000000
20
0.000000
30
0.000000
71
1
72
19
73
36
0
VERTEX
8
0
6
CONTINUOUS
62
252
70
128
10
0.000000
20
0.000000
30
0.000000
71
36
72
19
73
35
0
VERTEX
8
0
6
CONTINUOUS
62
252
70
128
10
0.000000
20
0.000000
30
0.000000
71
35
72
19
73
20
0
VERTEX
8
0
6
CONTINUOUS
62
252
70
128
10
0.000000
20
0.000000
30
0.000000
71
35
72
20
73
21
0
VERTEX
8
0
6
CONTINUOUS
62
252
70
128
10
0.000000
20
0.000000
30
0.000000
71
18
72
2
73
17
0
VERTEX
8
0
6
CONTINUOUS
62
252
70
128
10
0.000000
20
0.000000
30
0.000000
71
17
72
2
73
3
0
VERTEX
8
0
6
CONTINUOUS
62
252
70
128
10
0.000000
20
0.000000
30
0.000000
71
17
72
3
73
4
0
VERTEX
8
0
6
CONTINUOUS
62
252
70
128
10
0.000000
20
0.000000
30
0.000000
71
17
72
4
73
16
0
VERTEX
8
0
6
CONTINUOUS
62
252
70
128
10
0.000000
20
0.000000
30
0.000000
71
16
72
4
73
5
0
VERTEX
8
0
6
CONTINUOUS
62
252
70
128
10
0.000000
20
0.000000
30
0.000000
71
16
72
5
73
15
0
VERTEX
8
0
6
CONTINUOUS
62
252
70
128
10
0.000000
20
0.000000
30
0.000000
71
15
72
5
73
14
0
VERTEX
8
0
6
CONTINUOUS
62
252
70
128
10
0.000000
20
0.000000
30
0.000000
71
14
72
5
73
13
0
VERTEX
8
0
6
CONTINUOUS
62
252
70
128
10
0.000000
20
0.000000
30
0.000000
71
13
72
5
73
6
0
VERTEX
8
0
6
CONTINUOUS
62
252
70
128
10
0.000000
20
0.000000
30
0.000000
71
13
72
6
73
7
0
VERTEX
8
0
6
CONTINUOUS
62
252
70
128
10
0.000000
20
0.000000
30
0.000000
71
8
72
11
73
7
0
VERTEX
8
0
6
CONTINUOUS
62
252
70
128
10
0.000000
20
0.000000
30
0.000000
71
7
72
11
73
12
0
VERTEX
8
0
6
CONTINUOUS
62
252
70
128
10
0.000000
20
0.000000
30
0.000000
71
7
72
12
73
13
0
VERTEX
8
0
6
CONTINUOUS
62
252
70
128
10
0.000000
20
0.000000
30
0.000000
71
8
72
9
73
11
0
VERTEX
8
0
6
CONTINUOUS
62
252
70
128
10
0.000000
20
0.000000
30
0.000000
71
11
72
9
73
10
0
VERTEX
8
0
6
CONTINUOUS
62
252
70
128
10
0.000000
20
0.000000
30
0.000000
71
21
72
22
73
35
0
VERTEX
8
0
6
CONTINUOUS
62
252
70
128
10
0.000000
20
0.000000
30
0.000000
71
35
72
22
73
34
0
VERTEX
8
0
6
CONTINUOUS
62
252
70
128
10
0.000000
20
0.000000
30
0.000000
71
34
72
22
73
33
0
VERTEX
8
0
6
CONTINUOUS
62
252
70
128
10
0.000000
20
0.000000
30
0.000000
71
33
72
22
73
32
0
VERTEX
8
0
6
CONTINUOUS
62
252
70
128
10
0.000000
20
0.000000
30
0.000000
71
32
72
22
73
23
0
VERTEX
8
0
6
CONTINUOUS
62
252
70
128
10
0.000000
20
0.000000
30
0.000000
71
32
72
23
73
24
0
VERTEX
8
0
6
CONTINUOUS
62
252
70
128
10
0.000000
20
0.000000
30
0.000000
71
24
72
25
73
32
0
VERTEX
8
0
6
CONTINUOUS
62
252
70
128
10
0.000000
20
0.000000
30
0.000000
71
32
72
25
73
31
0
VERTEX
8
0
6
CONTINUOUS
62
252
70
128
10
0.000000
20
0.000000
30
0.000000
71
31
72
25
73
30
0
VERTEX
8
0
6
CONTINUOUS
62
252
70
128
10
0.000000
20
0.000000
30
0.000000
71
30
72
25
73
29
0
VERTEX
8
0
6
CONTINUOUS
62
252
70
128
10
0.000000
20
0.000000
30
0.000000
71
29
72
25
73
26
0
VERTEX
8
0
6
CONTINUOUS
62
252
70
128
10
0.000000
20
0.000000
30
0.000000
71
29
72
26
73
27
0
VERTEX
8
0
6
CONTINUOUS
62
252
70
128
10
0.000000
20
0.000000
30
0.000000
71
27
72
28
73
29
0
SEQEND
0
POLYLINE
66
1
8
0
6
CONTINUOUS
62
252
70
64
75
0
10
0.000000
20
0.000000
30
0.000000
0
VERTEX
8
0
6
CONTINUOUS
62
252
70
192
10
-3.000000
20
0.000000
30
24.000000
0
VERTEX
8
0
6
CONTINUOUS
62
252
70
192
10
-3.000000
20
-4.167556
30
23.635386
0
VERTEX
8
0
6
CONTINUOUS
62
252
70
192
10
-3.000000
20
-8.208483
30
22.552623
0
VERTEX
8
0
6
CONTINUOUS
62
252
70
192
10
-3.000000
20
-12.000000
30
20.784610
0
VERTEX
8
0
6
CONTINUOUS
62
252
70
192
10
-3.000000
20
-15.426903
30
18.385067
0
VERTEX
8
0
6
CONTINUOUS
62
252
70
192
10
-3.000000
20
-18.385067
30
15.426903
0
VERTEX
8
0
6
CONTINUOUS
62
252
70
192
10
-3.000000
20
-20.784610
30
12.000000
0
VERTEX
8
0
6
CONTINUOUS
62
252
70
192
10
-3.000000
20
-22.552623
30
8.208483
0
VERTEX
8
0
6
CONTINUOUS
62
252
70
192
10
-3.000000
20
-23.635386
30
4.167556
0
VERTEX
8
0
6
CONTINUOUS
62
252
70
192
10
-3.000000
20
-24.000000
30
0.000000
0
VERTEX
8
0
6
CONTINUOUS
62
252
70
192
10
-3.000000
20
-23.635386
30
-4.167556
0
VERTEX
8
0
6
CONTINUOUS
62
252
70
192
10
-3.000000
20
-22.552623
30
-8.208483
0
VERTEX
8
0
6
CONTINUOUS
62
252
70
192
10
-3.000000
20
-20.784610
30
-12.000000
0
VERTEX
8
0
6
CONTINUOUS
62
252
70
192
10
-3.000000
20
-18.385067
30
-15.426903
0
VERTEX
8
0
6
CONTINUOUS
62
252
70
192
10
-3.000000
20
-15.426903
30
-18.385067
0
VERTEX
8
0
6
CONTINUOUS
62
252
70
192
10
-3.000000
20
-12.000000
30
-20.784610
0
VERTEX
8
0
6
CONTINUOUS
62
252
70
192
10
-3.000000
20
-8.208483
30
-22.552623
0
VERTEX
8
0
6
CONTINUOUS
62
252
70
192
10
-3.000000
20
-4.167556
30
-23.635386
0
VERTEX
8
0
6
CONTINUOUS
62
252
70
192
10
-3.000000
20
-0.000000
30
-24.000000
0
VERTEX
8
0
6
CONTINUOUS
62
252
70
192
10
-3.000000
20
4.167556
30
-23.635386
0
VERTEX
8
0
6
CONTINUOUS
62
252
70
192
10
-3.000000
20
8.208483
30
-22.552623
0
VERTEX
8
0
6
CONTINUOUS
62
252
70
192
10
-3.000000
20
12.000000
30
-20.784610
0
VERTEX
8
0
6
CONTINUOUS
62
252
70
192
10
-3.000000
20
15.426903
30
-18.385067
0
VERTEX
8
0
6
CONTINUOUS
62
252
70
192
10
-3.000000
20
18.385067
30
-15.426903
0
VERTEX
8
0
6
CONTINUOUS
62
252
70
192
10
-3.000000
20
20.784610
30
-12.000000
0
VERTEX
8
0
6
CONTINUOUS
62
252
70
192
10
-3.000000
20
22.552623
30
-8.208483
0
VERTEX
8
0
6
CONTINUOUS
62
252
70
192
10
-3.000000
20
23.635386
30
-4.167556
0
VERTEX
8
0
6
CONTINUOUS
62
252
70
192
10
-3.000000
20
24.000000
30
-0.000000
0
VERTEX
8
0
6
CONTINUOUS
62
252
70
192
10
-3.000000
20
23.635386
30
4.167556
0
VERTEX
8
0
6
CONTINUOUS
62
252
70
192
10
-3.000000
20
22.552623
30
8.208483
0
VERTEX
8
0
6
CONTINUOUS
62
252
70
192
10
-3.000000
20
20.784610
30
12.000000
0
VERTEX
8
0
6
CONTINUOUS
62
252
70
192
10
-3.000000
20
18.385067
30
15.426903
0
VERTEX
8
0
6
CONTINUOUS
62
252
70
192
10
-3.000000
20
15.426903
30
18.385067
0
VERTEX
8
0
6
CONTINUOUS
62
252
70
192
10
-3.000000
20
12.000000
30
20.784610
0
VERTEX
8
0
6
CONTINUOUS
62
252
70
192
10
-3.000000
20
8.208483
30
22.552623
0
VERTEX
8
0
6
CONTINUOUS
62
252
70
192
10
-3.000000
20
4.167556
30
23.635386
0
VERTEX
8
0
6
CONTINUOUS
62
252
70
192
10
-3.000000
20
0.000000
30
27.000000
0
VERTEX
8
0
6
CONTINUOUS
62
252
70
192
10
-3.000000
20
4.688501
30
26.589809
0
VERTEX
8
0
6
CONTINUOUS
62
252
70
192
10
-3.000000
20
9.234544
30
25.371701
0
VERTEX
8
0
6
CONTINUOUS
62
252
70
192
10
-3.000000
20
13.500000
30
23.382686
0
VERTEX
8
0
6
CONTINUOUS
62
252
70
192
10
-3.000000
20
17.355265
30
20.683200
0
VERTEX
8
0
6
CONTINUOUS
62
252
70
192
10
-3.000000
20
20.683200
30
17.355265
0
VERTEX
8
0
6
CONTINUOUS
62
252
70
192
10
-3.000000
20
23.382686
30
13.500000
0
VERTEX
8
0
6
CONTINUOUS
62
252
70
192
10
-3.000000
20
25.371701
30
9.234544
0
VERTEX
8
0
6
CONTINUOUS
62
252
70
192
10
-3.000000
20
26.589809
30
4.688501
0
VERTEX
8
0
6
CONTINUOUS
62
252
70
192
10
-3.000000
20
27.000000
30
-0.000000
0
VERTEX
8
0
6
CONTINUOUS
62
252
70
192
10
-3.000000
20
26.589809
30
-4.688501
0
VERTEX
8
0
6
CONTINUOUS
62
252
70
192
10
-3.000000
20
25.371701
30
-9.234544
0
VERTEX
8
0
6
CONTINUOUS
62
252
70
192
10
-3.000000
20
23.382686
30
-13.500000
0
VERTEX
8
0
6
CONTINUOUS
62
252
70
192
10
-3.000000
20
20.683200
30
-17.355265
0
VERTEX
8
0
6
CONTINUOUS
62
252
70
192
10
-3.000000
20
17.355265
30
-20.683200
0
VERTEX
8
0
6
CONTINUOUS
62
252
70
192
10
-3.000000
20
13.500000
30
-23.382686
0
VERTEX
8
0
6
CONTINUOUS
62
252
70
192
10
-3.000000
20
9.234544
30
-25.371701
0
VERTEX
8
0
6
CONTINUOUS
62
252
70
192
10
-3.000000
20
4.688501
30
-26.589809
0
VERTEX
8
0
6
CONTINUOUS
62
252
70
192
10
-3.000000
20
-0.000000
30
-27.000000
0
VERTEX
8
0
6
CONTINUOUS
62
252
70
192
10
-3.000000
20
-4.688501
30
-26.589809
0
VERTEX
8
0
6
CONTINUOUS
62
252
70
192
10
-3.000000
20
-9.234544
30
-25.371701
0
VERTEX
8
0
6
CONTINUOUS
62
252
70
192
10
-3.000000
20
-13.500000
30
-23.382686
0
VERTEX
8
0
6
CONTINUOUS
62
252
70
192
10
-3.000000
20
-17.355265
30
-20.683200
0
VERTEX
8
0
6
CONTINUOUS
62
252
70
192
10
-3.000000
20
-20.683200
30
-17.355265
0
VERTEX
8
0
6
CONTINUOUS
62
252
70
192
10
-3.000000
20
-23.382686
30
-13.500000
0
VERTEX
8
0
6
CONTINUOUS
62
252
70
192
10
-3.000000
20
-25.371701
30
-9.234544
0
VERTEX
8
0
6
CONTINUOUS
62
252
70
192
10
-3.000000
20
-26.589809
30
-4.688501
0
VERTEX
8
0
6
CONTINUOUS
62
252
70
192
10
-3.000000
20
-27.000000
30
0.000000
0
VERTEX
8
0
6
CONTINUOUS
62
252
70
192
10
-3.000000
20
-26.589809
30
4.688501
0
VERTEX
8
0
6
CONTINUOUS
62
252
70
192
10
-3.000000
20
-25.371701
30
9.234544
0
VERTEX
8
0
6
CONTINUOUS
62
252
70
192
10
-3.000000
20
-23.382686
30
13.500000
0
VERTEX
8
0
6
CONTINUOUS
62
252
70
192
10
-3.000000
20
-20.683200
30
17.355265
0
VERTEX
8
0
6
CONTINUOUS
62
252
70
192
10
-3.000000
20
-17.355265
30
20.683200
0
VERTEX
8
0
6
CONTINUOUS
62
252
70
192
10
-3.000000
20
-13.500000
30
23.382686
0
VERTEX
8
0
6
CONTINUOUS
62
252
70
192
10
-3.000000
20
-9.234544
30
25.371701
0
VERTEX
8
0
6
CONTINUOUS
62
252
70
192
10
-3.000000
20
-4.688501
30
26.589809
0
VERTEX
8
0
6
CONTINUOUS
62
252
70
128
10
0.000000
20
0.000000
30
0.000000
71
2
72
72
73
1
0
VERTEX
8
0
6
CONTINUOUS
62
252
70
128
10
0.000000
20
0.000000
30
0.000000
71
1
72
72
73
37
0
VERTEX
8
0
6
CONTINUOUS
62
252
70
128
10
0.000000
20
0.000000
30
0.000000
71
1
72
37
73
38
0
VERTEX
8
0
6
CONTINUOUS
62
252
70
128
10
0.000000
20
0.000000
30
0.000000
71
2
72
3
73
72
0
VERTEX
8
0
6
CONTINUOUS
62
252
70
128
10
0.000000
20
0.000000
30
0.000000
71
72
72
3
73
71
0
VERTEX
8
0
6
CONTINUOUS
62
252
70
128
10
0.000000
20
0.000000
30
0.000000
71
71
72
3
73
70
0
VERTEX
8
0
6
CONTINUOUS
62
252
70
128
10
0.000000
20
0.000000
30
0.000000
71
70
72
3
73
4
0
VERTEX
8
0
6
CONTINUOUS
62
252
70
128
10
0.000000
20
0.000000
30
0.000000
71
70
72
4
73
5
0
VERTEX
8
0
6
CONTINUOUS
62
252
70
128
10
0.000000
20
0.000000
30
0.000000
71
70
72
5
73
69
0
VERTEX
8
0
6
CONTINUOUS
62
252
70
128
10
0.000000
20
0.000000
30
0.000000
71
69
72
5
73
6
0
VERTEX
8
0
6
CONTINUOUS
62
252
70
128
10
0.000000
20
0.000000
30
0.000000
71
69
72
6
73
68
0
VERTEX
8
0
6
CONTINUOUS
62
252
70
128
10
0.000000
20
0.000000
30
0.000000
71
68
72
6
73
7
0
VERTEX
8
0
6
CONTINUOUS
62
252
70
128
10
0.000000
20
0.000000
30
0.000000
71
68
72
7
73
67
0
VERTEX
8
0
6
CONTINUOUS
62
252
70
128
10
0.000000
20
0.000000
30
0.000000
71
67
72
7
73
66
0
VERTEX
8
0
6
CONTINUOUS
62
252
70
128
10
0.000000
20
0.000000
30
0.000000
71
66
72
7
73
8
0
VERTEX
8
0
6
CONTINUOUS
62
252
70
128
10
0.000000
20
0.000000
30
0.000000
71
66
72
8
73
9
0
VERTEX
8
0
6
CONTINUOUS
62
252
70
128
10
0.000000
20
0.000000
30
0.000000
71
66
72
9
73
65
0
VERTEX
8
0
6
CONTINUOUS
62
252
70
128
10
0.000000
20
0.000000
30
0.000000
71
65
72
9
73
10
0
VERTEX
8
0
6
CONTINUOUS
62
252
70
128
10
0.000000
20
0.000000
30
0.000000
71
65
72
10
73
64
0
VERTEX
8
0
6
CONTINUOUS
62
252
70
128
10
0.000000
20
0.000000
30
0.000000
71
64
72
10
73
63
0
VERTEX
8
0
6
CONTINUOUS
62
252
70
128
10
0.000000
20
0.000000
30
0.000000
71
63
72
10
73
11
0
VERTEX
8
0
6
CONTINUOUS
62
252
70
128
10
0.000000
20
0.000000
30
0.000000
71
63
72
11
73
12
0
VERTEX
8
0
6
CONTINUOUS
62
252
70
128
10
0.000000
20
0.000000
30
0.000000
71
13
72
61
73
12
0
VERTEX
8
0
6
CONTINUOUS
62
252
70
128
10
0.000000
20
0.000000
30
0.000000
71
12
72
61
73
62
0
VERTEX
8
0
6
CONTINUOUS
62
252
70
128
10
0.000000
20
0.000000
30
0.000000
71
12
72
62
73
63
0
VERTEX
8
0
6
CONTINUOUS
62
252
70
128
10
0.000000
20
0.000000
30
0.000000
71
13
72
14
73
61
0
VERTEX
8
0
6
CONTINUOUS
62
252
70
128
10
0.000000
20
0.000000
30
0.000000
71
61
72
14
73
60
0
VERTEX
8
0
6
CONTINUOUS
62
252
70
128
10
0.000000
20
0.000000
30
0.000000
71
60
72
14
73
59
0
VERTEX
8
0
6
CONTINUOUS
62
252
70
128
10
0.000000
20
0.000000
30
0.000000
71
59
72
14
73
15
0
VERTEX
8
0
6
CONTINUOUS
62
252
70
128
10
0.000000
20
0.000000
30
0.000000
71
59
72
15
73
16
0
VERTEX
8
0
6
CONTINUOUS
62
252
70
128
10
0.000000
20
0.000000
30
0.000000
71
17
72
57
73
16
0
VERTEX
8
0
6
CONTINUOUS
62
252
70
128
10
0.000000
20
0.000000
30
0.000000
71
16
72
57
73
58
0
VERTEX
8
0
6
CONTINUOUS
62
252
70
128
10
0.000000
20
0.000000
30
0.000000
71
16
72
58
73
59
0
VERTEX
8
0
6
CONTINUOUS
62
252
70
128
10
0.000000
20
0.000000
30
0.000000
71
57
72
17
73
56
0
VERTEX
8
0
6
CONTINUOUS
62
252
70
128
10
0.000000
20
0.000000
30
0.000000
71
56
72
17
73
18
0
VERTEX
8
0
6
CONTINUOUS
62
252
70
128
10
0.000000
20
0.000000
30
0.000000
71
56
72
18
73
19
0
VERTEX
8
0
6
CONTINUOUS
62
252
70
128
10
0.000000
20
0.000000
30
0.000000
71
56
72
19
73
55
0
VERTEX
8
0
6
CONTINUOUS
62
252
70
128
10
0.000000
20
0.000000
30
0.000000
71
55
72
19
73
20
0
VERTEX
8
0
6
CONTINUOUS
62
252
70
128
10
0.000000
20
0.000000
30
0.000000
71
55
72
20
73
54
0
VERTEX
8
0
6
CONTINUOUS
62
252
70
128
10
0.000000
20
0.000000
30
0.000000
71
54
72
20
73
53
0
VERTEX
8
0
6
CONTINUOUS
62
252
70
128
10
0.000000
20
0.000000
30
0.000000
71
53
72
20
73
21
0
VERTEX
8
0
6
CONTINUOUS
62
252
70
128
10
0.000000
20
0.000000
30
0.000000
71
53
72
21
73
22
0
VERTEX
8
0
6
CONTINUOUS
62
252
70
128
10
0.000000
20
0.000000
30
0.000000
71
53
72
22
73
52
0
VERTEX
8
0
6
CONTINUOUS
62
252
70
128
10
0.000000
20
0.000000
30
0.000000
71
52
72
22
73
23
0
VERTEX
8
0
6
CONTINUOUS
62
252
70
128
10
0.000000
20
0.000000
30
0.000000
71
52
72
23
73
51
0
VERTEX
8
0
6
CONTINUOUS
62
252
70
128
10
0.000000
20
0.000000
30
0.000000
71
51
72
23
73
24
0
VERTEX
8
0
6
CONTINUOUS
62
252
70
128
10
0.000000
20
0.000000
30
0.000000
71
51
72
24
73
50
0
VERTEX
8
0
6
CONTINUOUS
62
252
70
128
10
0.000000
20
0.000000
30
0.000000
71
50
72
24
73
49
0
VERTEX
8
0
6
CONTINUOUS
62
252
70
128
10
0.000000
20
0.000000
30
0.000000
71
49
72
24
73
25
0
VERTEX
8
0
6
CONTINUOUS
62
252
70
128
10
0.000000
20
0.000000
30
0.000000
71
49
72
25
73
26
0
VERTEX
8
0
6
CONTINUOUS
62
252
70
128
10
0.000000
20
0.000000
30
0.000000
71
27
72
47
73
26
0
VERTEX
8
0
6
CONTINUOUS
62
252
70
128
10
0.000000
20
0.000000
30
0.000000
71
26
72
47
73
48
0
VERTEX
8
0
6
CONTINUOUS
62
252
70
128
10
0.000000
20
0.000000
30
0.000000
71
26
72
48
73
49
0
VERTEX
8
0
6
CONTINUOUS
62
252
70
128
10
0.000000
20
0.000000
30
0.000000
71
27
72
28
73
47
0
VERTEX
8
0
6
CONTINUOUS
62
252
70
128
10
0.000000
20
0.000000
30
0.000000
71
47
72
28
73
46
0
VERTEX
8
0
6
CONTINUOUS
62
252
70
128
10
0.000000
20
0.000000
30
0.000000
71
46
72
28
73
29
0
VERTEX
8
0
6
CONTINUOUS
62
252
70
128
10
0.000000
20
0.000000
30
0.000000
71
46
72
29
73
45
0
VERTEX
8
0
6
CONTINUOUS
62
252
70
128
10
0.000000
20
0.000000
30
0.000000
71
45
72
29
73
30
0
VERTEX
8
0
6
CONTINUOUS
62
252
70
128
10
0.000000
20
0.000000
30
0.000000
71
45
72
30
73
44
0
VERTEX
8
0
6
CONTINUOUS
62
252
70
128
10
0.000000
20
0.000000
30
0.000000
71
44
72
30
73
31
0
VERTEX
8
0
6
CONTINUOUS
62
252
70
128
10
0.000000
20
0.000000
30
0.000000
71
44
72
31
73
43
0
VERTEX
8
0
6
CONTINUOUS
62
252
70
128
10
0.000000
20
0.000000
30
0.000000
71
43
72
31
73
32
0
VERTEX
8
0
6
CONTINUOUS
62
252
70
128
10
0.000000
20
0.000000
30
0.000000
71
43
72
32
73
42
0
VERTEX
8
0
6
CONTINUOUS
62
252
70
128
10
0.000000
20
0.000000
30
0.000000
71
42
72
32
73
41
0
VERTEX
8
0
6
CONTINUOUS
62
252
70
128
10
0.000000
20
0.000000
30
0.000000
71
41
72
32
73
33
0
VERTEX
8
0
6
CONTINUOUS
62
252
70
128
10
0.000000
20
0.000000
30
0.000000
71
41
72
33
73
34
0
VERTEX
8
0
6
CONTINUOUS
62
252
70
128
10
0.000000
20
0.000000
30
0.000000
71
41
72
34
73
40
0
VERTEX
8
0
6
CONTINUOUS
62
252
70
128
10
0.000000
20
0.000000
30
0.000000
71
40
72
34
73
35
0
VERTEX
8
0
6
CONTINUOUS
62
252
70
128
10
0.000000
20
0.000000
30
0.000000
71
40
72
35
73
39
0
VERTEX
8
0
6
CONTINUOUS
62
252
70
128
10
0.000000
20
0.000000
30
0.000000
71
39
72
35
73
38
0
VERTEX
8
0
6
CONTINUOUS
62
252
70
128
10
0.000000
20
0.000000
30
0.000000
71
38
72
35
73
36
0
VERTEX
8
0
6
CONTINUOUS
62
252
70
128
10
0.000000
20
0.000000
30
0.000000
71
38
72
36
73
1
0
SEQEND
0
POLYLINE
66
1
8
0
6
CONTINUOUS
62
252
70
64
75
0
10
0.000000
20
0.000000
30
0.000000
0
VERTEX
8
0
6
CONTINUOUS
62
252
70
192
10
-0.000000
20
0.000000
30
27.000000
0
VERTEX
8
0
6
CONTINUOUS
62
252
70
192
10
-0.000000
20
4.688501
30
26.589809
0
VERTEX
8
0
6
CONTINUOUS
62
252
70
192
10
-0.000000
20
9.234544
30
25.371701
0
VERTEX
8
0
6
CONTINUOUS
62
252
70
192
10
-0.000000
20
13.500000
30
23.382686
0
VERTEX
8
0
6
CONTINUOUS
62
252
70
192
10
-0.000000
20
17.355265
30
20.683200
0
VERTEX
8
0
6
CONTINUOUS
62
252
70
192
10
-0.000000
20
20.683200
30
17.355265
0
VERTEX
8
0
6
CONTINUOUS
62
252
70
192
10
-0.000000
20
23.382686
30
13.500000
0
VERTEX
8
0
6
CONTINUOUS
62
252
70
192
10
-0.000000
20
25.371701
30
9.234544
0
VERTEX
8
0
6
CONTINUOUS
62
252
70
192
10
-0.000000
20
26.589809
30
4.688501
0
VERTEX
8
0
6
CONTINUOUS
62
252
70
192
10
0.000000
20
27.000000
30
-0.000000
0
VERTEX
8
0
6
CONTINUOUS
62
252
70
192
10
0.000000
20
26.589809
30
-4.688501
0
VERTEX
8
0
6
CONTINUOUS
62
252
70
192
10
0.000000
20
25.371701
30
-9.234544
0
VERTEX
8
0
6
CONTINUOUS
62
252
70
192
10
0.000000
20
23.382686
30
-13.500000
0
VERTEX
8
0
6
CONTINUOUS
62
252
70
192
10
0.000000
20
20.683200
30
-17.355265
0
VERTEX
8
0
6
CONTINUOUS
62
252
70
192
10
0.000000
20
17.355265
30
-20.683200
0
VERTEX
8
0
6
CONTINUOUS
62
252
70
192
10
0.000000
20
13.500000
30
-23.382686
0
VERTEX
8
0
6
CONTINUOUS
62
252
70
192
10
0.000000
20
9.234544
30
-25.371701
0
VERTEX
8
0
6
CONTINUOUS
62
252
70
192
10
0.000000
20
4.688501
30
-26.589809
0
VERTEX
8
0
6
CONTINUOUS
62
252
70
192
10
0.000000
20
-0.000000
30
-27.000000
0
VERTEX
8
0
6
CONTINUOUS
62
252
70
192
10
0.000000
20
-4.688501
30
-26.589809
0
VERTEX
8
0
6
CONTINUOUS
62
252
70
192
10
0.000000
20
-9.234544
30
-25.371701
0
VERTEX
8
0
6
CONTINUOUS
62
252
70
192
10
0.000000
20
-13.500000
30
-23.382686
0
VERTEX
8
0
6
CONTINUOUS
62
252
70
192
10
0.000000
20
-17.355265
30
-20.683200
0
VERTEX
8
0
6
CONTINUOUS
62
252
70
192
10
0.000000
20
-20.683200
30
-17.355265
0
VERTEX
8
0
6
CONTINUOUS
62
252
70
192
10
0.000000
20
-23.382686
30
-13.500000
0
VERTEX
8
0
6
CONTINUOUS
62
252
70
192
10
0.000000
20
-25.371701
30
-9.234544
0
VERTEX
8
0
6
CONTINUOUS
62
252
70
192
10
0.000000
20
-26.589809
30
-4.688501
0
VERTEX
8
0
6
CONTINUOUS
62
252
70
192
10
-0.000000
20
-27.000000
30
0.000000
0
VERTEX
8
0
6
CONTINUOUS
62
252
70
192
10
-0.000000
20
-26.589809
30
4.688501
0
VERTEX
8
0
6
CONTINUOUS
62
252
70
192
10
-0.000000
20
-25.371701
30
9.234544
0
VERTEX
8
0
6
CONTINUOUS
62
252
70
192
10
-0.000000
20
-23.382686
30
13.500000
0
VERTEX
8
0
6
CONTINUOUS
62
252
70
192
10
-0.000000
20
-20.683200
30
17.355265
0
VERTEX
8
0
6
CONTINUOUS
62
252
70
192
10
-0.000000
20
-17.355265
30
20.683200
0
VERTEX
8
0
6
CONTINUOUS
62
252
70
192
10
-0.000000
20
-13.500000
30
23.382686
0
VERTEX
8
0
6
CONTINUOUS
62
252
70
192
10
-0.000000
20
-9.234544
30
25.371701
0
VERTEX
8
0
6
CONTINUOUS
62
252
70
192
10
-0.000000
20
-4.688501
30
26.589809
0
VERTEX
8
0
6
CONTINUOUS
62
252
70
192
10
-3.000000
20
0.000000
30
27.000000
0
VERTEX
8
0
6
CONTINUOUS
62
252
70
192
10
-3.000000
20
-4.688501
30
26.589809
0
VERTEX
8
0
6
CONTINUOUS
62
252
70
192
10
-3.000000
20
-9.234544
30
25.371701
0
VERTEX
8
0
6
CONTINUOUS
62
252
70
192
10
-3.000000
20
-13.500000
30
23.382686
0
VERTEX
8
0
6
CONTINUOUS
62
252
70
192
10
-3.000000
20
-17.355265
30
20.683200
0
VERTEX
8
0
6
CONTINUOUS
62
252
70
192
10
-3.000000
20
-20.683200
30
17.355265
0
VERTEX
8
0
6
CONTINUOUS
62
252
70
192
10
-3.000000
20
-23.382686
30
13.500000
0
VERTEX
8
0
6
CONTINUOUS
62
252
70
192
10
-3.000000
20
-25.371701
30
9.234544
0
VERTEX
8
0
6
CONTINUOUS
62
252
70
192
10
-3.000000
20
-26.589809
30
4.688501
0
VERTEX
8
0
6
CONTINUOUS
62
252
70
192
10
-3.000000
20
-27.000000
30
0.000000
0
VERTEX
8
0
6
CONTINUOUS
62
252
70
192
10
-3.000000
20
-26.589809
30
-4.688501
0
VERTEX
8
0
6
CONTINUOUS
62
252
70
192
10
-3.000000
20
-25.371701
30
-9.234544
0
VERTEX
8
0
6
CONTINUOUS
62
252
70
192
10
-3.000000
20
-23.382686
30
-13.500000
0
VERTEX
8
0
6
CONTINUOUS
62
252
70
192
10
-3.000000
20
-20.683200
30
-17.355265
0
VERTEX
8
0
6
CONTINUOUS
62
252
70
192
10
-3.000000
20
-17.355265
30
-20.683200
0
VERTEX
8
0
6
CONTINUOUS
62
252
70
192
10
-3.000000
20
-13.500000
30
-23.382686
0
VERTEX
8
0
6
CONTINUOUS
62
252
70
192
10
-3.000000
20
-9.234544
30
-25.371701
0
VERTEX
8
0
6
CONTINUOUS
62
252
70
192
10
-3.000000
20
-4.688501
30
-26.589809
0
VERTEX
8
0
6
CONTINUOUS
62
252
70
192
10
-3.000000
20
-0.000000
30
-27.000000
0
VERTEX
8
0
6
CONTINUOUS
62
252
70
192
10
-3.000000
20
4.688501
30
-26.589809
0
VERTEX
8
0
6
CONTINUOUS
62
252
70
192
10
-3.000000
20
9.234544
30
-25.371701
0
VERTEX
8
0
6
CONTINUOUS
62
252
70
192
10
-3.000000
20
13.500000
30
-23.382686
0
VERTEX
8
0
6
CONTINUOUS
62
252
70
192
10
-3.000000
20
17.355265
30
-20.683200
0
VERTEX
8
0
6
CONTINUOUS
62
252
70
192
10
-3.000000
20
20.683200
30
-17.355265
0
VERTEX
8
0
6
CONTINUOUS
62
252
70
192
10
-3.000000
20
23.382686
30
-13.500000
0
VERTEX
8
0
6
CONTINUOUS
62
252
70
192
10
-3.000000
20
25.371701
30
-9.234544
0
VERTEX
8
0
6
CONTINUOUS
62
252
70
192
10
-3.000000
20
26.589809
30
-4.688501
0
VERTEX
8
0
6
CONTINUOUS
62
252
70
192
10
-3.000000
20
27.000000
30
-0.000000
0
VERTEX
8
0
6
CONTINUOUS
62
252
70
192
10
-3.000000
20
26.589809
30
4.688501
0
VERTEX
8
0
6
CONTINUOUS
62
252
70
192
10
-3.000000
20
25.371701
30
9.234544
0
VERTEX
8
0
6
CONTINUOUS
62
252
70
192
10
-3.000000
20
23.382686
30
13.500000
0
VERTEX
8
0
6
CONTINUOUS
62
252
70
192
10
-3.000000
20
20.683200
30
17.355265
0
VERTEX
8
0
6
CONTINUOUS
62
252
70
192
10
-3.000000
20
17.355265
30
20.683200
0
VERTEX
8
0
6
CONTINUOUS
62
252
70
192
10
-3.000000
20
13.500000
30
23.382686
0
VERTEX
8
0
6
CONTINUOUS
62
252
70
192
10
-3.000000
20
9.234544
30
25.371701
0
VERTEX
8
0
6
CONTINUOUS
62
252
70
192
10
-3.000000
20
4.688501
30
26.589809
0
VERTEX
8
0
6
CONTINUOUS
62
252
70
128
10
0.000000
20
0.000000
30
0.000000
71
2
72
72
73
1
0
VERTEX
8
0
6
CONTINUOUS
62
252
70
128
10
0.000000
20
0.000000
30
0.000000
71
1
72
72
73
37
0
VERTEX
8
0
6
CONTINUOUS
62
252
70
128
10
0.000000
20
0.000000
30
0.000000
71
1
72
37
73
36
0
VERTEX
8
0
6
CONTINUOUS
62
252
70
128
10
0.000000
20
0.000000
30
0.000000
71
36
72
37
73
38
0
VERTEX
8
0
6
CONTINUOUS
62
252
70
128
10
0.000000
20
0.000000
30
0.000000
71
36
72
38
73
35
0
VERTEX
8
0
6
CONTINUOUS
62
252
70
128
10
0.000000
20
0.000000
30
0.000000
71
35
72
38
73
39
0
VERTEX
8
0
6
CONTINUOUS
62
252
70
128
10
0.000000
20
0.000000
30
0.000000
71
35
72
39
73
34
0
VERTEX
8
0
6
CONTINUOUS
62
252
70
128
10
0.000000
20
0.000000
30
0.000000
71
34
72
39
73
40
0
VERTEX
8
0
6
CONTINUOUS
62
252
70
128
10
0.000000
20
0.000000
30
0.000000
71
34
72
40
73
33
0
VERTEX
8
0
6
CONTINUOUS
62
252
70
128
10
0.000000
20
0.000000
30
0.000000
71
33
72
40
73
41
0
VERTEX
8
0
6
CONTINUOUS
62
252
70
128
10
0.000000
20
0.000000
30
0.000000
71
33
72
41
73
32
0
VERTEX
8
0
6
CONTINUOUS
62
252
70
128
10
0.000000
20
0.000000
30
0.000000
71
32
72
41
73
42
0
VERTEX
8
0
6
CONTINUOUS
62
252
70
128
10
0.000000
20
0.000000
30
0.000000
71
32
72
42
73
31
0
VERTEX
8
0
6
CONTINUOUS
62
252
70
128
10
0.000000
20
0.000000
30
0.000000
71
31
72
42
73
43
0
VERTEX
8
0
6
CONTINUOUS
62
252
70
128
10
0.000000
20
0.000000
30
0.000000
71
31
72
43
73
30
0
VERTEX
8
0
6
CONTINUOUS
62
252
70
128
10
0.000000
20
0.000000
30
0.000000
71
30
72
43
73
44
0
VERTEX
8
0
6
CONTINUOUS
62
252
70
128
10
0.000000
20
0.000000
30
0.000000
71
30
72
44
73
29
0
VERTEX
8
0
6
CONTINUOUS
62
252
70
128
10
0.000000
20
0.000000
30
0.000000
71
29
72
44
73
45
0
VERTEX
8
0
6
CONTINUOUS
62
252
70
128
10
0.000000
20
0.000000
30
0.000000
71
29
72
45
73
28
0
VERTEX
8
0
6
CONTINUOUS
62
252
70
128
10
0.000000
20
0.000000
30
0.000000
71
28
72
45
73
46
0
VERTEX
8
0
6
CONTINUOUS
62
252
70
128
10
0.000000
20
0.000000
30
0.000000
71
28
72
46
73
27
0
VERTEX
8
0
6
CONTINUOUS
62
252
70
128
10
0.000000
20
0.000000
30
0.000000
71
27
72
46
73
47
0
VERTEX
8
0
6
CONTINUOUS
62
252
70
128
10
0.000000
20
0.000000
30
0.000000
71
27
72
47
73
26
0
VERTEX
8
0
6
CONTINUOUS
62
252
70
128
10
0.000000
20
0.000000
30
0.000000
71
26
72
47
73
48
0
VERTEX
8
0
6
CONTINUOUS
62
252
70
128
10
0.000000
20
0.000000
30
0.000000
71
26
72
48
73
25
0
VERTEX
8
0
6
CONTINUOUS
62
252
70
128
10
0.000000
20
0.000000
30
0.000000
71
25
72
48
73
49
0
VERTEX
8
0
6
CONTINUOUS
62
252
70
128
10
0.000000
20
0.000000
30
0.000000
71
25
72
49
73
24
0
VERTEX
8
0
6
CONTINUOUS
62
252
70
128
10
0.000000
20
0.000000
30
0.000000
71
24
72
49
73
50
0
VERTEX
8
0
6
CONTINUOUS
62
252
70
128
10
0.000000
20
0.000000
30
0.000000
71
24
72
50
73
23
0
VERTEX
8
0
6
CONTINUOUS
62
252
70
128
10
0.000000
20
0.000000
30
0.000000
71
23
72
50
73
51
0
VERTEX
8
0
6
CONTINUOUS
62
252
70
128
10
0.000000
20
0.000000
30
0.000000
71
23
72
51
73
22
0
VERTEX
8
0
6
CONTINUOUS
62
252
70
128
10
0.000000
20
0.000000
30
0.000000
71
22
72
51
73
52
0
VERTEX
8
0
6
CONTINUOUS
62
252
70
128
10
0.000000
20
0.000000
30
0.000000
71
22
72
52
73
21
0
VERTEX
8
0
6
CONTINUOUS
62
252
70
128
10
0.000000
20
0.000000
30
0.000000
71
21
72
52
73
53
0
VERTEX
8
0
6
CONTINUOUS
62
252
70
128
10
0.000000
20
0.000000
30
0.000000
71
21
72
53
73
20
0
VERTEX
8
0
6
CONTINUOUS
62
252
70
128
10
0.000000
20
0.000000
30
0.000000
71
20
72
53
73
54
0
VERTEX
8
0
6
CONTINUOUS
62
252
70
128
10
0.000000
20
0.000000
30
0.000000
71
20
72
54
73
19
0
VERTEX
8
0
6
CONTINUOUS
62
252
70
128
10
0.000000
20
0.000000
30
0.000000
71
19
72
54
73
55
0
VERTEX
8
0
6
CONTINUOUS
62
252
70
128
10
0.000000
20
0.000000
30
0.000000
71
19
72
55
73
18
0
VERTEX
8
0
6
CONTINUOUS
62
252
70
128
10
0.000000
20
0.000000
30
0.000000
71
18
72
55
73
56
0
VERTEX
8
0
6
CONTINUOUS
62
252
70
128
10
0.000000
20
0.000000
30
0.000000
71
18
72
56
73
17
0
VERTEX
8
0
6
CONTINUOUS
62
252
70
128
10
0.000000
20
0.000000
30
0.000000
71
17
72
56
73
57
0
VERTEX
8
0
6
CONTINUOUS
62
252
70
128
10
0.000000
20
0.000000
30
0.000000
71
17
72
57
73
16
0
VERTEX
8
0
6
CONTINUOUS
62
252
70
128
10
0.000000
20
0.000000
30
0.000000
71
16
72
57
73
58
0
VERTEX
8
0
6
CONTINUOUS
62
252
70
128
10
0.000000
20
0.000000
30
0.000000
71
16
72
58
73
15
0
VERTEX
8
0
6
CONTINUOUS
62
252
70
128
10
0.000000
20
0.000000
30
0.000000
71
15
72
58
73
59
0
VERTEX
8
0
6
CONTINUOUS
62
252
70
128
10
0.000000
20
0.000000
30
0.000000
71
15
72
59
73
14
0
VERTEX
8
0
6
CONTINUOUS
62
252
70
128
10
0.000000
20
0.000000
30
0.000000
71
14
72
59
73
60
0
VERTEX
8
0
6
CONTINUOUS
62
252
70
128
10
0.000000
20
0.000000
30
0.000000
71
14
72
60
73
13
0
VERTEX
8
0
6
CONTINUOUS
62
252
70
128
10
0.000000
20
0.000000
30
0.000000
71
13
72
60
73
61
0
VERTEX
8
0
6
CONTINUOUS
62
252
70
128
10
0.000000
20
0.000000
30
0.000000
71
13
72
61
73
12
0
VERTEX
8
0
6
CONTINUOUS
62
252
70
128
10
0.000000
20
0.000000
30
0.000000
71
12
72
61
73
62
0
VERTEX
8
0
6
CONTINUOUS
62
252
70
128
10
0.000000
20
0.000000
30
0.000000
71
12
72
62
73
11
0
VERTEX
8
0
6
CONTINUOUS
62
252
70
128
10
0.000000
20
0.000000
30
0.000000
71
11
72
62
73
63
0
VERTEX
8
0
6
CONTINUOUS
62
252
70
128
10
0.000000
20
0.000000
30
0.000000
71
11
72
63
73
10
0
VERTEX
8
0
6
CONTINUOUS
62
252
70
128
10
0.000000
20
0.000000
30
0.000000
71
10
72
63
73
64
0
VERTEX
8
0
6
CONTINUOUS
62
252
70
128
10
0.000000
20
0.000000
30
0.000000
71
10
72
64
73
9
0
VERTEX
8
0
6
CONTINUOUS
62
252
70
128
10
0.000000
20
0.000000
30
0.000000
71
9
72
64
73
65
0
VERTEX
8
0
6
CONTINUOUS
62
252
70
128
10
0.000000
20
0.000000
30
0.000000
71
9
72
65
73
8
0
VERTEX
8
0
6
CONTINUOUS
62
252
70
128
10
0.000000
20
0.000000
30
0.000000
71
8
72
65
73
66
0
VERTEX
8
0
6
CONTINUOUS
62
252
70
128
10
0.000000
20
0.000000
30
0.000000
71
8
72
66
73
7
0
VERTEX
8
0
6
CONTINUOUS
62
252
70
128
10
0.000000
20
0.000000
30
0.000000
71
7
72
66
73
67
0
VERTEX
8
0
6
CONTINUOUS
62
252
70
128
10
0.000000
20
0.000000
30
0.000000
71
7
72
67
73
6
0
VERTEX
8
0
6
CONTINUOUS
62
252
70
128
10
0.000000
20
0.000000
30
0.000000
71
6
72
67
73
68
0
VERTEX
8
0
6
CONTINUOUS
62
252
70
128
10
0.000000
20
0.000000
30
0.000000
71
6
72
68
73
5
0
VERTEX
8
0
6
CONTINUOUS
62
252
70
128
10
0.000000
20
0.000000
30
0.000000
71
5
72
68
73
69
0
VERTEX
8
0
6
CONTINUOUS
62
252
70
128
10
0.000000
20
0.000000
30
0.000000
71
5
72
69
73
4
0
VERTEX
8
0
6
CONTINUOUS
62
252
70
128
10
0.000000
20
0.000000
30
0.000000
71
4
72
69
73
70
0
VERTEX
8
0
6
CONTINUOUS
62
252
70
128
10
0.000000
20
0.000000
30
0.000000
71
4
72
70
73
3
0
VERTEX
8
0
6
CONTINUOUS
62
252
70
128
10
0.000000
20
0.000000
30
0.000000
71
3
72
70
73
71
0
VERTEX
8
0
6
CONTINUOUS
62
252
70
128
10
0.000000
20
0.000000
30
0.000000
71
3
72
71
73
2
0
VERTEX
8
0
6
CONTINUOUS
62
252
70
128
10
0.000000
20
0.000000
30
0.000000
71
2
72
71
73
72
0
SEQEND
0
POLYLINE
66
1
8
0
6
CONTINUOUS
62
252
70
64
75
0
10
0.000000
20
0.000000
30
0.000000
0
VERTEX
8
0
6
CONTINUOUS
62
252
70
192
10
8.000000
20
24.748737
30
-26.998737
0
VERTEX
8
0
6
CONTINUOUS
62
252
70
192
10
8.000000
20
24.358029
30
-26.964555
0
VERTEX
8
0
6
CONTINUOUS
62
252
70
192
10
8.000000
20
23.979192
30
-26.863046
0
VERTEX
8
0
6
CONTINUOUS
62
252
70
192
10
8.000000
20
23.623737
30
-26.697294
0
VERTEX
8
0
6
CONTINUOUS
62
252
70
192
10
8.000000
20
23.302465
30
-26.472337
0
VERTEX
8
0
6
CONTINUOUS
62
252
70
192
10
8.000000
20
23.025137
30
-26.195009
0
VERTEX
8
0
6
CONTINUOUS
62
252
70
192
10
8.000000
20
22.800180
30
-25.873737
0
VERTEX
8
0
6
CONTINUOUS
62
252
70
192
10
8.000000
20
22.634429
30
-25.518283
0
VERTEX
8
0
6
CONTINUOUS
62
252
70
192
10
8.000000
20
22.532920
30
-25.139446
0
VERTEX
8
0
6
CONTINUOUS
62
252
70
192
10
8.000000
20
22.498737
30
-24.748737
0
VERTEX
8
0
6
CONTINUOUS
62
252
70
192
10
8.000000
20
22.532920
30
-24.358029
0
VERTEX
8
0
6
CONTINUOUS
62
252
70
192
10
8.000000
20
22.634429
30
-23.979192
0
VERTEX
8
0
6
CONTINUOUS
62
252
70
192
10
8.000000
20
22.800180
30
-23.623737
0
VERTEX
8
0
6
CONTINUOUS
62
252
70
192
10
8.000000
20
23.025137
30
-23.302465
0
VERTEX
8
0
6
CONTINUOUS
62
252
70
192
10
8.000000
20
23.302465
30
-23.025137
0
VERTEX
8
0
6
CONTINUOUS
62
252
70
192
10
8.000000
20
23.623737
30
-22.800180
0
VERTEX
8
0
6
CONTINUOUS
62
252
70
192
10
8.000000
20
23.979192
30
-22.634429
0
VERTEX
8
0
6
CONTINUOUS
62
252
70
192
10
8.000000
20
24.358029
30
-22.532920
0
VERTEX
8
0
6
CONTINUOUS
62
252
70
192
10
8.000000
20
24.748737
30
-22.498737
0
VERTEX
8
0
6
CONTINUOUS
62
252
70
192
10
8.000000
20
25.139446
30
-22.532920
0
VERTEX
8
0
6
CONTINUOUS
62
252
70
192
10
8.000000
20
25.518283
30
-22.634429
0
VERTEX
8
0
6
CONTINUOUS
62
252
70
192
10
8.000000
20
25.873737
30
-22.800180
0
VERTEX
8
0
6
CONTINUOUS
62
252
70
192
10
8.000000
20
26.195009
30
-23.025137
0
VERTEX
8
0
6
CONTINUOUS
62
252
70
192
10
8.000000
20
26.472337
30
-23.302465
0
VERTEX
8
0
6
CONTINUOUS
62
252
70
192
10
8.000000
20
26.697294
30
-23.623737
0
VERTEX
8
0
6
CONTINUOUS
62
252
70
192
10
8.000000
20
26.863046
30
-23.979192
0
VERTEX
8
0
6
CONTINUOUS
62
252
70
192
10
8.000000
20
26.964555
30
-24.358029
0
VERTEX
8
0
6
CONTINUOUS
62
252
70
192
10
8.000000
20
26.998737
30
-24.748737
0
VERTEX
8
0
6
CONTINUOUS
62
252
70
192
10
8.000000
20
26.964555
30
-25.139446
0
VERTEX
8
0
6
CONTINUOUS
62
252
70
192
10
8.000000
20
26.863046
30
-25.518283
0
VERTEX
8
0
6
CONTINUOUS
62
252
70
192
10
8.000000
20
26.697294
30
-25.873737
0
VERTEX
8
0
6
CONTINUOUS
62
252
70
192
10
8.000000
20
26.472337
30
-26.195009
0
VERTEX
8
0
6
CONTINUOUS
62
252
70
192
10
8.000000
20
26.195009
30
-26.472337
0
VERTEX
8
0
6
CONTINUOUS
62
252
70
192
10
8.000000
20
25.873737
30
-26.697294
0
VERTEX
8
0
6
CONTINUOUS
62
252
70
192
10
8.000000
20
25.518283
30
-26.863046
0
VERTEX
8
0
6
CONTINUOUS
62
252
70
192
10
8.000000
20
25.139446
30
-26.964555
0
VERTEX
8
0
6
CONTINUOUS
62
252
70
192
10
8.000000
20
-24.748737
30
-26.998737
0
VERTEX
8
0
6
CONTINUOUS
62
252
70
192
10
8.000000
20
-25.139446
30
-26.964555
0
VERTEX
8
0
6
CONTINUOUS
62
252
70
192
10
8.000000
20
-25.518283
30
-26.863046
0
VERTEX
8
0
6
CONTINUOUS
62
252
70
192
10
8.000000
20
-25.873737
30
-26.697294
0
VERTEX
8
0
6
CONTINUOUS
62
252
70
192
10
8.000000
20
-26.195009
30
-26.472337
0
VERTEX
8
0
6
CONTINUOUS
62
252
70
192
10
8.000000
20
-26.472337
30
-26.195009
0
VERTEX
8
0
6
CONTINUOUS
62
252
70
192
10
8.000000
20
-26.697294
30
-25.873737
0
VERTEX
8
0
6
CONTINUOUS
62
252
70
192
10
8.000000
20
-26.863046
30
-25.518283
0
VERTEX
8
0
6
CONTINUOUS
62
252
70
192
10
8.000000
20
-26.964555
30
-25.139446
0
VERTEX
8
0
6
CONTINUOUS
62
252
70
192
10
8.000000
20
-26.998737
30
-24.748737
0
VERTEX
8
0
6
CONTINUOUS
62
252
70
192
10
8.000000
20
-26.964555
30
-24.358029
0
VERTEX
8
0
6
CONTINUOUS
62
252
70
192
10
8.000000
20
-26.863046
30
-23.979192
0
VERTEX
8
0
6
CONTINUOUS
62
252
70
192
10
8.000000
20
-26.697294
30
-23.623737
0
VERTEX
8
0
6
CONTINUOUS
62
252
70
192
10
8.000000
20
-26.472337
30
-23.302465
0
VERTEX
8
0
6
CONTINUOUS
62
252
70
192
10
8.000000
20
-26.195009
30
-23.025137
0
VERTEX
8
0
6
CONTINUOUS
62
252
70
192
10
8.000000
20
-25.873737
30
-22.800180
0
VERTEX
8
0
6
CONTINUOUS
62
252
70
192
10
8.000000
20
-25.518283
30
-22.634429
0
VERTEX
8
0
6
CONTINUOUS
62
252
70
192
10
8.000000
20
-25.139446
30
-22.532920
0
VERTEX
8
0
6
CONTINUOUS
62
252
70
192
10
8.000000
20
-24.748737
30
-22.498737
0
VERTEX
8
0
6
CONTINUOUS
62
252
70
192
10
8.000000
20
-24.358029
30
-22.532920
0
VERTEX
8
0
6
CONTINUOUS
62
252
70
192
10
8.000000
20
-23.979192
30
-22.634429
0
VERTEX
8
0
6
CONTINUOUS
62
252
70
192
10
8.000000
20
-23.623737
30
-22.800180
0
VERTEX
8
0
6
CONTINUOUS
62
252
70
192
10
8.000000
20
-23.302465
30
-23.025137
0
VERTEX
8
0
6
CONTINUOUS
62
252
70
192
10
8.000000
20
-23.025137
30
-23.302465
0
VERTEX
8
0
6
CONTINUOUS
62
252
70
192
10
8.000000
20
-22.800180
30
-23.623737
0
VERTEX
8
0
6
CONTINUOUS
62
252
70
192
10
8.000000
20
-22.634429
30
-23.979192
0
VERTEX
8
0
6
CONTINUOUS
62
252
70
192
10
8.000000
20
-22.532920
30
-24.358029
0
VERTEX
8
0
6
CONTINUOUS
62
252
70
192
10
8.000000
20
-22.498737
30
-24.748737
0
VERTEX
8
0
6
CONTINUOUS
62
252
70
192
10
8.000000
20
-22.532920
30
-25.139446
0
VERTEX
8
0
6
CONTINUOUS
62
252
70
192
10
8.000000
20
-22.634429
30
-25.518283
0
VERTEX
8
0
6
CONTINUOUS
62
252
70
192
10
8.000000
20
-22.800180
30
-25.873737
0
VERTEX
8
0
6
CONTINUOUS
62
252
70
192
10
8.000000
20
-23.025137
30
-26.195009
0
VERTEX
8
0
6
CONTINUOUS
62
252
70
192
10
8.000000
20
-23.302465
30
-26.472337
0
VERTEX
8
0
6
CONTINUOUS
62
252
70
192
10
8.000000
20
-23.623737
30
-26.697294
0
VERTEX
8
0
6
CONTINUOUS
62
252
70
192
10
8.000000
20
-23.979192
30
-26.863046
0
VERTEX
8
0
6
CONTINUOUS
62
252
70
192
10
8.000000
20
-24.358029
30
-26.964555
0
VERTEX
8
0
6
CONTINUOUS
62
252
70
192
10
8.000000
20
24.748737
30
22.498737
0
VERTEX
8
0
6
CONTINUOUS
62
252
70
192
10
8.000000
20
24.358029
30
22.532920
0
VERTEX
8
0
6
CONTINUOUS
62
252
70
192
10
8.000000
20
23.979192
30
22.634429
0
VERTEX
8
0
6
CONTINUOUS
62
252
70
192
10
8.000000
20
23.623737
30
22.800180
0
VERTEX
8
0
6
CONTINUOUS
62
252
70
192
10
8.000000
20
23.302465
30
23.025137
0
VERTEX
8
0
6
CONTINUOUS
62
252
70
192
10
8.000000
20
23.025137
30
23.302465
0
VERTEX
8
0
6
CONTINUOUS
62
252
70
192
10
8.000000
20
22.800180
30
23.623737
0
VERTEX
8
0
6
CONTINUOUS
62
252
70
192
10
8.000000
20
22.634429
30
23.979192
0
VERTEX
8
0
6
CONTINUOUS
62
252
70
192
10
8.000000
20
22.532920
30
24.358029
0
VERTEX
8
0
6
CONTINUOUS
62
252
70
192
10
8.000000
20
22.498737
30
24.748737
0
VERTEX
8
0
6
CONTINUOUS
62
252
70
192
10
8.000000
20
22.532920
30
25.139446
0
VERTEX
8
0
6
CONTINUOUS
62
252
70
192
10
8.000000
20
22.634429
30
25.518283
0
VERTEX
8
0
6
CONTINUOUS
62
252
70
192
10
8.000000
20
22.800180
30
25.873737
0
VERTEX
8
0
6
CONTINUOUS
62
252
70
192
10
8.000000
20
23.025137
30
26.195009
0
VERTEX
8
0
6
CONTINUOUS
62
252
70
192
10
8.000000
20
23.302465
30
26.472337
0
VERTEX
8
0
6
CONTINUOUS
62
252
70
192
10
8.000000
20
23.623737
30
26.697294
0
VERTEX
8
0
6
CONTINUOUS
62
252
70
192
10
8.000000
20
23.979192
30
26.863046
0
VERTEX
8
0
6
CONTINUOUS
62
252
70
192
10
8.000000
20
24.358029
30
26.964555
0
VERTEX
8
0
6
CONTINUOUS
62
252
70
192
10
8.000000
20
24.748737
30
26.998737
0
VERTEX
8
0
6
CONTINUOUS
62
252
70
192
10
8.000000
20
25.139446
30
26.964555
0
VERTEX
8
0
6
CONTINUOUS
62
252
70
192
10
8.000000
20
25.518283
30
26.863046
0
VERTEX
8
0
6
CONTINUOUS
62
252
70
192
10
8.000000
20
25.873737
30
26.697294
0
VERTEX
8
0
6
CONTINUOUS
62
252
70
192
10
8.000000
20
26.195009
30
26.472337
0
VERTEX
8
0
6
CONTINUOUS
62
252
70
192
10
8.000000
20
26.472337
30
26.195009
0
VERTEX
8
0
6
CONTINUOUS
62
252
70
192
10
8.000000
20
26.697294
30
25.873737
0
VERTEX
8
0
6
CONTINUOUS
62
252
70
192
10
8.000000
20
26.863046
30
25.518283
0
VERTEX
8
0
6
CONTINUOUS
62
252
70
192
10
8.000000
20
26.964555
30
25.139446
0
VERTEX
8
0
6
CONTINUOUS
62
252
70
192
10
8.000000
20
26.998737
30
24.748737
0
VERTEX
8
0
6
CONTINUOUS
62
252
70
192
10
8.000000
20
26.964555
30
24.358029
0
VERTEX
8
0
6
CONTINUOUS
62
252
70
192
10
8.000000
20
26.863046
30
23.979192
0
VERTEX
8
0
6
CONTINUOUS
62
252
70
192
10
8.000000
20
26.697294
30
23.623737
0
VERTEX
8
0
6
CONTINUOUS
62
252
70
192
10
8.000000
20
26.472337
30
23.302465
0
VERTEX
8
0
6
CONTINUOUS
62
252
70
192
10
8.000000
20
26.195009
30
23.025137
0
VERTEX
8
0
6
CONTINUOUS
62
252
70
192
10
8.000000
20
25.873737
30
22.800180
0
VERTEX
8
0
6
CONTINUOUS
62
252
70
192
10
8.000000
20
25.518283
30
22.634429
0
VERTEX
8
0
6
CONTINUOUS
62
252
70
192
10
8.000000
20
25.139446
30
22.532920
0
VERTEX
8
0
6
CONTINUOUS
62
252
70
192
10
8.000000
20
-24.748737
30
22.498737
0
VERTEX
8
0
6
CONTINUOUS
62
252
70
192
10
8.000000
20
-25.139446
30
22.532920
0
VERTEX
8
0
6
CONTINUOUS
62
252
70
192
10
8.000000
20
-25.518283
30
22.634429
0
VERTEX
8
0
6
CONTINUOUS
62
252
70
192
10
8.000000
20
-25.873737
30
22.800180
0
VERTEX
8
0
6
CONTINUOUS
62
252
70
192
10
8.000000
20
-26.195009
30
23.025137
0
VERTEX
8
0
6
CONTINUOUS
62
252
70
192
10
8.000000
20
-26.472337
30
23.302465
0
VERTEX
8
0
6
CONTINUOUS
62
252
70
192
10
8.000000
20
-26.697294
30
23.623737
0
VERTEX
8
0
6
CONTINUOUS
62
252
70
192
10
8.000000
20
-26.863046
30
23.979192
0
VERTEX
8
0
6
CONTINUOUS
62
252
70
192
10
8.000000
20
-26.964555
30
24.358029
0
VERTEX
8
0
6
CONTINUOUS
62
252
70
192
10
8.000000
20
-26.998737
30
24.748737
0
VERTEX
8
0
6
CONTINUOUS
62
252
70
192
10
8.000000
20
-26.964555
30
25.139446
0
VERTEX
8
0
6
CONTINUOUS
62
252
70
192
10
8.000000
20
-26.863046
30
25.518283
0
VERTEX
8
0
6
CONTINUOUS
62
252
70
192
10
8.000000
20
-26.697294
30
25.873737
0
VERTEX
8
0
6
CONTINUOUS
62
252
70
192
10
8.000000
20
-26.472337
30
26.195009
0
VERTEX
8
0
6
CONTINUOUS
62
252
70
192
10
8.000000
20
-26.195009
30
26.472337
0
VERTEX
8
0
6
CONTINUOUS
62
252
70
192
10
8.000000
20
-25.873737
30
26.697294
0
VERTEX
8
0
6
CONTINUOUS
62
252
70
192
10
8.000000
20
-25.518283
30
26.863046
0
VERTEX
8
0
6
CONTINUOUS
62
252
70
192
10
8.000000
20
-25.139446
30
26.964555
0
VERTEX
8
0
6
CONTINUOUS
62
252
70
192
10
8.000000
20
-24.748737
30
26.998737
0
VERTEX
8
0
6
CONTINUOUS
62
252
70
192
10
8.000000
20
-24.358029
30
26.964555
0
VERTEX
8
0
6
CONTINUOUS
62
252
70
192
10
8.000000
20
-23.979192
30
26.863046
0
VERTEX
8
0
6
CONTINUOUS
62
252
70
192
10
8.000000
20
-23.623737
30
26.697294
0
VERTEX
8
0
6
CONTINUOUS
62
252
70
192
10
8.000000
20
-23.302465
30
26.472337
0
VERTEX
8
0
6
CONTINUOUS
62
252
70
192
10
8.000000
20
-23.025137
30
26.195009
0
VERTEX
8
0
6
CONTINUOUS
62
252
70
192
10
8.000000
20
-22.800180
30
25.873737
0
VERTEX
8
0
6
CONTINUOUS
62
252
70
192
10
8.000000
20
-22.634429
30
25.518283
0
VERTEX
8
0
6
CONTINUOUS
62
252
70
192
10
8.000000
20
-22.532920
30
25.139446
0
VERTEX
8
0
6
CONTINUOUS
62
252
70
192
10
8.000000
20
-22.498737
30
24.748737
0
VERTEX
8
0
6
CONTINUOUS
62
252
70
192
10
8.000000
20
-22.532920
30
24.358029
0
VERTEX
8
0
6
CONTINUOUS
62
252
70
192
10
8.000000
20
-22.634429
30
23.979192
0
VERTEX
8
0
6
CONTINUOUS
62
252
70
192
10
8.000000
20
-22.800180
30
23.623737
0
VERTEX
8
0
6
CONTINUOUS
62
252
70
192
10
8.000000
20
-23.025137
30
23.302465
0
VERTEX
8
0
6
CONTINUOUS
62
252
70
192
10
8.000000
20
-23.302465
30
23.025137
0
VERTEX
8
0
6
CONTINUOUS
62
252
70
192
10
8.000000
20
-23.623737
30
22.800180
0
VERTEX
8
0
6
CONTINUOUS
62
252
70
192
10
8.000000
20
-23.979192
30
22.634429
0
VERTEX
8
0
6
CONTINUOUS
62
252
70
192
10
8.000000
20
-24.358029
30
22.532920
0
VERTEX
8
0
6
CONTINUOUS
62
252
70
192
10
8.000000
20
25.500000
30
30.500000
0
VERTEX
8
0
6
CONTINUOUS
62
252
70
192
10
8.000000
20
-25.500000
30
30.500000
0
VERTEX
8
0
6
CONTINUOUS
62
252
70
192
10
8.000000
20
-26.368241
30
30.424039
0
VERTEX
8
0
6
CONTINUOUS
62
252
70
192
10
8.000000
20
-27.210101
30
30.198463
0
VERTEX
8
0
6
CONTINUOUS
62
252
70
192
10
8.000000
20
-28.000000
30
29.830127
0
VERTEX
8
0
6
CONTINUOUS
62
252
70
192
10
8.000000
20
-28.713938
30
29.330222
0
VERTEX
8
0
6
CONTINUOUS
62
252
70
192
10
8.000000
20
-29.330222
30
28.713938
0
VERTEX
8
0
6
CONTINUOUS
62
252
70
192
10
8.000000
20
-29.830127
30
28.000000
0
VERTEX
8
0
6
CONTINUOUS
62
252
70
192
10
8.000000
20
-30.198463
30
27.210101
0
VERTEX
8
0
6
CONTINUOUS
62
252
70
192
10
8.000000
20
-30.424039
30
26.368241
0
VERTEX
8
0
6
CONTINUOUS
62
252
70
192
10
8.000000
20
-30.500000
30
25.500000
0
VERTEX
8
0
6
CONTINUOUS
62
252
70
192
10
8.000000
20
-30.500000
30
-25.500000
0
VERTEX
8
0
6
CONTINUOUS
62
252
70
192
10
8.000000
20
-30.424039
30
-26.368241
0
VERTEX
8
0
6
CONTINUOUS
62
252
70
192
10
8.000000
20
-30.198463
30
-27.210101
0
VERTEX
8
0
6
CONTINUOUS
62
252
70
192
10
8.000000
20
-29.830127
30
-28.000000
0
VERTEX
8
0
6
CONTINUOUS
62
252
70
192
10
8.000000
20
-29.330222
30
-28.713938
0
VERTEX
8
0
6
CONTINUOUS
62
252
70
192
10
8.000000
20
-28.713938
30
-29.330222
0
VERTEX
8
0
6
CONTINUOUS
62
252
70
192
10
8.000000
20
-28.000000
30
-29.830127
0
VERTEX
8
0
6
CONTINUOUS
62
252
70
192
10
8.000000
20
-27.210101
30
-30.198463
0
VERTEX
8
0
6
CONTINUOUS
62
252
70
192
10
8.000000
20
-26.368241
30
-30.424039
0
VERTEX
8
0
6
CONTINUOUS
62
252
70
192
10
8.000000
20
-25.500000
30
-30.500000
0
VERTEX
8
0
6
CONTINUOUS
62
252
70
192
10
8.000000
20
25.500000
30
-30.500000
0
VERTEX
8
0
6
CONTINUOUS
62
252
70
192
10
8.000000
20
26.368241
30
-30.424039
0
VERTEX
8
0
6
CONTINUOUS
62
252
70
192
10
8.000000
20
27.210101
30
-30.198463
0
VERTEX
8
0
6
CONTINUOUS
62
252
70
192
10
8.000000
20
28.000000
30
-29.830127
0
VERTEX
8
0
6
CONTINUOUS
62
252
70
192
10
8.000000
20
28.713938
30
-29.330222
0
VERTEX
8
0
6
CONTINUOUS
62
252
70
192
10
8.000000
20
29.330222
30
-28.713938
0
VERTEX
8
0
6
CONTINUOUS
62
252
70
192
10
8.000000
20
29.830127
30
-28.000000
0
VERTEX
8
0
6
CONTINUOUS
62
252
70
192
10
8.000000
20
30.198463
30
-27.210101
0
VERTEX
8
0
6
CONTINUOUS
62
252
70
192
10
8.000000
20
30.424039
30
-26.368241
0
VERTEX
8
0
6
CONTINUOUS
62
252
70
192
10
8.000000
20
30.500000
30
-25.500000
0
VERTEX
8
0
6
CONTINUOUS
62
252
70
192
10
8.000000
20
30.500000
30
25.500000
0
VERTEX
8
0
6
CONTINUOUS
62
252
70
192
10
8.000000
20
30.424039
30
26.368241
0
VERTEX
8
0
6
CONTINUOUS
62
252
70
192
10
8.000000
20
30.198463
30
27.210101
0
VERTEX
8
0
6
CONTINUOUS
62
252
70
192
10
8.000000
20
29.830127
30
28.000000
0
VERTEX
8
0
6
CONTINUOUS
62
252
70
192
10
8.000000
20
29.330222
30
28.713938
0
VERTEX
8
0
6
CONTINUOUS
62
252
70
192
10
8.000000
20
28.713938
30
29.330222
0
VERTEX
8
0
6
CONTINUOUS
62
252
70
192
10
8.000000
20
28.000000
30
29.830127
0
VERTEX
8
0
6
CONTINUOUS
62
252
70
192
10
8.000000
20
27.210101
30
30.198463
0
VERTEX
8
0
6
CONTINUOUS
62
252
70
192
10
8.000000
20
26.368241
30
30.424039
0
VERTEX
8
0
6
CONTINUOUS
62
252
70
128
10
0.000000
20
0.000000
30
0.000000
71
36
72
1
73
166
0
VERTEX
8
0
6
CONTINUOUS
62
252
70
128
10
0.000000
20
0.000000
30
0.000000
71
166
72
1
73
2
0
VERTEX
8
0
6
CONTINUOUS
62
252
70
128
10
0.000000
20
0.000000
30
0.000000
71
166
72
2
73
3
0
VERTEX
8
0
6
CONTINUOUS
62
252
70
128
10
0.000000
20
0.000000
30
0.000000
71
3
72
4
73
166
0
VERTEX
8
0
6
CONTINUOUS
62
252
70
128
10
0.000000
20
0.000000
30
0.000000
71
166
72
4
73
5
0
VERTEX
8
0
6
CONTINUOUS
62
252
70
128
10
0.000000
20
0.000000
30
0.000000
71
166
72
5
73
6
0
VERTEX
8
0
6
CONTINUOUS
62
252
70
128
10
0.000000
20
0.000000
30
0.000000
71
7
72
67
73
6
0
VERTEX
8
0
6
CONTINUOUS
62
252
70
128
10
0.000000
20
0.000000
30
0.000000
71
6
72
67
73
68
0
VERTEX
8
0
6
CONTINUOUS
62
252
70
128
10
0.000000
20
0.000000
30
0.000000
71
6
72
68
73
166
0
VERTEX
8
0
6
CONTINUOUS
62
252
70
128
10
0.000000
20
0.000000
30
0.000000
71
166
72
68
73
165
0
VERTEX
8
0
6
CONTINUOUS
62
252
70
128
10
0.000000
20
0.000000
30
0.000000
71
165
72
68
73
69
0
VERTEX
8
0
6
CONTINUOUS
62
252
70
128
10
0.000000
20
0.000000
30
0.000000
71
165
72
69
73
70
0
VERTEX
8
0
6
CONTINUOUS
62
252
70
128
10
0.000000
20
0.000000
30
0.000000
71
7
72
8
73
67
0
VERTEX
8
0
6
CONTINUOUS
62
252
70
128
10
0.000000
20
0.000000
30
0.000000
71
67
72
8
73
66
0
VERTEX
8
0
6
CONTINUOUS
62
252
70
128
10
0.000000
20
0.000000
30
0.000000
71
66
72
8
73
65
0
VERTEX
8
0
6
CONTINUOUS
62
252
70
128
10
0.000000
20
0.000000
30
0.000000
71
65
72
8
73
9
0
VERTEX
8
0
6
CONTINUOUS
62
252
70
128
10
0.000000
20
0.000000
30
0.000000
71
65
72
9
73
10
0
VERTEX
8
0
6
CONTINUOUS
62
252
70
128
10
0.000000
20
0.000000
30
0.000000
71
65
72
10
73
64
0
VERTEX
8
0
6
CONTINUOUS
62
252
70
128
10
0.000000
20
0.000000
30
0.000000
71
64
72
10
73
11
0
VERTEX
8
0
6
CONTINUOUS
62
252
70
128
10
0.000000
20
0.000000
30
0.000000
71
64
72
11
73
63
0
VERTEX
8
0
6
CONTINUOUS
62
252
70
128
10
0.000000
20
0.000000
30
0.000000
71
63
72
11
73
12
0
VERTEX
8
0
6
CONTINUOUS
62
252
70
128
10
0.000000
20
0.000000
30
0.000000
71
63
72
12
73
62
0
VERTEX
8
0
6
CONTINUOUS
62
252
70
128
10
0.000000
20
0.000000
30
0.000000
71
62
72
12
73
13
0
VERTEX
8
0
6
CONTINUOUS
62
252
70
128
10
0.000000
20
0.000000
30
0.000000
71
62
72
13
73
61
0
VERTEX
8
0
6
CONTINUOUS
62
252
70
128
10
0.000000
20
0.000000
30
0.000000
71
61
72
13
73
14
0
VERTEX
8
0
6
CONTINUOUS
62
252
70
128
10
0.000000
20
0.000000
30
0.000000
71
61
72
14
73
60
0
VERTEX
8
0
6
CONTINUOUS
62
252
70
128
10
0.000000
20
0.000000
30
0.000000
71
60
72
14
73
15
0
VERTEX
8
0
6
CONTINUOUS
62
252
70
128
10
0.000000
20
0.000000
30
0.000000
71
60
72
15
73
77
0
VERTEX
8
0
6
CONTINUOUS
62
252
70
128
10
0.000000
20
0.000000
30
0.000000
71
77
72
15
73
76
0
VERTEX
8
0
6
CONTINUOUS
62
252
70
128
10
0.000000
20
0.000000
30
0.000000
71
76
72
15
73
16
0
VERTEX
8
0
6
CONTINUOUS
62
252
70
128
10
0.000000
20
0.000000
30
0.000000
71
76
72
16
73
17
0
VERTEX
8
0
6
CONTINUOUS
62
252
70
128
10
0.000000
20
0.000000
30
0.000000
71
76
72
17
73
75
0
VERTEX
8
0
6
CONTINUOUS
62
252
70
128
10
0.000000
20
0.000000
30
0.000000
71
75
72
17
73
18
0
VERTEX
8
0
6
CONTINUOUS
62
252
70
128
10
0.000000
20
0.000000
30
0.000000
71
75
72
18
73
74
0
VERTEX
8
0
6
CONTINUOUS
62
252
70
128
10
0.000000
20
0.000000
30
0.000000
71
74
72
18
73
73
0
VERTEX
8
0
6
CONTINUOUS
62
252
70
128
10
0.000000
20
0.000000
30
0.000000
71
73
72
18
73
19
0
VERTEX
8
0
6
CONTINUOUS
62
252
70
128
10
0.000000
20
0.000000
30
0.000000
71
73
72
19
73
108
0
VERTEX
8
0
6
CONTINUOUS
62
252
70
128
10
0.000000
20
0.000000
30
0.000000
71
108
72
19
73
20
0
VERTEX
8
0
6
CONTINUOUS
62
252
70
128
10
0.000000
20
0.000000
30
0.000000
71
108
72
20
73
107
0
VERTEX
8
0
6
CONTINUOUS
62
252
70
128
10
0.000000
20
0.000000
30
0.000000
71
107
72
20
73
21
0
VERTEX
8
0
6
CONTINUOUS
62
252
70
128
10
0.000000
20
0.000000
30
0.000000
71
107
72
21
73
106
0
VERTEX
8
0
6
CONTINUOUS
62
252
70
128
10
0.000000
20
0.000000
30
0.000000
71
106
72
21
73
22
0
VERTEX
8
0
6
CONTINUOUS
62
252
70
128
10
0.000000
20
0.000000
30
0.000000
71
106
72
22
73
105
0
VERTEX
8
0
6
CONTINUOUS
62
252
70
128
10
0.000000
20
0.000000
30
0.000000
71
105
72
22
73
23
0
VERTEX
8
0
6
CONTINUOUS
62
252
70
128
10
0.000000
20
0.000000
30
0.000000
71
105
72
23
73
176
0
VERTEX
8
0
6
CONTINUOUS
62
252
70
128
10
0.000000
20
0.000000
30
0.000000
71
176
72
23
73
175
0
VERTEX
8
0
6
CONTINUOUS
62
252
70
128
10
0.000000
20
0.000000
30
0.000000
71
175
72
23
73
24
0
VERTEX
8
0
6
CONTINUOUS
62
252
70
128
10
0.000000
20
0.000000
30
0.000000
71
175
72
24
73
25
0
VERTEX
8
0
6
CONTINUOUS
62
252
70
128
10
0.000000
20
0.000000
30
0.000000
71
25
72
26
73
175
0
VERTEX
8
0
6
CONTINUOUS
62
252
70
128
10
0.000000
20
0.000000
30
0.000000
71
175
72
26
73
27
0
VERTEX
8
0
6
CONTINUOUS
62
252
70
128
10
0.000000
20
0.000000
30
0.000000
71
175
72
27
73
28
0
VERTEX
8
0
6
CONTINUOUS
62
252
70
128
10
0.000000
20
0.000000
30
0.000000
71
28
72
29
73
175
0
VERTEX
8
0
6
CONTINUOUS
62
252
70
128
10
0.000000
20
0.000000
30
0.000000
71
175
72
29
73
174
0
VERTEX
8
0
6
CONTINUOUS
62
252
70
128
10
0.000000
20
0.000000
30
0.000000
71
174
72
29
73
30
0
VERTEX
8
0
6
CONTINUOUS
62
252
70
128
10
0.000000
20
0.000000
30
0.000000
71
174
72
30
73
173
0
VERTEX
8
0
6
CONTINUOUS
62
252
70
128
10
0.000000
20
0.000000
30
0.000000
71
173
72
30
73
31
0
VERTEX
8
0
6
CONTINUOUS
62
252
70
128
10
0.000000
20
0.000000
30
0.000000
71
173
72
31
73
172
0
VERTEX
8
0
6
CONTINUOUS
62
252
70
128
10
0.000000
20
0.000000
30
0.000000
71
172
72
31
73
32
0
VERTEX
8
0
6
CONTINUOUS
62
252
70
128
10
0.000000
20
0.000000
30
0.000000
71
172
72
32
73
171
0
VERTEX
8
0
6
CONTINUOUS
62
252
70
128
10
0.000000
20
0.000000
30
0.000000
71
171
72
32
73
33
0
VERTEX
8
0
6
CONTINUOUS
62
252
70
128
10
0.000000
20
0.000000
30
0.000000
71
171
72
33
73
170
0
VERTEX
8
0
6
CONTINUOUS
62
252
70
128
10
0.000000
20
0.000000
30
0.000000
71
170
72
33
73
169
0
VERTEX
8
0
6
CONTINUOUS
62
252
70
128
10
0.000000
20
0.000000
30
0.000000
71
169
72
33
73
34
0
VERTEX
8
0
6
CONTINUOUS
62
252
70
128
10
0.000000
20
0.000000
30
0.000000
71
169
72
34
73
168
0
VERTEX
8
0
6
CONTINUOUS
62
252
70
128
10
0.000000
20
0.000000
30
0.000000
71
168
72
34
73
35
0
VERTEX
8
0
6
CONTINUOUS
62
252
70
128
10
0.000000
20
0.000000
30
0.000000
71
168
72
35
73
167
0
VERTEX
8
0
6
CONTINUOUS
62
252
70
128
10
0.000000
20
0.000000
30
0.000000
71
167
72
35
73
36
0
VERTEX
8
0
6
CONTINUOUS
62
252
70
128
10
0.000000
20
0.000000
30
0.000000
71
167
72
36
73
166
0
VERTEX
8
0
6
CONTINUOUS
62
252
70
128
10
0.000000
20
0.000000
30
0.000000
71
72
72
37
73
165
0
VERTEX
8
0
6
CONTINUOUS
62
252
70
128
10
0.000000
20
0.000000
30
0.000000
71
165
72
37
73
38
0
VERTEX
8
0
6
CONTINUOUS
62
252
70
128
10
0.000000
20
0.000000
30
0.000000
71
165
72
38
73
164
0
VERTEX
8
0
6
CONTINUOUS
62
252
70
128
10
0.000000
20
0.000000
30
0.000000
71
164
72
38
73
39
0
VERTEX
8
0
6
CONTINUOUS
62
252
70
128
10
0.000000
20
0.000000
30
0.000000
71
164
72
39
73
163
0
VERTEX
8
0
6
CONTINUOUS
62
252
70
128
10
0.000000
20
0.000000
30
0.000000
71
163
72
39
73
40
0
VERTEX
8
0
6
CONTINUOUS
62
252
70
128
10
0.000000
20
0.000000
30
0.000000
71
163
72
40
73
162
0
VERTEX
8
0
6
CONTINUOUS
62
252
70
128
10
0.000000
20
0.000000
30
0.000000
71
162
72
40
73
41
0
VERTEX
8
0
6
CONTINUOUS
62
252
70
128
10
0.000000
20
0.000000
30
0.000000
71
162
72
41
73
161
0
VERTEX
8
0
6
CONTINUOUS
62
252
70
128
10
0.000000
20
0.000000
30
0.000000
71
161
72
41
73
160
0
VERTEX
8
0
6
CONTINUOUS
62
252
70
128
10
0.000000
20
0.000000
30
0.000000
71
160
72
41
73
42
0
VERTEX
8
0
6
CONTINUOUS
62
252
70
128
10
0.000000
20
0.000000
30
0.000000
71
160
72
42
73
159
0
VERTEX
8
0
6
CONTINUOUS
62
252
70
128
10
0.000000
20
0.000000
30
0.000000
71
159
72
42
73
43
0
VERTEX
8
0
6
CONTINUOUS
62
252
70
128
10
0.000000
20
0.000000
30
0.000000
71
159
72
43
73
158
0
VERTEX
8
0
6
CONTINUOUS
62
252
70
128
10
0.000000
20
0.000000
30
0.000000
71
158
72
43
73
44
0
VERTEX
8
0
6
CONTINUOUS
62
252
70
128
10
0.000000
20
0.000000
30
0.000000
71
158
72
44
73
157
0
VERTEX
8
0
6
CONTINUOUS
62
252
70
128
10
0.000000
20
0.000000
30
0.000000
71
157
72
44
73
45
0
VERTEX
8
0
6
CONTINUOUS
62
252
70
128
10
0.000000
20
0.000000
30
0.000000
71
157
72
45
73
156
0
VERTEX
8
0
6
CONTINUOUS
62
252
70
128
10
0.000000
20
0.000000
30
0.000000
71
156
72
45
73
46
0
VERTEX
8
0
6
CONTINUOUS
62
252
70
128
10
0.000000
20
0.000000
30
0.000000
71
156
72
46
73
47
0
VERTEX
8
0
6
CONTINUOUS
62
252
70
128
10
0.000000
20
0.000000
30
0.000000
71
47
72
48
73
156
0
VERTEX
8
0
6
CONTINUOUS
62
252
70
128
10
0.000000
20
0.000000
30
0.000000
71
156
72
48
73
49
0
VERTEX
8
0
6
CONTINUOUS
62
252
70
128
10
0.000000
20
0.000000
30
0.000000
71
156
72
49
73
50
0
VERTEX
8
0
6
CONTINUOUS
62
252
70
128
10
0.000000
20
0.000000
30
0.000000
71
50
72
51
73
156
0
VERTEX
8
0
6
CONTINUOUS
62
252
70
128
10
0.000000
20
0.000000
30
0.000000
71
156
72
51
73
113
0
VERTEX
8
0
6
CONTINUOUS
62
252
70
128
10
0.000000
20
0.000000
30
0.000000
71
156
72
113
73
155
0
VERTEX
8
0
6
CONTINUOUS
62
252
70
128
10
0.000000
20
0.000000
30
0.000000
71
155
72
113
73
114
0
VERTEX
8
0
6
CONTINUOUS
62
252
70
128
10
0.000000
20
0.000000
30
0.000000
71
155
72
114
73
115
0
VERTEX
8
0
6
CONTINUOUS
62
252
70
128
10
0.000000
20
0.000000
30
0.000000
71
113
72
51
73
112
0
VERTEX
8
0
6
CONTINUOUS
62
252
70
128
10
0.000000
20
0.000000
30
0.000000
71
112
72
51
73
52
0
VERTEX
8
0
6
CONTINUOUS
62
252
70
128
10
0.000000
20
0.000000
30
0.000000
71
112
72
52
73
53
0
VERTEX
8
0
6
CONTINUOUS
62
252
70
128
10
0.000000
20
0.000000
30
0.000000
71
112
72
53
73
111
0
VERTEX
8
0
6
CONTINUOUS
62
252
70
128
10
0.000000
20
0.000000
30
0.000000
71
111
72
53
73
54
0
VERTEX
8
0
6
CONTINUOUS
62
252
70
128
10
0.000000
20
0.000000
30
0.000000
71
111
72
54
73
110
0
VERTEX
8
0
6
CONTINUOUS
62
252
70
128
10
0.000000
20
0.000000
30
0.000000
71
110
72
54
73
109
0
VERTEX
8
0
6
CONTINUOUS
62
252
70
128
10
0.000000
20
0.000000
30
0.000000
71
109
72
54
73
55
0
VERTEX
8
0
6
CONTINUOUS
62
252
70
128
10
0.000000
20
0.000000
30
0.000000
71
109
72
55
73
144
0
VERTEX
8
0
6
CONTINUOUS
62
252
70
128
10
0.000000
20
0.000000
30
0.000000
71
144
72
55
73
56
0
VERTEX
8
0
6
CONTINUOUS
62
252
70
128
10
0.000000
20
0.000000
30
0.000000
71
144
72
56
73
143
0
VERTEX
8
0
6
CONTINUOUS
62
252
70
128
10
0.000000
20
0.000000
30
0.000000
71
143
72
56
73
57
0
VERTEX
8
0
6
CONTINUOUS
62
252
70
128
10
0.000000
20
0.000000
30
0.000000
71
143
72
57
73
142
0
VERTEX
8
0
6
CONTINUOUS
62
252
70
128
10
0.000000
20
0.000000
30
0.000000
71
142
72
57
73
58
0
VERTEX
8
0
6
CONTINUOUS
62
252
70
128
10
0.000000
20
0.000000
30
0.000000
71
142
72
58
73
141
0
VERTEX
8
0
6
CONTINUOUS
62
252
70
128
10
0.000000
20
0.000000
30
0.000000
71
141
72
58
73
59
0
VERTEX
8
0
6
CONTINUOUS
62
252
70
128
10
0.000000
20
0.000000
30
0.000000
71
141
72
59
73
78
0
VERTEX
8
0
6
CONTINUOUS
62
252
70
128
10
0.000000
20
0.000000
30
0.000000
71
78
72
59
73
77
0
VERTEX
8
0
6
CONTINUOUS
62
252
70
128
10
0.000000
20
0.000000
30
0.000000
71
77
72
59
73
60
0
VERTEX
8
0
6
CONTINUOUS
62
252
70
128
10
0.000000
20
0.000000
30
0.000000
71
70
72
71
73
165
0
VERTEX
8
0
6
CONTINUOUS
62
252
70
128
10
0.000000
20
0.000000
30
0.000000
71
165
72
71
73
72
0
VERTEX
8
0
6
CONTINUOUS
62
252
70
128
10
0.000000
20
0.000000
30
0.000000
71
141
72
78
73
140
0
VERTEX
8
0
6
CONTINUOUS
62
252
70
128
10
0.000000
20
0.000000
30
0.000000
71
140
72
78
73
79
0
VERTEX
8
0
6
CONTINUOUS
62
252
70
128
10
0.000000
20
0.000000
30
0.000000
71
140
72
79
73
139
0
VERTEX
8
0
6
CONTINUOUS
62
252
70
128
10
0.000000
20
0.000000
30
0.000000
71
139
72
79
73
80
0
VERTEX
8
0
6
CONTINUOUS
62
252
70
128
10
0.000000
20
0.000000
30
0.000000
71
139
72
80
73
138
0
VERTEX
8
0
6
CONTINUOUS
62
252
70
128
10
0.000000
20
0.000000
30
0.000000
71
138
72
80
73
137
0
VERTEX
8
0
6
CONTINUOUS
62
252
70
128
10
0.000000
20
0.000000
30
0.000000
71
137
72
80
73
81
0
VERTEX
8
0
6
CONTINUOUS
62
252
70
128
10
0.000000
20
0.000000
30
0.000000
71
137
72
81
73
82
0
VERTEX
8
0
6
CONTINUOUS
62
252
70
128
10
0.000000
20
0.000000
30
0.000000
71
83
72
135
73
82
0
VERTEX
8
0
6
CONTINUOUS
62
252
70
128
10
0.000000
20
0.000000
30
0.000000
71
82
72
135
73
136
0
VERTEX
8
0
6
CONTINUOUS
62
252
70
128
10
0.000000
20
0.000000
30
0.000000
71
82
72
136
73
137
0
VERTEX
8
0
6
CONTINUOUS
62
252
70
128
10
0.000000
20
0.000000
30
0.000000
71
135
72
83
73
134
0
VERTEX
8
0
6
CONTINUOUS
62
252
70
128
10
0.000000
20
0.000000
30
0.000000
71
134
72
83
73
84
0
VERTEX
8
0
6
CONTINUOUS
62
252
70
128
10
0.000000
20
0.000000
30
0.000000
71
134
72
84
73
133
0
VERTEX
8
0
6
CONTINUOUS
62
252
70
128
10
0.000000
20
0.000000
30
0.000000
71
133
72
84
73
85
0
VERTEX
8
0
6
CONTINUOUS
62
252
70
128
10
0.000000
20
0.000000
30
0.000000
71
133
72
85
73
86
0
VERTEX
8
0
6
CONTINUOUS
62
252
70
128
10
0.000000
20
0.000000
30
0.000000
71
87
72
145
73
86
0
VERTEX
8
0
6
CONTINUOUS
62
252
70
128
10
0.000000
20
0.000000
30
0.000000
71
86
72
145
73
132
0
VERTEX
8
0
6
CONTINUOUS
62
252
70
128
10
0.000000
20
0.000000
30
0.000000
71
86
72
132
73
133
0
VERTEX
8
0
6
CONTINUOUS
62
252
70
128
10
0.000000
20
0.000000
30
0.000000
71
87
72
88
73
145
0
VERTEX
8
0
6
CONTINUOUS
62
252
70
128
10
0.000000
20
0.000000
30
0.000000
71
145
72
88
73
89
0
VERTEX
8
0
6
CONTINUOUS
62
252
70
128
10
0.000000
20
0.000000
30
0.000000
71
145
72
89
73
90
0
VERTEX
8
0
6
CONTINUOUS
62
252
70
128
10
0.000000
20
0.000000
30
0.000000
71
90
72
91
73
145
0
VERTEX
8
0
6
CONTINUOUS
62
252
70
128
10
0.000000
20
0.000000
30
0.000000
71
145
72
91
73
92
0
VERTEX
8
0
6
CONTINUOUS
62
252
70
128
10
0.000000
20
0.000000
30
0.000000
71
145
72
92
73
184
0
VERTEX
8
0
6
CONTINUOUS
62
252
70
128
10
0.000000
20
0.000000
30
0.000000
71
184
72
92
73
93
0
VERTEX
8
0
6
CONTINUOUS
62
252
70
128
10
0.000000
20
0.000000
30
0.000000
71
184
72
93
73
183
0
VERTEX
8
0
6
CONTINUOUS
62
252
70
128
10
0.000000
20
0.000000
30
0.000000
71
183
72
93
73
94
0
VERTEX
8
0
6
CONTINUOUS
62
252
70
128
10
0.000000
20
0.000000
30
0.000000
71
183
72
94
73
182
0
VERTEX
8
0
6
CONTINUOUS
62
252
70
128
10
0.000000
20
0.000000
30
0.000000
71
182
72
94
73
95
0
VERTEX
8
0
6
CONTINUOUS
62
252
70
128
10
0.000000
20
0.000000
30
0.000000
71
182
72
95
73
181
0
VERTEX
8
0
6
CONTINUOUS
62
252
70
128
10
0.000000
20
0.000000
30
0.000000
71
181
72
95
73
180
0
VERTEX
8
0
6
CONTINUOUS
62
252
70
128
10
0.000000
20
0.000000
30
0.000000
71
180
72
95
73
96
0
VERTEX
8
0
6
CONTINUOUS
62
252
70
128
10
0.000000
20
0.000000
30
0.000000
71
180
72
96
73
179
0
VERTEX
8
0
6
CONTINUOUS
62
252
70
128
10
0.000000
20
0.000000
30
0.000000
71
179
72
96
73
97
0
VERTEX
8
0
6
CONTINUOUS
62
252
70
128
10
0.000000
20
0.000000
30
0.000000
71
179
72
97
73
178
0
VERTEX
8
0
6
CONTINUOUS
62
252
70
128
10
0.000000
20
0.000000
30
0.000000
71
178
72
97
73
98
0
VERTEX
8
0
6
CONTINUOUS
62
252
70
128
10
0.000000
20
0.000000
30
0.000000
71
178
72
98
73
177
0
VERTEX
8
0
6
CONTINUOUS
62
252
70
128
10
0.000000
20
0.000000
30
0.000000
71
177
72
98
73
99
0
VERTEX
8
0
6
CONTINUOUS
62
252
70
128
10
0.000000
20
0.000000
30
0.000000
71
177
72
99
73
176
0
VERTEX
8
0
6
CONTINUOUS
62
252
70
128
10
0.000000
20
0.000000
30
0.000000
71
176
72
99
73
100
0
VERTEX
8
0
6
CONTINUOUS
62
252
70
128
10
0.000000
20
0.000000
30
0.000000
71
176
72
100
73
101
0
VERTEX
8
0
6
CONTINUOUS
62
252
70
128
10
0.000000
20
0.000000
30
0.000000
71
101
72
102
73
176
0
VERTEX
8
0
6
CONTINUOUS
62
252
70
128
10
0.000000
20
0.000000
30
0.000000
71
176
72
102
73
103
0
VERTEX
8
0
6
CONTINUOUS
62
252
70
128
10
0.000000
20
0.000000
30
0.000000
71
176
72
103
73
104
0
VERTEX
8
0
6
CONTINUOUS
62
252
70
128
10
0.000000
20
0.000000
30
0.000000
71
104
72
105
73
176
0
VERTEX
8
0
6
CONTINUOUS
62
252
70
128
10
0.000000
20
0.000000
30
0.000000
71
115
72
116
73
155
0
VERTEX
8
0
6
CONTINUOUS
62
252
70
128
10
0.000000
20
0.000000
30
0.000000
71
155
72
116
73
117
0
VERTEX
8
0
6
CONTINUOUS
62
252
70
128
10
0.000000
20
0.000000
30
0.000000
71
155
72
117
73
118
0
VERTEX
8
0
6
CONTINUOUS
62
252
70
128
10
0.000000
20
0.000000
30
0.000000
71
118
72
119
73
155
0
VERTEX
8
0
6
CONTINUOUS
62
252
70
128
10
0.000000
20
0.000000
30
0.000000
71
155
72
119
73
154
0
VERTEX
8
0
6
CONTINUOUS
62
252
70
128
10
0.000000
20
0.000000
30
0.000000
71
154
72
119
73
120
0
VERTEX
8
0
6
CONTINUOUS
62
252
70
128
10
0.000000
20
0.000000
30
0.000000
71
154
72
120
73
153
0
VERTEX
8
0
6
CONTINUOUS
62
252
70
128
10
0.000000
20
0.000000
30
0.000000
71
153
72
120
73
121
0
VERTEX
8
0
6
CONTINUOUS
62
252
70
128
10
0.000000
20
0.000000
30
0.000000
71
153
72
121
73
152
0
VERTEX
8
0
6
CONTINUOUS
62
252
70
128
10
0.000000
20
0.000000
30
0.000000
71
152
72
121
73
122
0
VERTEX
8
0
6
CONTINUOUS
62
252
70
128
10
0.000000
20
0.000000
30
0.000000
71
152
72
122
73
151
0
VERTEX
8
0
6
CONTINUOUS
62
252
70
128
10
0.000000
20
0.000000
30
0.000000
71
151
72
122
73
123
0
VERTEX
8
0
6
CONTINUOUS
62
252
70
128
10
0.000000
20
0.000000
30
0.000000
71
151
72
123
73
150
0
VERTEX
8
0
6
CONTINUOUS
62
252
70
128
10
0.000000
20
0.000000
30
0.000000
71
150
72
123
73
149
0
VERTEX
8
0
6
CONTINUOUS
62
252
70
128
10
0.000000
20
0.000000
30
0.000000
71
149
72
123
73
124
0
VERTEX
8
0
6
CONTINUOUS
62
252
70
128
10
0.000000
20
0.000000
30
0.000000
71
149
72
124
73
148
0
VERTEX
8
0
6
CONTINUOUS
62
252
70
128
10
0.000000
20
0.000000
30
0.000000
71
148
72
124
73
125
0
VERTEX
8
0
6
CONTINUOUS
62
252
70
128
10
0.000000
20
0.000000
30
0.000000
71
148
72
125
73
147
0
VERTEX
8
0
6
CONTINUOUS
62
252
70
128
10
0.000000
20
0.000000
30
0.000000
71
147
72
125
73
126
0
VERTEX
8
0
6
CONTINUOUS
62
252
70
128
10
0.000000
20
0.000000
30
0.000000
71
147
72
126
73
146
0
VERTEX
8
0
6
CONTINUOUS
62
252
70
128
10
0.000000
20
0.000000
30
0.000000
71
146
72
126
73
127
0
VERTEX
8
0
6
CONTINUOUS
62
252
70
128
10
0.000000
20
0.000000
30
0.000000
71
146
72
127
73
128
0
VERTEX
8
0
6
CONTINUOUS
62
252
70
128
10
0.000000
20
0.000000
30
0.000000
71
128
72
129
73
146
0
VERTEX
8
0
6
CONTINUOUS
62
252
70
128
10
0.000000
20
0.000000
30
0.000000
71
146
72
129
73
130
0
VERTEX
8
0
6
CONTINUOUS
62
252
70
128
10
0.000000
20
0.000000
30
0.000000
71
146
72
130
73
131
0
VERTEX
8
0
6
CONTINUOUS
62
252
70
128
10
0.000000
20
0.000000
30
0.000000
71
131
72
132
73
146
0
VERTEX
8
0
6
CONTINUOUS
62
252
70
128
10
0.000000
20
0.000000
30
0.000000
71
146
72
132
73
145
0
SEQEND
0
POLYLINE
66
1
8
0
6
CONTINUOUS
62
252
70
64
75
0
10
0.000000
20
0.000000
30
0.000000
0
VERTEX
8
0
6
CONTINUOUS
62
252
70
192
10
39.000000
20
0.000000
30
30.000000
0
VERTEX
8
0
6
CONTINUOUS
62
252
70
192
10
39.000000
20
-5.209445
30
29.544233
0
VERTEX
8
0
6
CONTINUOUS
62
252
70
192
10
39.000000
20
-10.260604
30
28.190779
0
VERTEX
8
0
6
CONTINUOUS
62
252
70
192
10
39.000000
20
-15.000000
30
25.980762
0
VERTEX
8
0
6
CONTINUOUS
62
252
70
192
10
39.000000
20
-19.283628
30
22.981333
0
VERTEX
8
0
6
CONTINUOUS
62
252
70
192
10
39.000000
20
-22.981333
30
19.283628
0
VERTEX
8
0
6
CONTINUOUS
62
252
70
192
10
39.000000
20
-25.980762
30
15.000000
0
VERTEX
8
0
6
CONTINUOUS
62
252
70
192
10
39.000000
20
-28.190779
30
10.260604
0
VERTEX
8
0
6
CONTINUOUS
62
252
70
192
10
39.000000
20
-29.544233
30
5.209445
0
VERTEX
8
0
6
CONTINUOUS
62
252
70
192
10
39.000000
20
-30.000000
30
0.000000
0
VERTEX
8
0
6
CONTINUOUS
62
252
70
192
10
39.000000
20
-29.544233
30
-5.209445
0
VERTEX
8
0
6
CONTINUOUS
62
252
70
192
10
39.000000
20
-28.190779
30
-10.260604
0
VERTEX
8
0
6
CONTINUOUS
62
252
70
192
10
39.000000
20
-25.980762
30
-15.000000
0
VERTEX
8
0
6
CONTINUOUS
62
252
70
192
10
39.000000
20
-22.981333
30
-19.283628
0
VERTEX
8
0
6
CONTINUOUS
62
252
70
192
10
39.000000
20
-19.283628
30
-22.981333
0
VERTEX
8
0
6
CONTINUOUS
62
252
70
192
10
39.000000
20
-15.000000
30
-25.980762
0
VERTEX
8
0
6
CONTINUOUS
62
252
70
192
10
39.000000
20
-10.260604
30
-28.190779
0
VERTEX
8
0
6
CONTINUOUS
62
252
70
192
10
39.000000
20
-5.209445
30
-29.544233
0
VERTEX
8
0
6
CONTINUOUS
62
252
70
192
10
39.000000
20
-0.000000
30
-30.000000
0
VERTEX
8
0
6
CONTINUOUS
62
252
70
192
10
39.000000
20
5.209445
30
-29.544233
0
VERTEX
8
0
6
CONTINUOUS
62
252
70
192
10
39.000000
20
10.260604
30
-28.190779
0
VERTEX
8
0
6
CONTINUOUS
62
252
70
192
10
39.000000
20
15.000000
30
-25.980762
0
VERTEX
8
0
6
CONTINUOUS
62
252
70
192
10
39.000000
20
19.283628
30
-22.981333
0
VERTEX
8
0
6
CONTINUOUS
62
252
70
192
10
39.000000
20
22.981333
30
-19.283628
0
VERTEX
8
0
6
CONTINUOUS
62
252
70
192
10
39.000000
20
25.980762
30
-15.000000
0
VERTEX
8
0
6
CONTINUOUS
62
252
70
192
10
39.000000
20
28.190779
30
-10.260604
0
VERTEX
8
0
6
CONTINUOUS
62
252
70
192
10
39.000000
20
29.544233
30
-5.209445
0
VERTEX
8
0
6
CONTINUOUS
62
252
70
192
10
39.000000
20
30.000000
30
-0.000000
0
VERTEX
8
0
6
CONTINUOUS
62
252
70
192
10
39.000000
20
29.544233
30
5.209445
0
VERTEX
8
0
6
CONTINUOUS
62
252
70
192
10
39.000000
20
28.190779
30
10.260604
0
VERTEX
8
0
6
CONTINUOUS
62
252
70
192
10
39.000000
20
25.980762
30
15.000000
0
VERTEX
8
0
6
CONTINUOUS
62
252
70
192
10
39.000000
20
22.981333
30
19.283628
0
VERTEX
8
0
6
CONTINUOUS
62
252
70
192
10
39.000000
20
19.283628
30
22.981333
0
VERTEX
8
0
6
CONTINUOUS
62
252
70
192
10
39.000000
20
15.000000
30
25.980762
0
VERTEX
8
0
6
CONTINUOUS
62
252
70
192
10
39.000000
20
10.260604
30
28.190779
0
VERTEX
8
0
6
CONTINUOUS
62
252
70
192
10
39.000000
20
5.209445
30
29.544233
0
VERTEX
8
0
6
CONTINUOUS
62
252
70
192
10
39.000000
20
0.000000
30
29.750000
0
VERTEX
8
0
6
CONTINUOUS
62
252
70
192
10
39.000000
20
5.166033
30
29.298031
0
VERTEX
8
0
6
CONTINUOUS
62
252
70
192
10
39.000000
20
10.175099
30
27.955855
0
VERTEX
8
0
6
CONTINUOUS
62
252
70
192
10
39.000000
20
14.875000
30
25.764256
0
VERTEX
8
0
6
CONTINUOUS
62
252
70
192
10
39.000000
20
19.122931
30
22.789822
0
VERTEX
8
0
6
CONTINUOUS
62
252
70
192
10
39.000000
20
22.789822
30
19.122931
0
VERTEX
8
0
6
CONTINUOUS
62
252
70
192
10
39.000000
20
25.764256
30
14.875000
0
VERTEX
8
0
6
CONTINUOUS
62
252
70
192
10
39.000000
20
27.955855
30
10.175099
0
VERTEX
8
0
6
CONTINUOUS
62
252
70
192
10
39.000000
20
29.298031
30
5.166033
0
VERTEX
8
0
6
CONTINUOUS
62
252
70
192
10
39.000000
20
29.750000
30
-0.000000
0
VERTEX
8
0
6
CONTINUOUS
62
252
70
192
10
39.000000
20
29.298031
30
-5.166033
0
VERTEX
8
0
6
CONTINUOUS
62
252
70
192
10
39.000000
20
27.955855
30
-10.175099
0
VERTEX
8
0
6
CONTINUOUS
62
252
70
192
10
39.000000
20
25.764256
30
-14.875000
0
VERTEX
8
0
6
CONTINUOUS
62
252
70
192
10
39.000000
20
22.789822
30
-19.122931
0
VERTEX
8
0
6
CONTINUOUS
62
252
70
192
10
39.000000
20
19.122931
30
-22.789822
0
VERTEX
8
0
6
CONTINUOUS
62
252
70
192
10
39.000000
20
14.875000
30
-25.764256
0
VERTEX
8
0
6
CONTINUOUS
62
252
70
192
10
39.000000
20
10.175099
30
-27.955855
0
VERTEX
8
0
6
CONTINUOUS
62
252
70
192
10
39.000000
20
5.166033
30
-29.298031
0
VERTEX
8
0
6
CONTINUOUS
62
252
70
192
10
39.000000
20
-0.000000
30
-29.750000
0
VERTEX
8
0
6
CONTINUOUS
62
252
70
192
10
39.000000
20
-5.166033
30
-29.298031
0
VERTEX
8
0
6
CONTINUOUS
62
252
70
192
10
39.000000
20
-10.175099
30
-27.955855
0
VERTEX
8
0
6
CONTINUOUS
62
252
70
192
10
39.000000
20
-14.875000
30
-25.764256
0
VERTEX
8
0
6
CONTINUOUS
62
252
70
192
10
39.000000
20
-19.122931
30
-22.789822
0
VERTEX
8
0
6
CONTINUOUS
62
252
70
192
10
39.000000
20
-22.789822
30
-19.122931
0
VERTEX
8
0
6
CONTINUOUS
62
252
70
192
10
39.000000
20
-25.764256
30
-14.875000
0
VERTEX
8
0
6
CONTINUOUS
62
252
70
192
10
39.000000
20
-27.955855
30
-10.175099
0
VERTEX
8
0
6
CONTINUOUS
62
252
70
192
10
39.000000
20
-29.298031
30
-5.166033
0
VERTEX
8
0
6
CONTINUOUS
62
252
70
192
10
39.000000
20
-29.750000
30
0.000000
0
VERTEX
8
0
6
CONTINUOUS
62
252
70
192
10
39.000000
20
-29.298031
30
5.166033
0
VERTEX
8
0
6
CONTINUOUS
62
252
70
192
10
39.000000
20
-27.955855
30
10.175099
0
VERTEX
8
0
6
CONTINUOUS
62
252
70
192
10
39.000000
20
-25.764256
30
14.875000
0
VERTEX
8
0
6
CONTINUOUS
62
252
70
192
10
39.000000
20
-22.789822
30
19.122931
0
VERTEX
8
0
6
CONTINUOUS
62
252
70
192
10
39.000000
20
-19.122931
30
22.789822
0
VERTEX
8
0
6
CONTINUOUS
62
252
70
192
10
39.000000
20
-14.875000
30
25.764256
0
VERTEX
8
0
6
CONTINUOUS
62
252
70
192
10
39.000000
20
-10.175099
30
27.955855
0
VERTEX
8
0
6
CONTINUOUS
62
252
70
192
10
39.000000
20
-5.166033
30
29.298031
0
VERTEX
8
0
6
CONTINUOUS
62
252
70
128
10
0.000000
20
0.000000
30
0.000000
71
36
72
1
73
37
0
VERTEX
8
0
6
CONTINUOUS
62
252
70
128
10
0.000000
20
0.000000
30
0.000000
71
37
72
1
73
2
0
VERTEX
8
0
6
CONTINUOUS
62
252
70
128
10
0.000000
20
0.000000
30
0.000000
71
37
72
2
73
72
0
VERTEX
8
0
6
CONTINUOUS
62
252
70
128
10
0.000000
20
0.000000
30
0.000000
71
72
72
2
73
71
0
VERTEX
8
0
6
CONTINUOUS
62
252
70
128
10
0.000000
20
0.000000
30
0.000000
71
71
72
2
73
3
0
VERTEX
8
0
6
CONTINUOUS
62
252
70
128
10
0.000000
20
0.000000
30
0.000000
71
71
72
3
73
70
0
VERTEX
8
0
6
CONTINUOUS
62
252
70
128
10
0.000000
20
0.000000
30
0.000000
71
70
72
3
73
4
0
VERTEX
8
0
6
CONTINUOUS
62
252
70
128
10
0.000000
20
0.000000
30
0.000000
71
70
72
4
73
69
0
VERTEX
8
0
6
CONTINUOUS
62
252
70
128
10
0.000000
20
0.000000
30
0.000000
71
69
72
4
73
5
0
VERTEX
8
0
6
CONTINUOUS
62
252
70
128
10
0.000000
20
0.000000
30
0.000000
71
69
72
5
73
68
0
VERTEX
8
0
6
CONTINUOUS
62
252
70
128
10
0.000000
20
0.000000
30
0.000000
71
68
72
5
73
6
0
VERTEX
8
0
6
CONTINUOUS
62
252
70
128
10
0.000000
20
0.000000
30
0.000000
71
68
72
6
73
7
0
VERTEX
8
0
6
CONTINUOUS
62
252
70
128
10
0.000000
20
0.000000
30
0.000000
71
68
72
7
73
67
0
VERTEX
8
0
6
CONTINUOUS
62
252
70
128
10
0.000000
20
0.000000
30
0.000000
71
67
72
7
73
8
0
VERTEX
8
0
6
CONTINUOUS
62
252
70
128
10
0.000000
20
0.000000
30
0.000000
71
67
72
8
73
66
0
VERTEX
8
0
6
CONTINUOUS
62
252
70
128
10
0.000000
20
0.000000
30
0.000000
71
66
72
8
73
9
0
VERTEX
8
0
6
CONTINUOUS
62
252
70
128
10
0.000000
20
0.000000
30
0.000000
71
66
72
9
73
65
0
VERTEX
8
0
6
CONTINUOUS
62
252
70
128
10
0.000000
20
0.000000
30
0.000000
71
65
72
9
73
64
0
VERTEX
8
0
6
CONTINUOUS
62
252
70
128
10
0.000000
20
0.000000
30
0.000000
71
64
72
9
73
10
0
VERTEX
8
0
6
CONTINUOUS
62
252
70
128
10
0.000000
20
0.000000
30
0.000000
71
64
72
10
73
11
0
VERTEX
8
0
6
CONTINUOUS
62
252
70
128
10
0.000000
20
0.000000
30
0.000000
71
12
72
62
73
11
0
VERTEX
8
0
6
CONTINUOUS
62
252
70
128
10
0.000000
20
0.000000
30
0.000000
71
11
72
62
73
63
0
VERTEX
8
0
6
CONTINUOUS
62
252
70
128
10
0.000000
20
0.000000
30
0.000000
71
11
72
63
73
64
0
VERTEX
8
0
6
CONTINUOUS
62
252
70
128
10
0.000000
20
0.000000
30
0.000000
71
62
72
12
73
61
0
VERTEX
8
0
6
CONTINUOUS
62
252
70
128
10
0.000000
20
0.000000
30
0.000000
71
61
72
12
73
13
0
VERTEX
8
0
6
CONTINUOUS
62
252
70
128
10
0.000000
20
0.000000
30
0.000000
71
61
72
13
73
60
0
VERTEX
8
0
6
CONTINUOUS
62
252
70
128
10
0.000000
20
0.000000
30
0.000000
71
60
72
13
73
14
0
VERTEX
8
0
6
CONTINUOUS
62
252
70
128
10
0.000000
20
0.000000
30
0.000000
71
60
72
14
73
15
0
VERTEX
8
0
6
CONTINUOUS
62
252
70
128
10
0.000000
20
0.000000
30
0.000000
71
16
72
58
73
15
0
VERTEX
8
0
6
CONTINUOUS
62
252
70
128
10
0.000000
20
0.000000
30
0.000000
71
15
72
58
73
59
0
VERTEX
8
0
6
CONTINUOUS
62
252
70
128
10
0.000000
20
0.000000
30
0.000000
71
15
72
59
73
60
0
VERTEX
8
0
6
CONTINUOUS
62
252
70
128
10
0.000000
20
0.000000
30
0.000000
71
58
72
16
73
57
0
VERTEX
8
0
6
CONTINUOUS
62
252
70
128
10
0.000000
20
0.000000
30
0.000000
71
57
72
16
73
17
0
VERTEX
8
0
6
CONTINUOUS
62
252
70
128
10
0.000000
20
0.000000
30
0.000000
71
57
72
17
73
18
0
VERTEX
8
0
6
CONTINUOUS
62
252
70
128
10
0.000000
20
0.000000
30
0.000000
71
19
72
55
73
18
0
VERTEX
8
0
6
CONTINUOUS
62
252
70
128
10
0.000000
20
0.000000
30
0.000000
71
18
72
55
73
56
0
VERTEX
8
0
6
CONTINUOUS
62
252
70
128
10
0.000000
20
0.000000
30
0.000000
71
18
72
56
73
57
0
VERTEX
8
0
6
CONTINUOUS
62
252
70
128
10
0.000000
20
0.000000
30
0.000000
71
55
72
19
73
54
0
VERTEX
8
0
6
CONTINUOUS
62
252
70
128
10
0.000000
20
0.000000
30
0.000000
71
54
72
19
73
20
0
VERTEX
8
0
6
CONTINUOUS
62
252
70
128
10
0.000000
20
0.000000
30
0.000000
71
54
72
20
73
53
0
VERTEX
8
0
6
CONTINUOUS
62
252
70
128
10
0.000000
20
0.000000
30
0.000000
71
53
72
20
73
21
0
VERTEX
8
0
6
CONTINUOUS
62
252
70
128
10
0.000000
20
0.000000
30
0.000000
71
53
72
21
73
52
0
VERTEX
8
0
6
CONTINUOUS
62
252
70
128
10
0.000000
20
0.000000
30
0.000000
71
52
72
21
73
22
0
VERTEX
8
0
6
CONTINUOUS
62
252
70
128
10
0.000000
20
0.000000
30
0.000000
71
52
72
22
73
23
0
VERTEX
8
0
6
CONTINUOUS
62
252
70
128
10
0.000000
20
0.000000
30
0.000000
71
24
72
50
73
23
0
VERTEX
8
0
6
CONTINUOUS
62
252
70
128
10
0.000000
20
0.000000
30
0.000000
71
23
72
50
73
51
0
VERTEX
8
0
6
CONTINUOUS
62
252
70
128
10
0.000000
20
0.000000
30
0.000000
71
23
72
51
73
52
0
VERTEX
8
0
6
CONTINUOUS
62
252
70
128
10
0.000000
20
0.000000
30
0.000000
71
24
72
25
73
50
0
VERTEX
8
0
6
CONTINUOUS
62
252
70
128
10
0.000000
20
0.000000
30
0.000000
71
50
72
25
73
49
0
VERTEX
8
0
6
CONTINUOUS
62
252
70
128
10
0.000000
20
0.000000
30
0.000000
71
49
72
25
73
48
0
VERTEX
8
0
6
CONTINUOUS
62
252
70
128
10
0.000000
20
0.000000
30
0.000000
71
48
72
25
73
26
0
VERTEX
8
0
6
CONTINUOUS
62
252
70
128
10
0.000000
20
0.000000
30
0.000000
71
48
72
26
73
27
0
VERTEX
8
0
6
CONTINUOUS
62
252
70
128
10
0.000000
20
0.000000
30
0.000000
71
28
72
46
73
27
0
VERTEX
8
0
6
CONTINUOUS
62
252
70
128
10
0.000000
20
0.000000
30
0.000000
71
27
72
46
73
47
0
VERTEX
8
0
6
CONTINUOUS
62
252
70
128
10
0.000000
20
0.000000
30
0.000000
71
27
72
47
73
48
0
VERTEX
8
0
6
CONTINUOUS
62
252
70
128
10
0.000000
20
0.000000
30
0.000000
71
46
72
28
73
45
0
VERTEX
8
0
6
CONTINUOUS
62
252
70
128
10
0.000000
20
0.000000
30
0.000000
71
45
72
28
73
29
0
VERTEX
8
0
6
CONTINUOUS
62
252
70
128
10
0.000000
20
0.000000
30
0.000000
71
45
72
29
73
44
0
VERTEX
8
0
6
CONTINUOUS
62
252
70
128
10
0.000000
20
0.000000
30
0.000000
71
44
72
29
73
30
0
VERTEX
8
0
6
CONTINUOUS
62
252
70
128
10
0.000000
20
0.000000
30
0.000000
71
44
72
30
73
43
0
VERTEX
8
0
6
CONTINUOUS
62
252
70
128
10
0.000000
20
0.000000
30
0.000000
71
43
72
30
73
31
0
VERTEX
8
0
6
CONTINUOUS
62
252
70
128
10
0.000000
20
0.000000
30
0.000000
71
43
72
31
73
42
0
VERTEX
8
0
6
CONTINUOUS
62
252
70
128
10
0.000000
20
0.000000
30
0.000000
71
42
72
31
73
32
0
VERTEX
8
0
6
CONTINUOUS
62
252
70
128
10
0.000000
20
0.000000
30
0.000000
71
42
72
32
73
33
0
VERTEX
8
0
6
CONTINUOUS
62
252
70
128
10
0.000000
20
0.000000
30
0.000000
71
42
72
33
73
41
0
VERTEX
8
0
6
CONTINUOUS
62
252
70
128
10
0.000000
20
0.000000
30
0.000000
71
41
72
33
73
34
0
VERTEX
8
0
6
CONTINUOUS
62
252
70
128
10
0.000000
20
0.000000
30
0.000000
71
41
72
34
73
40
0
VERTEX
8
0
6
CONTINUOUS
62
252
70
128
10
0.000000
20
0.000000
30
0.000000
71
40
72
34
73
39
0
VERTEX
8
0
6
CONTINUOUS
62
252
70
128
10
0.000000
20
0.000000
30
0.000000
71
39
72
34
73
35
0
VERTEX
8
0
6
CONTINUOUS
62
252
70
128
10
0.000000
20
0.000000
30
0.000000
71
39
72
35
73
36
0
VERTEX
8
0
6
CONTINUOUS
62
252
70
128
10
0.000000
20
0.000000
30
0.000000
71
37
72
38
73
36
0
VERTEX
8
0
6
CONTINUOUS
62
252
70
128
10
0.000000
20
0.000000
30
0.000000
71
36
72
38
73
39
0
SEQEND
0
POLYLINE
66
1
8
0
6
CONTINUOUS
62
252
70
64
75
0
10
0.000000
20
0.000000
30
0.000000
0
VERTEX
8
0
6
CONTINUOUS
62
252
70
192
10
8.000000
20
0.000000
30
30.260000
0
VERTEX
8
0
6
CONTINUOUS
62
252
70
192
10
8.000000
20
5.254594
30
29.800283
0
VERTEX
8
0
6
CONTINUOUS
62
252
70
192
10
8.000000
20
10.349530
30
28.435099
0
VERTEX
8
0
6
CONTINUOUS
62
252
70
192
10
8.000000
20
15.130000
30
26.205929
0
VERTEX
8
0
6
CONTINUOUS
62
252
70
192
10
8.000000
20
19.450753
30
23.180505
0
VERTEX
8
0
6
CONTINUOUS
62
252
70
192
10
8.000000
20
23.180505
30
19.450753
0
VERTEX
8
0
6
CONTINUOUS
62
252
70
192
10
8.000000
20
26.205929
30
15.130000
0
VERTEX
8
0
6
CONTINUOUS
62
252
70
192
10
8.000000
20
28.435099
30
10.349530
0
VERTEX
8
0
6
CONTINUOUS
62
252
70
192
10
8.000000
20
29.800283
30
5.254594
0
VERTEX
8
0
6
CONTINUOUS
62
252
70
192
10
8.000000
20
30.260000
30
-0.000000
0
VERTEX
8
0
6
CONTINUOUS
62
252
70
192
10
8.000000
20
29.800283
30
-5.254594
0
VERTEX
8
0
6
CONTINUOUS
62
252
70
192
10
8.000000
20
28.435099
30
-10.349530
0
VERTEX
8
0
6
CONTINUOUS
62
252
70
192
10
8.000000
20
26.205929
30
-15.130000
0
VERTEX
8
0
6
CONTINUOUS
62
252
70
192
10
8.000000
20
23.180505
30
-19.450753
0
VERTEX
8
0
6
CONTINUOUS
62
252
70
192
10
8.000000
20
19.450753
30
-23.180505
0
VERTEX
8
0
6
CONTINUOUS
62
252
70
192
10
8.000000
20
15.130000
30
-26.205929
0
VERTEX
8
0
6
CONTINUOUS
62
252
70
192
10
8.000000
20
10.349530
30
-28.435099
0
VERTEX
8
0
6
CONTINUOUS
62
252
70
192
10
8.000000
20
5.254594
30
-29.800283
0
VERTEX
8
0
6
CONTINUOUS
62
252
70
192
10
8.000000
20
-0.000000
30
-30.260000
0
VERTEX
8
0
6
CONTINUOUS
62
252
70
192
10
8.000000
20
-5.254594
30
-29.800283
0
VERTEX
8
0
6
CONTINUOUS
62
252
70
192
10
8.000000
20
-10.349530
30
-28.435099
0
VERTEX
8
0
6
CONTINUOUS
62
252
70
192
10
8.000000
20
-15.130000
30
-26.205929
0
VERTEX
8
0
6
CONTINUOUS
62
252
70
192
10
8.000000
20
-19.450753
30
-23.180505
0
VERTEX
8
0
6
CONTINUOUS
62
252
70
192
10
8.000000
20
-23.180505
30
-19.450753
0
VERTEX
8
0
6
CONTINUOUS
62
252
70
192
10
8.000000
20
-26.205929
30
-15.130000
0
VERTEX
8
0
6
CONTINUOUS
62
252
70
192
10
8.000000
20
-28.435099
30
-10.349530
0
VERTEX
8
0
6
CONTINUOUS
62
252
70
192
10
8.000000
20
-29.800283
30
-5.254594
0
VERTEX
8
0
6
CONTINUOUS
62
252
70
192
10
8.000000
20
-30.260000
30
0.000000
0
VERTEX
8
0
6
CONTINUOUS
62
252
70
192
10
8.000000
20
-29.800283
30
5.254594
0
VERTEX
8
0
6
CONTINUOUS
62
252
70
192
10
8.000000
20
-28.435099
30
10.349530
0
VERTEX
8
0
6
CONTINUOUS
62
252
70
192
10
8.000000
20
-26.205929
30
15.130000
0
VERTEX
8
0
6
CONTINUOUS
62
252
70
192
10
8.000000
20
-23.180505
30
19.450753
0
VERTEX
8
0
6
CONTINUOUS
62
252
70
192
10
8.000000
20
-19.450753
30
23.180505
0
VERTEX
8
0
6
CONTINUOUS
62
252
70
192
10
8.000000
20
-15.130000
30
26.205929
0
VERTEX
8
0
6
CONTINUOUS
62
252
70
192
10
8.000000
20
-10.349530
30
28.435099
0
VERTEX
8
0
6
CONTINUOUS
62
252
70
192
10
8.000000
20
-5.254594
30
29.800283
0
VERTEX
8
0
6
CONTINUOUS
62
252
70
128
10
0.000000
20
0.000000
30
0.000000
71
2
72
18
73
1
0
VERTEX
8
0
6
CONTINUOUS
62
252
70
128
10
0.000000
20
0.000000
30
0.000000
71
1
72
18
73
19
0
VERTEX
8
0
6
CONTINUOUS
62
252
70
128
10
0.000000
20
0.000000
30
0.000000
71
1
72
19
73
36
0
VERTEX
8
0
6
CONTINUOUS
62
252
70
128
10
0.000000
20
0.000000
30
0.000000
71
36
72
19
73
35
0
VERTEX
8
0
6
CONTINUOUS
62
252
70
128
10
0.000000
20
0.000000
30
0.000000
71
35
72
19
73
20
0
VERTEX
8
0
6
CONTINUOUS
62
252
70
128
10
0.000000
20
0.000000
30
0.000000
71
35
72
20
73
21
0
VERTEX
8
0
6
CONTINUOUS
62
252
70
128
10
0.000000
20
0.000000
30
0.000000
71
3
72
15
73
2
0
VERTEX
8
0
6
CONTINUOUS
62
252
70
128
10
0.000000
20
0.000000
30
0.000000
71
2
72
15
73
16
0
VERTEX
8
0
6
CONTINUOUS
62
252
70
128
10
0.000000
20
0.000000
30
0.000000
71
2
72
16
73
17
0
VERTEX
8
0
6
CONTINUOUS
62
252
70
128
10
0.000000
20
0.000000
30
0.000000
71
3
72
4
73
15
0
VERTEX
8
0
6
CONTINUOUS
62
252
70
128
10
0.000000
20
0.000000
30
0.000000
71
15
72
4
73
5
0
VERTEX
8
0
6
CONTINUOUS
62
252
70
128
10
0.000000
20
0.000000
30
0.000000
71
15
72
5
73
14
0
VERTEX
8
0
6
CONTINUOUS
62
252
70
128
10
0.000000
20
0.000000
30
0.000000
71
14
72
5
73
13
0
VERTEX
8
0
6
CONTINUOUS
62
252
70
128
10
0.000000
20
0.000000
30
0.000000
71
13
72
5
73
6
0
VERTEX
8
0
6
CONTINUOUS
62
252
70
128
10
0.000000
20
0.000000
30
0.000000
71
13
72
6
73
7
0
VERTEX
8
0
6
CONTINUOUS
62
252
70
128
10
0.000000
20
0.000000
30
0.000000
71
7
72
8
73
13
0
VERTEX
8
0
6
CONTINUOUS
62
252
70
128
10
0.000000
20
0.000000
30
0.000000
71
13
72
8
73
12
0
VERTEX
8
0
6
CONTINUOUS
62
252
70
128
10
0.000000
20
0.000000
30
0.000000
71
12
72
8
73
11
0
VERTEX
8
0
6
CONTINUOUS
62
252
70
128
10
0.000000
20
0.000000
30
0.000000
71
11
72
8
73
10
0
VERTEX
8
0
6
CONTINUOUS
62
252
70
128
10
0.000000
20
0.000000
30
0.000000
71
10
72
8
73
9
0
VERTEX
8
0
6
CONTINUOUS
62
252
70
128
10
0.000000
20
0.000000
30
0.000000
71
17
72
18
73
2
0
VERTEX
8
0
6
CONTINUOUS
62
252
70
128
10
0.000000
20
0.000000
30
0.000000
71
22
72
33
73
21
0
VERTEX
8
0
6
CONTINUOUS
62
252
70
128
10
0.000000
20
0.000000
30
0.000000
71
21
72
33
73
34
0
VERTEX
8
0
6
CONTINUOUS
62
252
70
128
10
0.000000
20
0.000000
30
0.000000
71
21
72
34
73
35
0
VERTEX
8
0
6
CONTINUOUS
62
252
70
128
10
0.000000
20
0.000000
30
0.000000
71
22
72
23
73
33
0
VERTEX
8
0
6
CONTINUOUS
62
252
70
128
10
0.000000
20
0.000000
30
0.000000
71
33
72
23
73
24
0
VERTEX
8
0
6
CONTINUOUS
62
252
70
128
10
0.000000
20
0.000000
30
0.000000
71
33
72
24
73
32
0
VERTEX
8
0
6
CONTINUOUS
62
252
70
128
10
0.000000
20
0.000000
30
0.000000
71
32
72
24
73
25
0
VERTEX
8
0
6
CONTINUOUS
62
252
70
128
10
0.000000
20
0.000000
30
0.000000
71
32
72
25
73
31
0
VERTEX
8
0
6
CONTINUOUS
62
252
70
128
10
0.000000
20
0.000000
30
0.000000
71
31
72
25
73
30
0
VERTEX
8
0
6
CONTINUOUS
62
252
70
128
10
0.000000
20
0.000000
30
0.000000
71
30
72
25
73
29
0
VERTEX
8
0
6
CONTINUOUS
62
252
70
128
10
0.000000
20
0.000000
30
0.000000
71
29
72
25
73
26
0
VERTEX
8
0
6
CONTINUOUS
62
252
70
128
10
0.000000
20
0.000000
30
0.000000
71
29
72
26
73
28
0
VERTEX
8
0
6
CONTINUOUS
62
252
70
128
10
0.000000
20
0.000000
30
0.000000
71
28
72
26
73
27
0
SEQEND
0
POLYLINE
66
1
8
0
6
CONTINUOUS
62
252
70
64
75
0
10
0.000000
20
0.000000
30
0.000000
0
VERTEX
8
0
6
CONTINUOUS
62
252
70
192
10
39.000000
20
0.000000
30
30.000000
0
VERTEX
8
0
6
CONTINUOUS
62
252
70
192
10
39.000000
20
5.209445
30
29.544233
0
VERTEX
8
0
6
CONTINUOUS
62
252
70
192
10
39.000000
20
10.260604
30
28.190779
0
VERTEX
8
0
6
CONTINUOUS
62
252
70
192
10
39.000000
20
15.000000
30
25.980762
0
VERTEX
8
0
6
CONTINUOUS
62
252
70
192
10
39.000000
20
19.283628
30
22.981333
0
VERTEX
8
0
6
CONTINUOUS
62
252
70
192
10
39.000000
20
22.981333
30
19.283628
0
VERTEX
8
0
6
CONTINUOUS
62
252
70
192
10
39.000000
20
25.980762
30
15.000000
0
VERTEX
8
0
6
CONTINUOUS
62
252
70
192
10
39.000000
20
28.190779
30
10.260604
0
VERTEX
8
0
6
CONTINUOUS
62
252
70
192
10
39.000000
20
29.544233
30
5.209445
0
VERTEX
8
0
6
CONTINUOUS
62
252
70
192
10
39.000000
20
30.000000
30
-0.000000
0
VERTEX
8
0
6
CONTINUOUS
62
252
70
192
10
39.000000
20
29.544233
30
-5.209445
0
VERTEX
8
0
6
CONTINUOUS
62
252
70
192
10
39.000000
20
28.190779
30
-10.260604
0
VERTEX
8
0
6
CONTINUOUS
62
252
70
192
10
39.000000
20
25.980762
30
-15.000000
0
VERTEX
8
0
6
CONTINUOUS
62
252
70
192
10
39.000000
20
22.981333
30
-19.283628
0
VERTEX
8
0
6
CONTINUOUS
62
252
70
192
10
39.000000
20
19.283628
30
-22.981333
0
VERTEX
8
0
6
CONTINUOUS
62
252
70
192
10
39.000000
20
15.000000
30
-25.980762
0
VERTEX
8
0
6
CONTINUOUS
62
252
70
192
10
39.000000
20
10.260604
30
-28.190779
0
VERTEX
8
0
6
CONTINUOUS
62
252
70
192
10
39.000000
20
5.209445
30
-29.544233
0
VERTEX
8
0
6
CONTINUOUS
62
252
70
192
10
39.000000
20
-0.000000
30
-30.000000
0
VERTEX
8
0
6
CONTINUOUS
62
252
70
192
10
39.000000
20
-5.209445
30
-29.544233
0
VERTEX
8
0
6
CONTINUOUS
62
252
70
192
10
39.000000
20
-10.260604
30
-28.190779
0
VERTEX
8
0
6
CONTINUOUS
62
252
70
192
10
39.000000
20
-15.000000
30
-25.980762
0
VERTEX
8
0
6
CONTINUOUS
62
252
70
192
10
39.000000
20
-19.283628
30
-22.981333
0
VERTEX
8
0
6
CONTINUOUS
62
252
70
192
10
39.000000
20
-22.981333
30
-19.283628
0
VERTEX
8
0
6
CONTINUOUS
62
252
70
192
10
39.000000
20
-25.980762
30
-15.000000
0
VERTEX
8
0
6
CONTINUOUS
62
252
70
192
10
39.000000
20
-28.190779
30
-10.260604
0
VERTEX
8
0
6
CONTINUOUS
62
252
70
192
10
39.000000
20
-29.544233
30
-5.209445
0
VERTEX
8
0
6
CONTINUOUS
62
252
70
192
10
39.000000
20
-30.000000
30
0.000000
0
VERTEX
8
0
6
CONTINUOUS
62
252
70
192
10
39.000000
20
-29.544233
30
5.209445
0
VERTEX
8
0
6
CONTINUOUS
62
252
70
192
10
39.000000
20
-28.190779
30
10.260604
0
VERTEX
8
0
6
CONTINUOUS
62
252
70
192
10
39.000000
20
-25.980762
30
15.000000
0
VERTEX
8
0
6
CONTINUOUS
62
252
70
192
10
39.000000
20
-22.981333
30
19.283628
0
VERTEX
8
0
6
CONTINUOUS
62
252
70
192
10
39.000000
20
-19.283628
30
22.981333
0
VERTEX
8
0
6
CONTINUOUS
62
252
70
192
10
39.000000
20
-15.000000
30
25.980762
0
VERTEX
8
0
6
CONTINUOUS
62
252
70
192
10
39.000000
20
-10.260604
30
28.190779
0
VERTEX
8
0
6
CONTINUOUS
62
252
70
192
10
39.000000
20
-5.209445
30
29.544233
0
VERTEX
8
0
6
CONTINUOUS
62
252
70
192
10
8.000000
20
0.000000
30
30.260000
0
VERTEX
8
0
6
CONTINUOUS
62
252
70
192
10
8.000000
20
-5.254594
30
29.800283
0
VERTEX
8
0
6
CONTINUOUS
62
252
70
192
10
8.000000
20
-10.349530
30
28.435099
0
VERTEX
8
0
6
CONTINUOUS
62
252
70
192
10
8.000000
20
-15.130000
30
26.205929
0
VERTEX
8
0
6
CONTINUOUS
62
252
70
192
10
8.000000
20
-19.450753
30
23.180505
0
VERTEX
8
0
6
CONTINUOUS
62
252
70
192
10
8.000000
20
-23.180505
30
19.450753
0
VERTEX
8
0
6
CONTINUOUS
62
252
70
192
10
8.000000
20
-26.205929
30
15.130000
0
VERTEX
8
0
6
CONTINUOUS
62
252
70
192
10
8.000000
20
-28.435099
30
10.349530
0
VERTEX
8
0
6
CONTINUOUS
62
252
70
192
10
8.000000
20
-29.800283
30
5.254594
0
VERTEX
8
0
6
CONTINUOUS
62
252
70
192
10
8.000000
20
-30.260000
30
0.000000
0
VERTEX
8
0
6
CONTINUOUS
62
252
70
192
10
8.000000
20
-29.800283
30
-5.254594
0
VERTEX
8
0
6
CONTINUOUS
62
252
70
192
10
8.000000
20
-28.435099
30
-10.349530
0
VERTEX
8
0
6
CONTINUOUS
62
252
70
192
10
8.000000
20
-26.205929
30
-15.130000
0
VERTEX
8
0
6
CONTINUOUS
62
252
70
192
10
8.000000
20
-23.180505
30
-19.450753
0
VERTEX
8
0
6
CONTINUOUS
62
252
70
192
10
8.000000
20
-19.450753
30
-23.180505
0
VERTEX
8
0
6
CONTINUOUS
62
252
70
192
10
8.000000
20
-15.130000
30
-26.205929
0
VERTEX
8
0
6
CONTINUOUS
62
252
70
192
10
8.000000
20
-10.349530
30
-28.435099
0
VERTEX
8
0
6
CONTINUOUS
62
252
70
192
10
8.000000
20
-5.254594
30
-29.800283
0
VERTEX
8
0
6
CONTINUOUS
62
252
70
192
10
8.000000
20
-0.000000
30
-30.260000
0
VERTEX
8
0
6
CONTINUOUS
62
252
70
192
10
8.000000
20
5.254594
30
-29.800283
0
VERTEX
8
0
6
CONTINUOUS
62
252
70
192
10
8.000000
20
10.349530
30
-28.435099
0
VERTEX
8
0
6
CONTINUOUS
62
252
70
192
10
8.000000
20
15.130000
30
-26.205929
0
VERTEX
8
0
6
CONTINUOUS
62
252
70
192
10
8.000000
20
19.450753
30
-23.180505
0
VERTEX
8
0
6
CONTINUOUS
62
252
70
192
10
8.000000
20
23.180505
30
-19.450753
0
VERTEX
8
0
6
CONTINUOUS
62
252
70
192
10
8.000000
20
26.205929
30
-15.130000
0
VERTEX
8
0
6
CONTINUOUS
62
252
70
192
10
8.000000
20
28.435099
30
-10.349530
0
VERTEX
8
0
6
CONTINUOUS
62
252
70
192
10
8.000000
20
29.800283
30
-5.254594
0
VERTEX
8
0
6
CONTINUOUS
62
252
70
192
10
8.000000
20
30.260000
30
-0.000000
0
VERTEX
8
0
6
CONTINUOUS
62
252
70
192
10
8.000000
20
29.800283
30
5.254594
0
VERTEX
8
0
6
CONTINUOUS
62
252
70
192
10
8.000000
20
28.435099
30
10.349530
0
VERTEX
8
0
6
CONTINUOUS
62
252
70
192
10
8.000000
20
26.205929
30
15.130000
0
VERTEX
8
0
6
CONTINUOUS
62
252
70
192
10
8.000000
20
23.180505
30
19.450753
0
VERTEX
8
0
6
CONTINUOUS
62
252
70
192
10
8.000000
20
19.450753
30
23.180505
0
VERTEX
8
0
6
CONTINUOUS
62
252
70
192
10
8.000000
20
15.130000
30
26.205929
0
VERTEX
8
0
6
CONTINUOUS
62
252
70
192
10
8.000000
20
10.349530
30
28.435099
0
VERTEX
8
0
6
CONTINUOUS
62
252
70
192
10
8.000000
20
5.254594
30
29.800283
0
VERTEX
8
0
6
CONTINUOUS
62
252
70
128
10
0.000000
20
0.000000
30
0.000000
71
2
72
37
73
1
0
VERTEX
8
0
6
CONTINUOUS
62
252
70
128
10
0.000000
20
0.000000
30
0.000000
71
1
72
37
73
38
0
VERTEX
8
0
6
CONTINUOUS
62
252
70
128
10
0.000000
20
0.000000
30
0.000000
71
1
72
38
73
36
0
VERTEX
8
0
6
CONTINUOUS
62
252
70
128
10
0.000000
20
0.000000
30
0.000000
71
36
72
38
73
39
0
VERTEX
8
0
6
CONTINUOUS
62
252
70
128
10
0.000000
20
0.000000
30
0.000000
71
36
72
39
73
35
0
VERTEX
8
0
6
CONTINUOUS
62
252
70
128
10
0.000000
20
0.000000
30
0.000000
71
35
72
39
73
40
0
VERTEX
8
0
6
CONTINUOUS
62
252
70
128
10
0.000000
20
0.000000
30
0.000000
71
35
72
40
73
34
0
VERTEX
8
0
6
CONTINUOUS
62
252
70
128
10
0.000000
20
0.000000
30
0.000000
71
34
72
40
73
41
0
VERTEX
8
0
6
CONTINUOUS
62
252
70
128
10
0.000000
20
0.000000
30
0.000000
71
34
72
41
73
33
0
VERTEX
8
0
6
CONTINUOUS
62
252
70
128
10
0.000000
20
0.000000
30
0.000000
71
33
72
41
73
42
0
VERTEX
8
0
6
CONTINUOUS
62
252
70
128
10
0.000000
20
0.000000
30
0.000000
71
33
72
42
73
32
0
VERTEX
8
0
6
CONTINUOUS
62
252
70
128
10
0.000000
20
0.000000
30
0.000000
71
32
72
42
73
31
0
VERTEX
8
0
6
CONTINUOUS
62
252
70
128
10
0.000000
20
0.000000
30
0.000000
71
31
72
42
73
43
0
VERTEX
8
0
6
CONTINUOUS
62
252
70
128
10
0.000000
20
0.000000
30
0.000000
71
31
72
43
73
30
0
VERTEX
8
0
6
CONTINUOUS
62
252
70
128
10
0.000000
20
0.000000
30
0.000000
71
30
72
43
73
44
0
VERTEX
8
0
6
CONTINUOUS
62
252
70
128
10
0.000000
20
0.000000
30
0.000000
71
30
72
44
73
29
0
VERTEX
8
0
6
CONTINUOUS
62
252
70
128
10
0.000000
20
0.000000
30
0.000000
71
29
72
44
73
45
0
VERTEX
8
0
6
CONTINUOUS
62
252
70
128
10
0.000000
20
0.000000
30
0.000000
71
29
72
45
73
28
0
VERTEX
8
0
6
CONTINUOUS
62
252
70
128
10
0.000000
20
0.000000
30
0.000000
71
28
72
45
73
46
0
VERTEX
8
0
6
CONTINUOUS
62
252
70
128
10
0.000000
20
0.000000
30
0.000000
71
28
72
46
73
47
0
VERTEX
8
0
6
CONTINUOUS
62
252
70
128
10
0.000000
20
0.000000
30
0.000000
71
37
72
2
73
72
0
VERTEX
8
0
6
CONTINUOUS
62
252
70
128
10
0.000000
20
0.000000
30
0.000000
71
72
72
2
73
3
0
VERTEX
8
0
6
CONTINUOUS
62
252
70
128
10
0.000000
20
0.000000
30
0.000000
71
72
72
3
73
71
0
VERTEX
8
0
6
CONTINUOUS
62
252
70
128
10
0.000000
20
0.000000
30
0.000000
71
71
72
3
73
4
0
VERTEX
8
0
6
CONTINUOUS
62
252
70
128
10
0.000000
20
0.000000
30
0.000000
71
71
72
4
73
70
0
VERTEX
8
0
6
CONTINUOUS
62
252
70
128
10
0.000000
20
0.000000
30
0.000000
71
70
72
4
73
69
0
VERTEX
8
0
6
CONTINUOUS
62
252
70
128
10
0.000000
20
0.000000
30
0.000000
71
69
72
4
73
5
0
VERTEX
8
0
6
CONTINUOUS
62
252
70
128
10
0.000000
20
0.000000
30
0.000000
71
69
72
5
73
6
0
VERTEX
8
0
6
CONTINUOUS
62
252
70
128
10
0.000000
20
0.000000
30
0.000000
71
69
72
6
73
68
0
VERTEX
8
0
6
CONTINUOUS
62
252
70
128
10
0.000000
20
0.000000
30
0.000000
71
68
72
6
73
7
0
VERTEX
8
0
6
CONTINUOUS
62
252
70
128
10
0.000000
20
0.000000
30
0.000000
71
68
72
7
73
67
0
VERTEX
8
0
6
CONTINUOUS
62
252
70
128
10
0.000000
20
0.000000
30
0.000000
71
67
72
7
73
8
0
VERTEX
8
0
6
CONTINUOUS
62
252
70
128
10
0.000000
20
0.000000
30
0.000000
71
67
72
8
73
66
0
VERTEX
8
0
6
CONTINUOUS
62
252
70
128
10
0.000000
20
0.000000
30
0.000000
71
66
72
8
73
65
0
VERTEX
8
0
6
CONTINUOUS
62
252
70
128
10
0.000000
20
0.000000
30
0.000000
71
65
72
8
73
9
0
VERTEX
8
0
6
CONTINUOUS
62
252
70
128
10
0.000000
20
0.000000
30
0.000000
71
65
72
9
73
64
0
VERTEX
8
0
6
CONTINUOUS
62
252
70
128
10
0.000000
20
0.000000
30
0.000000
71
64
72
9
73
10
0
VERTEX
8
0
6
CONTINUOUS
62
252
70
128
10
0.000000
20
0.000000
30
0.000000
71
64
72
10
73
63
0
VERTEX
8
0
6
CONTINUOUS
62
252
70
128
10
0.000000
20
0.000000
30
0.000000
71
63
72
10
73
11
0
VERTEX
8
0
6
CONTINUOUS
62
252
70
128
10
0.000000
20
0.000000
30
0.000000
71
63
72
11
73
62
0
VERTEX
8
0
6
CONTINUOUS
62
252
70
128
10
0.000000
20
0.000000
30
0.000000
71
62
72
11
73
12
0
VERTEX
8
0
6
CONTINUOUS
62
252
70
128
10
0.000000
20
0.000000
30
0.000000
71
62
72
12
73
61
0
VERTEX
8
0
6
CONTINUOUS
62
252
70
128
10
0.000000
20
0.000000
30
0.000000
71
61
72
12
73
13
0
VERTEX
8
0
6
CONTINUOUS
62
252
70
128
10
0.000000
20
0.000000
30
0.000000
71
61
72
13
73
60
0
VERTEX
8
0
6
CONTINUOUS
62
252
70
128
10
0.000000
20
0.000000
30
0.000000
71
60
72
13
73
14
0
VERTEX
8
0
6
CONTINUOUS
62
252
70
128
10
0.000000
20
0.000000
30
0.000000
71
60
72
14
73
59
0
VERTEX
8
0
6
CONTINUOUS
62
252
70
128
10
0.000000
20
0.000000
30
0.000000
71
59
72
14
73
15
0
VERTEX
8
0
6
CONTINUOUS
62
252
70
128
10
0.000000
20
0.000000
30
0.000000
71
59
72
15
73
16
0
VERTEX
8
0
6
CONTINUOUS
62
252
70
128
10
0.000000
20
0.000000
30
0.000000
71
17
72
57
73
16
0
VERTEX
8
0
6
CONTINUOUS
62
252
70
128
10
0.000000
20
0.000000
30
0.000000
71
16
72
57
73
58
0
VERTEX
8
0
6
CONTINUOUS
62
252
70
128
10
0.000000
20
0.000000
30
0.000000
71
16
72
58
73
59
0
VERTEX
8
0
6
CONTINUOUS
62
252
70
128
10
0.000000
20
0.000000
30
0.000000
71
57
72
17
73
56
0
VERTEX
8
0
6
CONTINUOUS
62
252
70
128
10
0.000000
20
0.000000
30
0.000000
71
56
72
17
73
18
0
VERTEX
8
0
6
CONTINUOUS
62
252
70
128
10
0.000000
20
0.000000
30
0.000000
71
56
72
18
73
55
0
VERTEX
8
0
6
CONTINUOUS
62
252
70
128
10
0.000000
20
0.000000
30
0.000000
71
55
72
18
73
19
0
VERTEX
8
0
6
CONTINUOUS
62
252
70
128
10
0.000000
20
0.000000
30
0.000000
71
55
72
19
73
54
0
VERTEX
8
0
6
CONTINUOUS
62
252
70
128
10
0.000000
20
0.000000
30
0.000000
71
54
72
19
73
20
0
VERTEX
8
0
6
CONTINUOUS
62
252
70
128
10
0.000000
20
0.000000
30
0.000000
71
54
72
20
73
53
0
VERTEX
8
0
6
CONTINUOUS
62
252
70
128
10
0.000000
20
0.000000
30
0.000000
71
53
72
20
73
21
0
VERTEX
8
0
6
CONTINUOUS
62
252
70
128
10
0.000000
20
0.000000
30
0.000000
71
53
72
21
73
22
0
VERTEX
8
0
6
CONTINUOUS
62
252
70
128
10
0.000000
20
0.000000
30
0.000000
71
53
72
22
73
52
0
VERTEX
8
0
6
CONTINUOUS
62
252
70
128
10
0.000000
20
0.000000
30
0.000000
71
52
72
22
73
23
0
VERTEX
8
0
6
CONTINUOUS
62
252
70
128
10
0.000000
20
0.000000
30
0.000000
71
52
72
23
73
51
0
VERTEX
8
0
6
CONTINUOUS
62
252
70
128
10
0.000000
20
0.000000
30
0.000000
71
51
72
23
73
50
0
VERTEX
8
0
6
CONTINUOUS
62
252
70
128
10
0.000000
20
0.000000
30
0.000000
71
50
72
23
73
24
0
VERTEX
8
0
6
CONTINUOUS
62
252
70
128
10
0.000000
20
0.000000
30
0.000000
71
50
72
24
73
49
0
VERTEX
8
0
6
CONTINUOUS
62
252
70
128
10
0.000000
20
0.000000
30
0.000000
71
49
72
24
73
25
0
VERTEX
8
0
6
CONTINUOUS
62
252
70
128
10
0.000000
20
0.000000
30
0.000000
71
49
72
25
73
26
0
VERTEX
8
0
6
CONTINUOUS
62
252
70
128
10
0.000000
20
0.000000
30
0.000000
71
49
72
26
73
48
0
VERTEX
8
0
6
CONTINUOUS
62
252
70
128
10
0.000000
20
0.000000
30
0.000000
71
48
72
26
73
27
0
VERTEX
8
0
6
CONTINUOUS
62
252
70
128
10
0.000000
20
0.000000
30
0.000000
71
48
72
27
73
47
0
VERTEX
8
0
6
CONTINUOUS
62
252
70
128
10
0.000000
20
0.000000
30
0.000000
71
47
72
27
73
28
0
SEQEND
0
POLYLINE
66
1
8
0
6
CONTINUOUS
62
252
70
64
75
0
10
0.000000
20
0.000000
30
0.000000
0
VERTEX
8
0
6
CONTINUOUS
62
252
70
192
10
44.000000
20
0.000000
30
29.750000
0
VERTEX
8
0
6
CONTINUOUS
62
252
70
192
10
44.000000
20
5.166033
30
29.298031
0
VERTEX
8
0
6
CONTINUOUS
62
252
70
192
10
44.000000
20
10.175099
30
27.955855
0
VERTEX
8
0
6
CONTINUOUS
62
252
70
192
10
44.000000
20
14.875000
30
25.764256
0
VERTEX
8
0
6
CONTINUOUS
62
252
70
192
10
44.000000
20
19.122931
30
22.789822
0
VERTEX
8
0
6
CONTINUOUS
62
252
70
192
10
44.000000
20
22.789822
30
19.122931
0
VERTEX
8
0
6
CONTINUOUS
62
252
70
192
10
44.000000
20
25.764256
30
14.875000
0
VERTEX
8
0
6
CONTINUOUS
62
252
70
192
10
44.000000
20
27.955855
30
10.175099
0
VERTEX
8
0
6
CONTINUOUS
62
252
70
192
10
44.000000
20
29.298031
30
5.166033
0
VERTEX
8
0
6
CONTINUOUS
62
252
70
192
10
44.000000
20
29.750000
30
-0.000000
0
VERTEX
8
0
6
CONTINUOUS
62
252
70
192
10
44.000000
20
29.298031
30
-5.166033
0
VERTEX
8
0
6
CONTINUOUS
62
252
70
192
10
44.000000
20
27.955855
30
-10.175099
0
VERTEX
8
0
6
CONTINUOUS
62
252
70
192
10
44.000000
20
25.764256
30
-14.875000
0
VERTEX
8
0
6
CONTINUOUS
62
252
70
192
10
44.000000
20
22.789822
30
-19.122931
0
VERTEX
8
0
6
CONTINUOUS
62
252
70
192
10
44.000000
20
19.122931
30
-22.789822
0
VERTEX
8
0
6
CONTINUOUS
62
252
70
192
10
44.000000
20
14.875000
30
-25.764256
0
VERTEX
8
0
6
CONTINUOUS
62
252
70
192
10
44.000000
20
10.175099
30
-27.955855
0
VERTEX
8
0
6
CONTINUOUS
62
252
70
192
10
44.000000
20
5.166033
30
-29.298031
0
VERTEX
8
0
6
CONTINUOUS
62
252
70
192
10
44.000000
20
-0.000000
30
-29.750000
0
VERTEX
8
0
6
CONTINUOUS
62
252
70
192
10
44.000000
20
-5.166033
30
-29.298031
0
VERTEX
8
0
6
CONTINUOUS
62
252
70
192
10
44.000000
20
-10.175099
30
-27.955855
0
VERTEX
8
0
6
CONTINUOUS
62
252
70
192
10
44.000000
20
-14.875000
30
-25.764256
0
VERTEX
8
0
6
CONTINUOUS
62
252
70
192
10
44.000000
20
-19.122931
30
-22.789822
0
VERTEX
8
0
6
CONTINUOUS
62
252
70
192
10
44.000000
20
-22.789822
30
-19.122931
0
VERTEX
8
0
6
CONTINUOUS
62
252
70
192
10
44.000000
20
-25.764256
30
-14.875000
0
VERTEX
8
0
6
CONTINUOUS
62
252
70
192
10
44.000000
20
-27.955855
30
-10.175099
0
VERTEX
8
0
6
CONTINUOUS
62
252
70
192
10
44.000000
20
-29.298031
30
-5.166033
0
VERTEX
8
0
6
CONTINUOUS
62
252
70
192
10
44.000000
20
-29.750000
30
0.000000
0
VERTEX
8
0
6
CONTINUOUS
62
252
70
192
10
44.000000
20
-29.298031
30
5.166033
0
VERTEX
8
0
6
CONTINUOUS
62
252
70
192
10
44.000000
20
-27.955855
30
10.175099
0
VERTEX
8
0
6
CONTINUOUS
62
252
70
192
10
44.000000
20
-25.764256
30
14.875000
0
VERTEX
8
0
6
CONTINUOUS
62
252
70
192
10
44.000000
20
-22.789822
30
19.122931
0
VERTEX
8
0
6
CONTINUOUS
62
252
70
192
10
44.000000
20
-19.122931
30
22.789822
0
VERTEX
8
0
6
CONTINUOUS
62
252
70
192
10
44.000000
20
-14.875000
30
25.764256
0
VERTEX
8
0
6
CONTINUOUS
62
252
70
192
10
44.000000
20
-10.175099
30
27.955855
0
VERTEX
8
0
6
CONTINUOUS
62
252
70
192
10
44.000000
20
-5.166033
30
29.298031
0
VERTEX
8
0
6
CONTINUOUS
62
252
70
192
10
39.000000
20
0.000000
30
29.750000
0
VERTEX
8
0
6
CONTINUOUS
62
252
70
192
10
39.000000
20
-5.166033
30
29.298031
0
VERTEX
8
0
6
CONTINUOUS
62
252
70
192
10
39.000000
20
-10.175099
30
27.955855
0
VERTEX
8
0
6
CONTINUOUS
62
252
70
192
10
39.000000
20
-14.875000
30
25.764256
0
VERTEX
8
0
6
CONTINUOUS
62
252
70
192
10
39.000000
20
-19.122931
30
22.789822
0
VERTEX
8
0
6
CONTINUOUS
62
252
70
192
10
39.000000
20
-22.789822
30
19.122931
0
VERTEX
8
0
6
CONTINUOUS
62
252
70
192
10
39.000000
20
-25.764256
30
14.875000
0
VERTEX
8
0
6
CONTINUOUS
62
252
70
192
10
39.000000
20
-27.955855
30
10.175099
0
VERTEX
8
0
6
CONTINUOUS
62
252
70
192
10
39.000000
20
-29.298031
30
5.166033
0
VERTEX
8
0
6
CONTINUOUS
62
252
70
192
10
39.000000
20
-29.750000
30
0.000000
0
VERTEX
8
0
6
CONTINUOUS
62
252
70
192
10
39.000000
20
-29.298031
30
-5.166033
0
VERTEX
8
0
6
CONTINUOUS
62
252
70
192
10
39.000000
20
-27.955855
30
-10.175099
0
VERTEX
8
0
6
CONTINUOUS
62
252
70
192
10
39.000000
20
-25.764256
30
-14.875000
0
VERTEX
8
0
6
CONTINUOUS
62
252
70
192
10
39.000000
20
-22.789822
30
-19.122931
0
VERTEX
8
0
6
CONTINUOUS
62
252
70
192
10
39.000000
20
-19.122931
30
-22.789822
0
VERTEX
8
0
6
CONTINUOUS
62
252
70
192
10
39.000000
20
-14.875000
30
-25.764256
0
VERTEX
8
0
6
CONTINUOUS
62
252
70
192
10
39.000000
20
-10.175099
30
-27.955855
0
VERTEX
8
0
6
CONTINUOUS
62
252
70
192
10
39.000000
20
-5.166033
30
-29.298031
0
VERTEX
8
0
6
CONTINUOUS
62
252
70
192
10
39.000000
20
-0.000000
30
-29.750000
0
VERTEX
8
0
6
CONTINUOUS
62
252
70
192
10
39.000000
20
5.166033
30
-29.298031
0
VERTEX
8
0
6
CONTINUOUS
62
252
70
192
10
39.000000
20
10.175099
30
-27.955855
0
VERTEX
8
0
6
CONTINUOUS
62
252
70
192
10
39.000000
20
14.875000
30
-25.764256
0
VERTEX
8
0
6
CONTINUOUS
62
252
70
192
10
39.000000
20
19.122931
30
-22.789822
0
VERTEX
8
0
6
CONTINUOUS
62
252
70
192
10
39.000000
20
22.789822
30
-19.122931
0
VERTEX
8
0
6
CONTINUOUS
62
252
70
192
10
39.000000
20
25.764256
30
-14.875000
0
VERTEX
8
0
6
CONTINUOUS
62
252
70
192
10
39.000000
20
27.955855
30
-10.175099
0
VERTEX
8
0
6
CONTINUOUS
62
252
70
192
10
39.000000
20
29.298031
30
-5.166033
0
VERTEX
8
0
6
CONTINUOUS
62
252
70
192
10
39.000000
20
29.750000
30
-0.000000
0
VERTEX
8
0
6
CONTINUOUS
62
252
70
192
10
39.000000
20
29.298031
30
5.166033
0
VERTEX
8
0
6
CONTINUOUS
62
252
70
192
10
39.000000
20
27.955855
30
10.175099
0
VERTEX
8
0
6
CONTINUOUS
62
252
70
192
10
39.000000
20
25.764256
30
14.875000
0
VERTEX
8
0
6
CONTINUOUS
62
252
70
192
10
39.000000
20
22.789822
30
19.122931
0
VERTEX
8
0
6
CONTINUOUS
62
252
70
192
10
39.000000
20
19.122931
30
22.789822
0
VERTEX
8
0
6
CONTINUOUS
62
252
70
192
10
39.000000
20
14.875000
30
25.764256
0
VERTEX
8
0
6
CONTINUOUS
62
252
70
192
10
39.000000
20
10.175099
30
27.955855
0
VERTEX
8
0
6
CONTINUOUS
62
252
70
192
10
39.000000
20
5.166033
30
29.298031
0
VERTEX
8
0
6
CONTINUOUS
62
252
70
128
10
0.000000
20
0.000000
30
0.000000
71
2
72
37
73
1
0
VERTEX
8
0
6
CONTINUOUS
62
252
70
128
10
0.000000
20
0.000000
30
0.000000
71
1
72
37
73
38
0
VERTEX
8
0
6
CONTINUOUS
62
252
70
128
10
0.000000
20
0.000000
30
0.000000
71
1
72
38
73
36
0
VERTEX
8
0
6
CONTINUOUS
62
252
70
128
10
0.000000
20
0.000000
30
0.000000
71
36
72
38
73
39
0
VERTEX
8
0
6
CONTINUOUS
62
252
70
128
10
0.000000
20
0.000000
30
0.000000
71
36
72
39
73
35
0
VERTEX
8
0
6
CONTINUOUS
62
252
70
128
10
0.000000
20
0.000000
30
0.000000
71
35
72
39
73
34
0
VERTEX
8
0
6
CONTINUOUS
62
252
70
128
10
0.000000
20
0.000000
30
0.000000
71
34
72
39
73
40
0
VERTEX
8
0
6
CONTINUOUS
62
252
70
128
10
0.000000
20
0.000000
30
0.000000
71
34
72
40
73
33
0
VERTEX
8
0
6
CONTINUOUS
62
252
70
128
10
0.000000
20
0.000000
30
0.000000
71
33
72
40
73
41
0
VERTEX
8
0
6
CONTINUOUS
62
252
70
128
10
0.000000
20
0.000000
30
0.000000
71
33
72
41
73
32
0
VERTEX
8
0
6
CONTINUOUS
62
252
70
128
10
0.000000
20
0.000000
30
0.000000
71
32
72
41
73
42
0
VERTEX
8
0
6
CONTINUOUS
62
252
70
128
10
0.000000
20
0.000000
30
0.000000
71
32
72
42
73
31
0
VERTEX
8
0
6
CONTINUOUS
62
252
70
128
10
0.000000
20
0.000000
30
0.000000
71
31
72
42
73
43
0
VERTEX
8
0
6
CONTINUOUS
62
252
70
128
10
0.000000
20
0.000000
30
0.000000
71
31
72
43
73
30
0
VERTEX
8
0
6
CONTINUOUS
62
252
70
128
10
0.000000
20
0.000000
30
0.000000
71
30
72
43
73
44
0
VERTEX
8
0
6
CONTINUOUS
62
252
70
128
10
0.000000
20
0.000000
30
0.000000
71
30
72
44
73
29
0
VERTEX
8
0
6
CONTINUOUS
62
252
70
128
10
0.000000
20
0.000000
30
0.000000
71
29
72
44
73
45
0
VERTEX
8
0
6
CONTINUOUS
62
252
70
128
10
0.000000
20
0.000000
30
0.000000
71
29
72
45
73
28
0
VERTEX
8
0
6
CONTINUOUS
62
252
70
128
10
0.000000
20
0.000000
30
0.000000
71
28
72
45
73
46
0
VERTEX
8
0
6
CONTINUOUS
62
252
70
128
10
0.000000
20
0.000000
30
0.000000
71
28
72
46
73
27
0
VERTEX
8
0
6
CONTINUOUS
62
252
70
128
10
0.000000
20
0.000000
30
0.000000
71
27
72
46
73
47
0
VERTEX
8
0
6
CONTINUOUS
62
252
70
128
10
0.000000
20
0.000000
30
0.000000
71
27
72
47
73
26
0
VERTEX
8
0
6
CONTINUOUS
62
252
70
128
10
0.000000
20
0.000000
30
0.000000
71
26
72
47
73
48
0
VERTEX
8
0
6
CONTINUOUS
62
252
70
128
10
0.000000
20
0.000000
30
0.000000
71
26
72
48
73
25
0
VERTEX
8
0
6
CONTINUOUS
62
252
70
128
10
0.000000
20
0.000000
30
0.000000
71
25
72
48
73
49
0
VERTEX
8
0
6
CONTINUOUS
62
252
70
128
10
0.000000
20
0.000000
30
0.000000
71
25
72
49
73
24
0
VERTEX
8
0
6
CONTINUOUS
62
252
70
128
10
0.000000
20
0.000000
30
0.000000
71
24
72
49
73
50
0
VERTEX
8
0
6
CONTINUOUS
62
252
70
128
10
0.000000
20
0.000000
30
0.000000
71
24
72
50
73
23
0
VERTEX
8
0
6
CONTINUOUS
62
252
70
128
10
0.000000
20
0.000000
30
0.000000
71
23
72
50
73
51
0
VERTEX
8
0
6
CONTINUOUS
62
252
70
128
10
0.000000
20
0.000000
30
0.000000
71
23
72
51
73
22
0
VERTEX
8
0
6
CONTINUOUS
62
252
70
128
10
0.000000
20
0.000000
30
0.000000
71
22
72
51
73
52
0
VERTEX
8
0
6
CONTINUOUS
62
252
70
128
10
0.000000
20
0.000000
30
0.000000
71
22
72
52
73
21
0
VERTEX
8
0
6
CONTINUOUS
62
252
70
128
10
0.000000
20
0.000000
30
0.000000
71
21
72
52
73
53
0
VERTEX
8
0
6
CONTINUOUS
62
252
70
128
10
0.000000
20
0.000000
30
0.000000
71
21
72
53
73
20
0
VERTEX
8
0
6
CONTINUOUS
62
252
70
128
10
0.000000
20
0.000000
30
0.000000
71
20
72
53
73
54
0
VERTEX
8
0
6
CONTINUOUS
62
252
70
128
10
0.000000
20
0.000000
30
0.000000
71
20
72
54
73
19
0
VERTEX
8
0
6
CONTINUOUS
62
252
70
128
10
0.000000
20
0.000000
30
0.000000
71
19
72
54
73
55
0
VERTEX
8
0
6
CONTINUOUS
62
252
70
128
10
0.000000
20
0.000000
30
0.000000
71
19
72
55
73
18
0
VERTEX
8
0
6
CONTINUOUS
62
252
70
128
10
0.000000
20
0.000000
30
0.000000
71
18
72
55
73
56
0
VERTEX
8
0
6
CONTINUOUS
62
252
70
128
10
0.000000
20
0.000000
30
0.000000
71
18
72
56
73
17
0
VERTEX
8
0
6
CONTINUOUS
62
252
70
128
10
0.000000
20
0.000000
30
0.000000
71
17
72
56
73
57
0
VERTEX
8
0
6
CONTINUOUS
62
252
70
128
10
0.000000
20
0.000000
30
0.000000
71
17
72
57
73
16
0
VERTEX
8
0
6
CONTINUOUS
62
252
70
128
10
0.000000
20
0.000000
30
0.000000
71
16
72
57
73
58
0
VERTEX
8
0
6
CONTINUOUS
62
252
70
128
10
0.000000
20
0.000000
30
0.000000
71
16
72
58
73
15
0
VERTEX
8
0
6
CONTINUOUS
62
252
70
128
10
0.000000
20
0.000000
30
0.000000
71
15
72
58
73
59
0
VERTEX
8
0
6
CONTINUOUS
62
252
70
128
10
0.000000
20
0.000000
30
0.000000
71
15
72
59
73
14
0
VERTEX
8
0
6
CONTINUOUS
62
252
70
128
10
0.000000
20
0.000000
30
0.000000
71
14
72
59
73
60
0
VERTEX
8
0
6
CONTINUOUS
62
252
70
128
10
0.000000
20
0.000000
30
0.000000
71
14
72
60
73
13
0
VERTEX
8
0
6
CONTINUOUS
62
252
70
128
10
0.000000
20
0.000000
30
0.000000
71
13
72
60
73
61
0
VERTEX
8
0
6
CONTINUOUS
62
252
70
128
10
0.000000
20
0.000000
30
0.000000
71
13
72
61
73
12
0
VERTEX
8
0
6
CONTINUOUS
62
252
70
128
10
0.000000
20
0.000000
30
0.000000
71
12
72
61
73
62
0
VERTEX
8
0
6
CONTINUOUS
62
252
70
128
10
0.000000
20
0.000000
30
0.000000
71
12
72
62
73
11
0
VERTEX
8
0
6
CONTINUOUS
62
252
70
128
10
0.000000
20
0.000000
30
0.000000
71
11
72
62
73
63
0
VERTEX
8
0
6
CONTINUOUS
62
252
70
128
10
0.000000
20
0.000000
30
0.000000
71
11
72
63
73
10
0
VERTEX
8
0
6
CONTINUOUS
62
252
70
128
10
0.000000
20
0.000000
30
0.000000
71
10
72
63
73
64
0
VERTEX
8
0
6
CONTINUOUS
62
252
70
128
10
0.000000
20
0.000000
30
0.000000
71
10
72
64
73
9
0
VERTEX
8
0
6
CONTINUOUS
62
252
70
128
10
0.000000
20
0.000000
30
0.000000
71
9
72
64
73
65
0
VERTEX
8
0
6
CONTINUOUS
62
252
70
128
10
0.000000
20
0.000000
30
0.000000
71
9
72
65
73
8
0
VERTEX
8
0
6
CONTINUOUS
62
252
70
128
10
0.000000
20
0.000000
30
0.000000
71
8
72
65
73
66
0
VERTEX
8
0
6
CONTINUOUS
62
252
70
128
10
0.000000
20
0.000000
30
0.000000
71
8
72
66
73
7
0
VERTEX
8
0
6
CONTINUOUS
62
252
70
128
10
0.000000
20
0.000000
30
0.000000
71
7
72
66
73
67
0
VERTEX
8
0
6
CONTINUOUS
62
252
70
128
10
0.000000
20
0.000000
30
0.000000
71
7
72
67
73
6
0
VERTEX
8
0
6
CONTINUOUS
62
252
70
128
10
0.000000
20
0.000000
30
0.000000
71
6
72
67
73
68
0
VERTEX
8
0
6
CONTINUOUS
62
252
70
128
10
0.000000
20
0.000000
30
0.000000
71
6
72
68
73
5
0
VERTEX
8
0
6
CONTINUOUS
62
252
70
128
10
0.000000
20
0.000000
30
0.000000
71
5
72
68
73
69
0
VERTEX
8
0
6
CONTINUOUS
62
252
70
128
10
0.000000
20
0.000000
30
0.000000
71
5
72
69
73
4
0
VERTEX
8
0
6
CONTINUOUS
62
252
70
128
10
0.000000
20
0.000000
30
0.000000
71
4
72
69
73
70
0
VERTEX
8
0
6
CONTINUOUS
62
252
70
128
10
0.000000
20
0.000000
30
0.000000
71
4
72
70
73
3
0
VERTEX
8
0
6
CONTINUOUS
62
252
70
128
10
0.000000
20
0.000000
30
0.000000
71
3
72
70
73
71
0
VERTEX
8
0
6
CONTINUOUS
62
252
70
128
10
0.000000
20
0.000000
30
0.000000
71
3
72
71
73
2
0
VERTEX
8
0
6
CONTINUOUS
62
252
70
128
10
0.000000
20
0.000000
30
0.000000
71
2
72
71
73
72
0
VERTEX
8
0
6
CONTINUOUS
62
252
70
128
10
0.000000
20
0.000000
30
0.000000
71
2
72
72
73
37
0
SEQEND
0
POLYLINE
66
1
8
0
6
CONTINUOUS
62
252
70
64
75
0
10
0.000000
20
0.000000
30
0.000000
0
VERTEX
8
0
6
CONTINUOUS
62
252
70
192
10
47.000000
20
0.000000
30
26.750000
0
VERTEX
8
0
6
CONTINUOUS
62
252
70
192
10
47.000000
20
4.645089
30
26.343607
0
VERTEX
8
0
6
CONTINUOUS
62
252
70
192
10
47.000000
20
9.149039
30
25.136778
0
VERTEX
8
0
6
CONTINUOUS
62
252
70
192
10
47.000000
20
13.375000
30
23.166180
0
VERTEX
8
0
6
CONTINUOUS
62
252
70
192
10
47.000000
20
17.194569
30
20.491689
0
VERTEX
8
0
6
CONTINUOUS
62
252
70
192
10
47.000000
20
20.491689
30
17.194569
0
VERTEX
8
0
6
CONTINUOUS
62
252
70
192
10
47.000000
20
23.166180
30
13.375000
0
VERTEX
8
0
6
CONTINUOUS
62
252
70
192
10
47.000000
20
25.136778
30
9.149039
0
VERTEX
8
0
6
CONTINUOUS
62
252
70
192
10
47.000000
20
26.343607
30
4.645089
0
VERTEX
8
0
6
CONTINUOUS
62
252
70
192
10
47.000000
20
26.750000
30
-0.000000
0
VERTEX
8
0
6
CONTINUOUS
62
252
70
192
10
47.000000
20
26.343607
30
-4.645089
0
VERTEX
8
0
6
CONTINUOUS
62
252
70
192
10
47.000000
20
25.136778
30
-9.149039
0
VERTEX
8
0
6
CONTINUOUS
62
252
70
192
10
47.000000
20
23.166180
30
-13.375000
0
VERTEX
8
0
6
CONTINUOUS
62
252
70
192
10
47.000000
20
20.491689
30
-17.194569
0
VERTEX
8
0
6
CONTINUOUS
62
252
70
192
10
47.000000
20
17.194569
30
-20.491689
0
VERTEX
8
0
6
CONTINUOUS
62
252
70
192
10
47.000000
20
13.375000
30
-23.166180
0
VERTEX
8
0
6
CONTINUOUS
62
252
70
192
10
47.000000
20
9.149039
30
-25.136778
0
VERTEX
8
0
6
CONTINUOUS
62
252
70
192
10
47.000000
20
4.645089
30
-26.343607
0
VERTEX
8
0
6
CONTINUOUS
62
252
70
192
10
47.000000
20
-0.000000
30
-26.750000
0
VERTEX
8
0
6
CONTINUOUS
62
252
70
192
10
47.000000
20
-4.645089
30
-26.343607
0
VERTEX
8
0
6
CONTINUOUS
62
252
70
192
10
47.000000
20
-9.149039
30
-25.136778
0
VERTEX
8
0
6
CONTINUOUS
62
252
70
192
10
47.000000
20
-13.375000
30
-23.166180
0
VERTEX
8
0
6
CONTINUOUS
62
252
70
192
10
47.000000
20
-17.194569
30
-20.491689
0
VERTEX
8
0
6
CONTINUOUS
62
252
70
192
10
47.000000
20
-20.491689
30
-17.194569
0
VERTEX
8
0
6
CONTINUOUS
62
252
70
192
10
47.000000
20
-23.166180
30
-13.375000
0
VERTEX
8
0
6
CONTINUOUS
62
252
70
192
10
47.000000
20
-25.136778
30
-9.149039
0
VERTEX
8
0
6
CONTINUOUS
62
252
70
192
10
47.000000
20
-26.343607
30
-4.645089
0
VERTEX
8
0
6
CONTINUOUS
62
252
70
192
10
47.000000
20
-26.750000
30
0.000000
0
VERTEX
8
0
6
CONTINUOUS
62
252
70
192
10
47.000000
20
-26.343607
30
4.645089
0
VERTEX
8
0
6
CONTINUOUS
62
252
70
192
10
47.000000
20
-25.136778
30
9.149039
0
VERTEX
8
0
6
CONTINUOUS
62
252
70
192
10
47.000000
20
-23.166180
30
13.375000
0
VERTEX
8
0
6
CONTINUOUS
62
252
70
192
10
47.000000
20
-20.491689
30
17.194569
0
VERTEX
8
0
6
CONTINUOUS
62
252
70
192
10
47.000000
20
-17.194569
30
20.491689
0
VERTEX
8
0
6
CONTINUOUS
62
252
70
192
10
47.000000
20
-13.375000
30
23.166180
0
VERTEX
8
0
6
CONTINUOUS
62
252
70
192
10
47.000000
20
-9.149039
30
25.136778
0
VERTEX
8
0
6
CONTINUOUS
62
252
70
192
10
47.000000
20
-4.645089
30
26.343607
0
VERTEX
8
0
6
CONTINUOUS
62
252
70
192
10
44.000000
20
0.000000
30
29.750000
0
VERTEX
8
0
6
CONTINUOUS
62
252
70
192
10
44.000000
20
-5.166033
30
29.298031
0
VERTEX
8
0
6
CONTINUOUS
62
252
70
192
10
44.000000
20
-10.175099
30
27.955855
0
VERTEX
8
0
6
CONTINUOUS
62
252
70
192
10
44.000000
20
-14.875000
30
25.764256
0
VERTEX
8
0
6
CONTINUOUS
62
252
70
192
10
44.000000
20
-19.122931
30
22.789822
0
VERTEX
8
0
6
CONTINUOUS
62
252
70
192
10
44.000000
20
-22.789822
30
19.122931
0
VERTEX
8
0
6
CONTINUOUS
62
252
70
192
10
44.000000
20
-25.764256
30
14.875000
0
VERTEX
8
0
6
CONTINUOUS
62
252
70
192
10
44.000000
20
-27.955855
30
10.175099
0
VERTEX
8
0
6
CONTINUOUS
62
252
70
192
10
44.000000
20
-29.298031
30
5.166033
0
VERTEX
8
0
6
CONTINUOUS
62
252
70
192
10
44.000000
20
-29.750000
30
0.000000
0
VERTEX
8
0
6
CONTINUOUS
62
252
70
192
10
44.000000
20
-29.298031
30
-5.166033
0
VERTEX
8
0
6
CONTINUOUS
62
252
70
192
10
44.000000
20
-27.955855
30
-10.175099
0
VERTEX
8
0
6
CONTINUOUS
62
252
70
192
10
44.000000
20
-25.764256
30
-14.875000
0
VERTEX
8
0
6
CONTINUOUS
62
252
70
192
10
44.000000
20
-22.789822
30
-19.122931
0
VERTEX
8
0
6
CONTINUOUS
62
252
70
192
10
44.000000
20
-19.122931
30
-22.789822
0
VERTEX
8
0
6
CONTINUOUS
62
252
70
192
10
44.000000
20
-14.875000
30
-25.764256
0
VERTEX
8
0
6
CONTINUOUS
62
252
70
192
10
44.000000
20
-10.175099
30
-27.955855
0
VERTEX
8
0
6
CONTINUOUS
62
252
70
192
10
44.000000
20
-5.166033
30
-29.298031
0
VERTEX
8
0
6
CONTINUOUS
62
252
70
192
10
44.000000
20
-0.000000
30
-29.750000
0
VERTEX
8
0
6
CONTINUOUS
62
252
70
192
10
44.000000
20
5.166033
30
-29.298031
0
VERTEX
8
0
6
CONTINUOUS
62
252
70
192
10
44.000000
20
10.175099
30
-27.955855
0
VERTEX
8
0
6
CONTINUOUS
62
252
70
192
10
44.000000
20
14.875000
30
-25.764256
0
VERTEX
8
0
6
CONTINUOUS
62
252
70
192
10
44.000000
20
19.122931
30
-22.789822
0
VERTEX
8
0
6
CONTINUOUS
62
252
70
192
10
44.000000
20
22.789822
30
-19.122931
0
VERTEX
8
0
6
CONTINUOUS
62
252
70
192
10
44.000000
20
25.764256
30
-14.875000
0
VERTEX
8
0
6
CONTINUOUS
62
252
70
192
10
44.000000
20
27.955855
30
-10.175099
0
VERTEX
8
0
6
CONTINUOUS
62
252
70
192
10
44.000000
20
29.298031
30
-5.166033
0
VERTEX
8
0
6
CONTINUOUS
62
252
70
192
10
44.000000
20
29.750000
30
-0.000000
0
VERTEX
8
0
6
CONTINUOUS
62
252
70
192
10
44.000000
20
29.298031
30
5.166033
0
VERTEX
8
0
6
CONTINUOUS
62
252
70
192
10
44.000000
20
27.955855
30
10.175099
0
VERTEX
8
0
6
CONTINUOUS
62
252
70
192
10
44.000000
20
25.764256
30
14.875000
0
VERTEX
8
0
6
CONTINUOUS
62
252
70
192
10
44.000000
20
22.789822
30
19.122931
0
VERTEX
8
0
6
CONTINUOUS
62
252
70
192
10
44.000000
20
19.122931
30
22.789822
0
VERTEX
8
0
6
CONTINUOUS
62
252
70
192
10
44.000000
20
14.875000
30
25.764256
0
VERTEX
8
0
6
CONTINUOUS
62
252
70
192
10
44.000000
20
10.175099
30
27.955855
0
VERTEX
8
0
6
CONTINUOUS
62
252
70
192
10
44.000000
20
5.166033
30
29.298031
0
VERTEX
8
0
6
CONTINUOUS
62
252
70
128
10
0.000000
20
0.000000
30
0.000000
71
2
72
72
73
1
0
VERTEX
8
0
6
CONTINUOUS
62
252
70
128
10
0.000000
20
0.000000
30
0.000000
71
1
72
72
73
37
0
VERTEX
8
0
6
CONTINUOUS
62
252
70
128
10
0.000000
20
0.000000
30
0.000000
71
1
72
37
73
38
0
VERTEX
8
0
6
CONTINUOUS
62
252
70
128
10
0.000000
20
0.000000
30
0.000000
71
72
72
2
73
71
0
VERTEX
8
0
6
CONTINUOUS
62
252
70
128
10
0.000000
20
0.000000
30
0.000000
71
71
72
2
73
3
0
VERTEX
8
0
6
CONTINUOUS
62
252
70
128
10
0.000000
20
0.000000
30
0.000000
71
71
72
3
73
70
0
VERTEX
8
0
6
CONTINUOUS
62
252
70
128
10
0.000000
20
0.000000
30
0.000000
71
70
72
3
73
4
0
VERTEX
8
0
6
CONTINUOUS
62
252
70
128
10
0.000000
20
0.000000
30
0.000000
71
70
72
4
73
69
0
VERTEX
8
0
6
CONTINUOUS
62
252
70
128
10
0.000000
20
0.000000
30
0.000000
71
69
72
4
73
5
0
VERTEX
8
0
6
CONTINUOUS
62
252
70
128
10
0.000000
20
0.000000
30
0.000000
71
69
72
5
73
68
0
VERTEX
8
0
6
CONTINUOUS
62
252
70
128
10
0.000000
20
0.000000
30
0.000000
71
68
72
5
73
6
0
VERTEX
8
0
6
CONTINUOUS
62
252
70
128
10
0.000000
20
0.000000
30
0.000000
71
68
72
6
73
7
0
VERTEX
8
0
6
CONTINUOUS
62
252
70
128
10
0.000000
20
0.000000
30
0.000000
71
8
72
66
73
7
0
VERTEX
8
0
6
CONTINUOUS
62
252
70
128
10
0.000000
20
0.000000
30
0.000000
71
7
72
66
73
67
0
VERTEX
8
0
6
CONTINUOUS
62
252
70
128
10
0.000000
20
0.000000
30
0.000000
71
7
72
67
73
68
0
VERTEX
8
0
6
CONTINUOUS
62
252
70
128
10
0.000000
20
0.000000
30
0.000000
71
66
72
8
73
65
0
VERTEX
8
0
6
CONTINUOUS
62
252
70
128
10
0.000000
20
0.000000
30
0.000000
71
65
72
8
73
9
0
VERTEX
8
0
6
CONTINUOUS
62
252
70
128
10
0.000000
20
0.000000
30
0.000000
71
65
72
9
73
64
0
VERTEX
8
0
6
CONTINUOUS
62
252
70
128
10
0.000000
20
0.000000
30
0.000000
71
64
72
9
73
10
0
VERTEX
8
0
6
CONTINUOUS
62
252
70
128
10
0.000000
20
0.000000
30
0.000000
71
64
72
10
73
63
0
VERTEX
8
0
6
CONTINUOUS
62
252
70
128
10
0.000000
20
0.000000
30
0.000000
71
63
72
10
73
11
0
VERTEX
8
0
6
CONTINUOUS
62
252
70
128
10
0.000000
20
0.000000
30
0.000000
71
63
72
11
73
12
0
VERTEX
8
0
6
CONTINUOUS
62
252
70
128
10
0.000000
20
0.000000
30
0.000000
71
13
72
61
73
12
0
VERTEX
8
0
6
CONTINUOUS
62
252
70
128
10
0.000000
20
0.000000
30
0.000000
71
12
72
61
73
62
0
VERTEX
8
0
6
CONTINUOUS
62
252
70
128
10
0.000000
20
0.000000
30
0.000000
71
12
72
62
73
63
0
VERTEX
8
0
6
CONTINUOUS
62
252
70
128
10
0.000000
20
0.000000
30
0.000000
71
61
72
13
73
60
0
VERTEX
8
0
6
CONTINUOUS
62
252
70
128
10
0.000000
20
0.000000
30
0.000000
71
60
72
13
73
14
0
VERTEX
8
0
6
CONTINUOUS
62
252
70
128
10
0.000000
20
0.000000
30
0.000000
71
60
72
14
73
59
0
VERTEX
8
0
6
CONTINUOUS
62
252
70
128
10
0.000000
20
0.000000
30
0.000000
71
59
72
14
73
15
0
VERTEX
8
0
6
CONTINUOUS
62
252
70
128
10
0.000000
20
0.000000
30
0.000000
71
59
72
15
73
58
0
VERTEX
8
0
6
CONTINUOUS
62
252
70
128
10
0.000000
20
0.000000
30
0.000000
71
58
72
15
73
16
0
VERTEX
8
0
6
CONTINUOUS
62
252
70
128
10
0.000000
20
0.000000
30
0.000000
71
58
72
16
73
57
0
VERTEX
8
0
6
CONTINUOUS
62
252
70
128
10
0.000000
20
0.000000
30
0.000000
71
57
72
16
73
17
0
VERTEX
8
0
6
CONTINUOUS
62
252
70
128
10
0.000000
20
0.000000
30
0.000000
71
57
72
17
73
56
0
VERTEX
8
0
6
CONTINUOUS
62
252
70
128
10
0.000000
20
0.000000
30
0.000000
71
56
72
17
73
18
0
VERTEX
8
0
6
CONTINUOUS
62
252
70
128
10
0.000000
20
0.000000
30
0.000000
71
56
72
18
73
55
0
VERTEX
8
0
6
CONTINUOUS
62
252
70
128
10
0.000000
20
0.000000
30
0.000000
71
55
72
18
73
19
0
VERTEX
8
0
6
CONTINUOUS
62
252
70
128
10
0.000000
20
0.000000
30
0.000000
71
55
72
19
73
54
0
VERTEX
8
0
6
CONTINUOUS
62
252
70
128
10
0.000000
20
0.000000
30
0.000000
71
54
72
19
73
20
0
VERTEX
8
0
6
CONTINUOUS
62
252
70
128
10
0.000000
20
0.000000
30
0.000000
71
54
72
20
73
53
0
VERTEX
8
0
6
CONTINUOUS
62
252
70
128
10
0.000000
20
0.000000
30
0.000000
71
53
72
20
73
21
0
VERTEX
8
0
6
CONTINUOUS
62
252
70
128
10
0.000000
20
0.000000
30
0.000000
71
53
72
21
73
52
0
VERTEX
8
0
6
CONTINUOUS
62
252
70
128
10
0.000000
20
0.000000
30
0.000000
71
52
72
21
73
22
0
VERTEX
8
0
6
CONTINUOUS
62
252
70
128
10
0.000000
20
0.000000
30
0.000000
71
52
72
22
73
51
0
VERTEX
8
0
6
CONTINUOUS
62
252
70
128
10
0.000000
20
0.000000
30
0.000000
71
51
72
22
73
23
0
VERTEX
8
0
6
CONTINUOUS
62
252
70
128
10
0.000000
20
0.000000
30
0.000000
71
51
72
23
73
50
0
VERTEX
8
0
6
CONTINUOUS
62
252
70
128
10
0.000000
20
0.000000
30
0.000000
71
50
72
23
73
24
0
VERTEX
8
0
6
CONTINUOUS
62
252
70
128
10
0.000000
20
0.000000
30
0.000000
71
50
72
24
73
49
0
VERTEX
8
0
6
CONTINUOUS
62
252
70
128
10
0.000000
20
0.000000
30
0.000000
71
49
72
24
73
25
0
VERTEX
8
0
6
CONTINUOUS
62
252
70
128
10
0.000000
20
0.000000
30
0.000000
71
49
72
25
73
48
0
VERTEX
8
0
6
CONTINUOUS
62
252
70
128
10
0.000000
20
0.000000
30
0.000000
71
48
72
25
73
26
0
VERTEX
8
0
6
CONTINUOUS
62
252
70
128
10
0.000000
20
0.000000
30
0.000000
71
48
72
26
73
47
0
VERTEX
8
0
6
CONTINUOUS
62
252
70
128
10
0.000000
20
0.000000
30
0.000000
71
47
72
26
73
27
0
VERTEX
8
0
6
CONTINUOUS
62
252
70
128
10
0.000000
20
0.000000
30
0.000000
71
47
72
27
73
46
0
VERTEX
8
0
6
CONTINUOUS
62
252
70
128
10
0.000000
20
0.000000
30
0.000000
71
46
72
27
73
28
0
VERTEX
8
0
6
CONTINUOUS
62
252
70
128
10
0.000000
20
0.000000
30
0.000000
71
46
72
28
73
45
0
VERTEX
8
0
6
CONTINUOUS
62
252
70
128
10
0.000000
20
0.000000
30
0.000000
71
45
72
28
73
29
0
VERTEX
8
0
6
CONTINUOUS
62
252
70
128
10
0.000000
20
0.000000
30
0.000000
71
45
72
29
73
44
0
VERTEX
8
0
6
CONTINUOUS
62
252
70
128
10
0.000000
20
0.000000
30
0.000000
71
44
72
29
73
30
0
VERTEX
8
0
6
CONTINUOUS
62
252
70
128
10
0.000000
20
0.000000
30
0.000000
71
44
72
30
73
43
0
VERTEX
8
0
6
CONTINUOUS
62
252
70
128
10
0.000000
20
0.000000
30
0.000000
71
43
72
30
73
31
0
VERTEX
8
0
6
CONTINUOUS
62
252
70
128
10
0.000000
20
0.000000
30
0.000000
71
43
72
31
73
42
0
VERTEX
8
0
6
CONTINUOUS
62
252
70
128
10
0.000000
20
0.000000
30
0.000000
71
42
72
31
73
32
0
VERTEX
8
0
6
CONTINUOUS
62
252
70
128
10
0.000000
20
0.000000
30
0.000000
71
42
72
32
73
41
0
VERTEX
8
0
6
CONTINUOUS
62
252
70
128
10
0.000000
20
0.000000
30
0.000000
71
41
72
32
73
33
0
VERTEX
8
0
6
CONTINUOUS
62
252
70
128
10
0.000000
20
0.000000
30
0.000000
71
41
72
33
73
40
0
VERTEX
8
0
6
CONTINUOUS
62
252
70
128
10
0.000000
20
0.000000
30
0.000000
71
40
72
33
73
34
0
VERTEX
8
0
6
CONTINUOUS
62
252
70
128
10
0.000000
20
0.000000
30
0.000000
71
40
72
34
73
35
0
VERTEX
8
0
6
CONTINUOUS
62
252
70
128
10
0.000000
20
0.000000
30
0.000000
71
40
72
35
73
39
0
VERTEX
8
0
6
CONTINUOUS
62
252
70
128
10
0.000000
20
0.000000
30
0.000000
71
39
72
35
73
36
0
VERTEX
8
0
6
CONTINUOUS
62
252
70
128
10
0.000000
20
0.000000
30
0.000000
71
39
72
36
73
38
0
VERTEX
8
0
6
CONTINUOUS
62
252
70
128
10
0.000000
20
0.000000
30
0.000000
71
38
72
36
73
1
0
SEQEND
0
POLYLINE
66
1
8
0
6
CONTINUOUS
62
252
70
64
75
0
10
0.000000
20
0.000000
30
0.000000
0
VERTEX
8
0
6
CONTINUOUS
62
252
70
192
10
47.000000
20
0.000000
30
26.750000
0
VERTEX
8
0
6
CONTINUOUS
62
252
70
192
10
47.000000
20
-4.645089
30
26.343607
0
VERTEX
8
0
6
CONTINUOUS
62
252
70
192
10
47.000000
20
-9.149039
30
25.136778
0
VERTEX
8
0
6
CONTINUOUS
62
252
70
192
10
47.000000
20
-13.375000
30
23.166180
0
VERTEX
8
0
6
CONTINUOUS
62
252
70
192
10
47.000000
20
-17.194569
30
20.491689
0
VERTEX
8
0
6
CONTINUOUS
62
252
70
192
10
47.000000
20
-20.491689
30
17.194569
0
VERTEX
8
0
6
CONTINUOUS
62
252
70
192
10
47.000000
20
-23.166180
30
13.375000
0
VERTEX
8
0
6
CONTINUOUS
62
252
70
192
10
47.000000
20
-25.136778
30
9.149039
0
VERTEX
8
0
6
CONTINUOUS
62
252
70
192
10
47.000000
20
-26.343607
30
4.645089
0
VERTEX
8
0
6
CONTINUOUS
62
252
70
192
10
47.000000
20
-26.750000
30
0.000000
0
VERTEX
8
0
6
CONTINUOUS
62
252
70
192
10
47.000000
20
-26.343607
30
-4.645089
0
VERTEX
8
0
6
CONTINUOUS
62
252
70
192
10
47.000000
20
-25.136778
30
-9.149039
0
VERTEX
8
0
6
CONTINUOUS
62
252
70
192
10
47.000000
20
-23.166180
30
-13.375000
0
VERTEX
8
0
6
CONTINUOUS
62
252
70
192
10
47.000000
20
-20.491689
30
-17.194569
0
VERTEX
8
0
6
CONTINUOUS
62
252
70
192
10
47.000000
20
-17.194569
30
-20.491689
0
VERTEX
8
0
6
CONTINUOUS
62
252
70
192
10
47.000000
20
-13.375000
30
-23.166180
0
VERTEX
8
0
6
CONTINUOUS
62
252
70
192
10
47.000000
20
-9.149039
30
-25.136778
0
VERTEX
8
0
6
CONTINUOUS
62
252
70
192
10
47.000000
20
-4.645089
30
-26.343607
0
VERTEX
8
0
6
CONTINUOUS
62
252
70
192
10
47.000000
20
-0.000000
30
-26.750000
0
VERTEX
8
0
6
CONTINUOUS
62
252
70
192
10
47.000000
20
4.645089
30
-26.343607
0
VERTEX
8
0
6
CONTINUOUS
62
252
70
192
10
47.000000
20
9.149039
30
-25.136778
0
VERTEX
8
0
6
CONTINUOUS
62
252
70
192
10
47.000000
20
13.375000
30
-23.166180
0
VERTEX
8
0
6
CONTINUOUS
62
252
70
192
10
47.000000
20
17.194569
30
-20.491689
0
VERTEX
8
0
6
CONTINUOUS
62
252
70
192
10
47.000000
20
20.491689
30
-17.194569
0
VERTEX
8
0
6
CONTINUOUS
62
252
70
192
10
47.000000
20
23.166180
30
-13.375000
0
VERTEX
8
0
6
CONTINUOUS
62
252
70
192
10
47.000000
20
25.136778
30
-9.149039
0
VERTEX
8
0
6
CONTINUOUS
62
252
70
192
10
47.000000
20
26.343607
30
-4.645089
0
VERTEX
8
0
6
CONTINUOUS
62
252
70
192
10
47.000000
20
26.750000
30
-0.000000
0
VERTEX
8
0
6
CONTINUOUS
62
252
70
192
10
47.000000
20
26.343607
30
4.645089
0
VERTEX
8
0
6
CONTINUOUS
62
252
70
192
10
47.000000
20
25.136778
30
9.149039
0
VERTEX
8
0
6
CONTINUOUS
62
252
70
192
10
47.000000
20
23.166180
30
13.375000
0
VERTEX
8
0
6
CONTINUOUS
62
252
70
192
10
47.000000
20
20.491689
30
17.194569
0
VERTEX
8
0
6
CONTINUOUS
62
252
70
192
10
47.000000
20
17.194569
30
20.491689
0
VERTEX
8
0
6
CONTINUOUS
62
252
70
192
10
47.000000
20
13.375000
30
23.166180
0
VERTEX
8
0
6
CONTINUOUS
62
252
70
192
10
47.000000
20
9.149039
30
25.136778
0
VERTEX
8
0
6
CONTINUOUS
62
252
70
192
10
47.000000
20
4.645089
30
26.343607
0
VERTEX
8
0
6
CONTINUOUS
62
252
70
128
10
0.000000
20
0.000000
30
0.000000
71
2
72
19
73
1
0
VERTEX
8
0
6
CONTINUOUS
62
252
70
128
10
0.000000
20
0.000000
30
0.000000
71
1
72
19
73
20
0
VERTEX
8
0
6
CONTINUOUS
62
252
70
128
10
0.000000
20
0.000000
30
0.000000
71
1
72
20
73
36
0
VERTEX
8
0
6
CONTINUOUS
62
252
70
128
10
0.000000
20
0.000000
30
0.000000
71
36
72
20
73
35
0
VERTEX
8
0
6
CONTINUOUS
62
252
70
128
10
0.000000
20
0.000000
30
0.000000
71
35
72
20
73
34
0
VERTEX
8
0
6
CONTINUOUS
62
252
70
128
10
0.000000
20
0.000000
30
0.000000
71
34
72
20
73
21
0
VERTEX
8
0
6
CONTINUOUS
62
252
70
128
10
0.000000
20
0.000000
30
0.000000
71
34
72
21
73
22
0
VERTEX
8
0
6
CONTINUOUS
62
252
70
128
10
0.000000
20
0.000000
30
0.000000
71
3
72
16
73
2
0
VERTEX
8
0
6
CONTINUOUS
62
252
70
128
10
0.000000
20
0.000000
30
0.000000
71
2
72
16
73
17
0
VERTEX
8
0
6
CONTINUOUS
62
252
70
128
10
0.000000
20
0.000000
30
0.000000
71
2
72
17
73
18
0
VERTEX
8
0
6
CONTINUOUS
62
252
70
128
10
0.000000
20
0.000000
30
0.000000
71
3
72
4
73
16
0
VERTEX
8
0
6
CONTINUOUS
62
252
70
128
10
0.000000
20
0.000000
30
0.000000
71
16
72
4
73
5
0
VERTEX
8
0
6
CONTINUOUS
62
252
70
128
10
0.000000
20
0.000000
30
0.000000
71
16
72
5
73
15
0
VERTEX
8
0
6
CONTINUOUS
62
252
70
128
10
0.000000
20
0.000000
30
0.000000
71
15
72
5
73
14
0
VERTEX
8
0
6
CONTINUOUS
62
252
70
128
10
0.000000
20
0.000000
30
0.000000
71
14
72
5
73
13
0
VERTEX
8
0
6
CONTINUOUS
62
252
70
128
10
0.000000
20
0.000000
30
0.000000
71
13
72
5
73
6
0
VERTEX
8
0
6
CONTINUOUS
62
252
70
128
10
0.000000
20
0.000000
30
0.000000
71
13
72
6
73
7
0
VERTEX
8
0
6
CONTINUOUS
62
252
70
128
10
0.000000
20
0.000000
30
0.000000
71
8
72
11
73
7
0
VERTEX
8
0
6
CONTINUOUS
62
252
70
128
10
0.000000
20
0.000000
30
0.000000
71
7
72
11
73
12
0
VERTEX
8
0
6
CONTINUOUS
62
252
70
128
10
0.000000
20
0.000000
30
0.000000
71
7
72
12
73
13
0
VERTEX
8
0
6
CONTINUOUS
62
252
70
128
10
0.000000
20
0.000000
30
0.000000
71
8
72
9
73
11
0
VERTEX
8
0
6
CONTINUOUS
62
252
70
128
10
0.000000
20
0.000000
30
0.000000
71
11
72
9
73
10
0
VERTEX
8
0
6
CONTINUOUS
62
252
70
128
10
0.000000
20
0.000000
30
0.000000
71
18
72
19
73
2
0
VERTEX
8
0
6
CONTINUOUS
62
252
70
128
10
0.000000
20
0.000000
30
0.000000
71
23
72
32
73
22
0
VERTEX
8
0
6
CONTINUOUS
62
252
70
128
10
0.000000
20
0.000000
30
0.000000
71
22
72
32
73
33
0
VERTEX
8
0
6
CONTINUOUS
62
252
70
128
10
0.000000
20
0.000000
30
0.000000
71
22
72
33
73
34
0
VERTEX
8
0
6
CONTINUOUS
62
252
70
128
10
0.000000
20
0.000000
30
0.000000
71
23
72
24
73
32
0
VERTEX
8
0
6
CONTINUOUS
62
252
70
128
10
0.000000
20
0.000000
30
0.000000
71
32
72
24
73
25
0
VERTEX
8
0
6
CONTINUOUS
62
252
70
128
10
0.000000
20
0.000000
30
0.000000
71
32
72
25
73
31
0
VERTEX
8
0
6
CONTINUOUS
62
252
70
128
10
0.000000
20
0.000000
30
0.000000
71
31
72
25
73
26
0
VERTEX
8
0
6
CONTINUOUS
62
252
70
128
10
0.000000
20
0.000000
30
0.000000
71
31
72
26
73
27
0
VERTEX
8
0
6
CONTINUOUS
62
252
70
128
10
0.000000
20
0.000000
30
0.000000
71
31
72
27
73
30
0
VERTEX
8
0
6
CONTINUOUS
62
252
70
128
10
0.000000
20
0.000000
30
0.000000
71
30
72
27
73
28
0
VERTEX
8
0
6
CONTINUOUS
62
252
70
128
10
0.000000
20
0.000000
30
0.000000
71
30
72
28
73
29
0
SEQEND
0
ENDSEC
0
EOF
