0
SECTION
2
HEADER
9
$ACADVER
1
AC1009
9
$INSBASE
10
0.0
20
0.0
30
0.0
9
$EXTMIN
10
0.000000
20
0.000000
30
0.000000
9
$EXTMAX
10
0.000000
20
0.000000
30
0.000000
9
$UCSORG
10
0.0
20
0.0
30
0.0
9
$UCSXDIR
10
1.0
20
0.0
30
0.0
9
$UCSYDIR
10
0.0
20
1.0
30
0.0
9
$CLAYER
8
0
9
$SHADEDGE
70
3
0
ENDSEC
0
SECTION
2
TABLES
0
TABLE
2
LTYPE
70
2
0
LTYPE
2
CONTINUOUS
70
0
3
Solid line
72
65
73
0
40
0.0
0
ENDTAB
0
TABLE
2
LAYER
70
5
0
LAYER
2
0
70
0
62
7
6
CONTINUOUS
0
ENDTAB
0
TABLE
2
APPID
70
1
0
APPID
2
ACAD
70
64
0
ENDTAB
0
ENDSEC
0
SECTION
2
BLOCKS
0
ENDSEC
0
SECTION
2
ENTITIES
0
POLYLINE
66
1
8
0
6
CONTINUOUS
62
252
70
64
75
0
10
0.000000
20
0.000000
30
0.000000
0
VERTEX
8
0
6
CONTINUOUS
62
252
70
192
10
55.000000
20
-0.000000
30
4.500000
0
VERTEX
8
0
6
CONTINUOUS
62
252
70
192
10
55.000000
20
0.781417
30
4.431635
0
VERTEX
8
0
6
CONTINUOUS
62
252
70
192
10
55.000000
20
1.539091
30
4.228617
0
VERTEX
8
0
6
CONTINUOUS
62
252
70
192
10
55.000000
20
2.250000
30
3.897114
0
VERTEX
8
0
6
CONTINUOUS
62
252
70
192
10
55.000000
20
2.892544
30
3.447200
0
VERTEX
8
0
6
CONTINUOUS
62
252
70
192
10
55.000000
20
3.447200
30
2.892544
0
VERTEX
8
0
6
CONTINUOUS
62
252
70
192
10
55.000000
20
3.897114
30
2.250000
0
VERTEX
8
0
6
CONTINUOUS
62
252
70
192
10
55.000000
20
4.228617
30
1.539091
0
VERTEX
8
0
6
CONTINUOUS
62
252
70
192
10
55.000000
20
4.431635
30
0.781417
0
VERTEX
8
0
6
CONTINUOUS
62
252
70
192
10
55.000000
20
4.500000
30
0.000000
0
VERTEX
8
0
6
CONTINUOUS
62
252
70
192
10
55.000000
20
4.431635
30
-0.781417
0
VERTEX
8
0
6
CONTINUOUS
62
252
70
192
10
55.000000
20
4.228617
30
-1.539091
0
VERTEX
8
0
6
CONTINUOUS
62
252
70
192
10
55.000000
20
3.897114
30
-2.250000
0
VERTEX
8
0
6
CONTINUOUS
62
252
70
192
10
55.000000
20
3.447200
30
-2.892544
0
VERTEX
8
0
6
CONTINUOUS
62
252
70
192
10
55.000000
20
2.892544
30
-3.447200
0
VERTEX
8
0
6
CONTINUOUS
62
252
70
192
10
55.000000
20
2.250000
30
-3.897114
0
VERTEX
8
0
6
CONTINUOUS
62
252
70
192
10
55.000000
20
1.539091
30
-4.228617
0
VERTEX
8
0
6
CONTINUOUS
62
252
70
192
10
55.000000
20
0.781417
30
-4.431635
0
VERTEX
8
0
6
CONTINUOUS
62
252
70
192
10
55.000000
20
0.000000
30
-4.500000
0
VERTEX
8
0
6
CONTINUOUS
62
252
70
192
10
55.000000
20
-0.781417
30
-4.431635
0
VERTEX
8
0
6
CONTINUOUS
62
252
70
192
10
55.000000
20
-1.539091
30
-4.228617
0
VERTEX
8
0
6
CONTINUOUS
62
252
70
192
10
55.000000
20
-2.250000
30
-3.897114
0
VERTEX
8
0
6
CONTINUOUS
62
252
70
192
10
55.000000
20
-2.892544
30
-3.447200
0
VERTEX
8
0
6
CONTINUOUS
62
252
70
192
10
55.000000
20
-3.447200
30
-2.892544
0
VERTEX
8
0
6
CONTINUOUS
62
252
70
192
10
55.000000
20
-3.897114
30
-2.250000
0
VERTEX
8
0
6
CONTINUOUS
62
252
70
192
10
55.000000
20
-4.228617
30
-1.539091
0
VERTEX
8
0
6
CONTINUOUS
62
252
70
192
10
55.000000
20
-4.431635
30
-0.781417
0
VERTEX
8
0
6
CONTINUOUS
62
252
70
192
10
55.000000
20
-4.500000
30
0.000000
0
VERTEX
8
0
6
CONTINUOUS
62
252
70
192
10
55.000000
20
-4.431635
30
0.781417
0
VERTEX
8
0
6
CONTINUOUS
62
252
70
192
10
55.000000
20
-4.228617
30
1.539091
0
VERTEX
8
0
6
CONTINUOUS
62
252
70
192
10
55.000000
20
-3.897114
30
2.250000
0
VERTEX
8
0
6
CONTINUOUS
62
252
70
192
10
55.000000
20
-3.447200
30
2.892544
0
VERTEX
8
0
6
CONTINUOUS
62
252
70
192
10
55.000000
20
-2.892544
30
3.447200
0
VERTEX
8
0
6
CONTINUOUS
62
252
70
192
10
55.000000
20
-2.250000
30
3.897114
0
VERTEX
8
0
6
CONTINUOUS
62
252
70
192
10
55.000000
20
-1.539091
30
4.228617
0
VERTEX
8
0
6
CONTINUOUS
62
252
70
192
10
55.000000
20
-0.781417
30
4.431635
0
VERTEX
8
0
6
CONTINUOUS
62
252
70
192
10
61.000000
20
0.000000
30
-4.500000
0
VERTEX
8
0
6
CONTINUOUS
62
252
70
192
10
61.000000
20
0.781417
30
-4.431635
0
VERTEX
8
0
6
CONTINUOUS
62
252
70
192
10
61.000000
20
1.539091
30
-4.228617
0
VERTEX
8
0
6
CONTINUOUS
62
252
70
192
10
61.000000
20
2.250000
30
-3.897114
0
VERTEX
8
0
6
CONTINUOUS
62
252
70
192
10
61.000000
20
2.892544
30
-3.447200
0
VERTEX
8
0
6
CONTINUOUS
62
252
70
192
10
61.000000
20
3.447200
30
-2.892544
0
VERTEX
8
0
6
CONTINUOUS
62
252
70
192
10
61.000000
20
3.897114
30
-2.250000
0
VERTEX
8
0
6
CONTINUOUS
62
252
70
192
10
61.000000
20
4.228617
30
-1.539091
0
VERTEX
8
0
6
CONTINUOUS
62
252
70
192
10
61.000000
20
4.431635
30
-0.781417
0
VERTEX
8
0
6
CONTINUOUS
62
252
70
192
10
61.000000
20
4.500000
30
0.000000
0
VERTEX
8
0
6
CONTINUOUS
62
252
70
192
10
61.000000
20
4.431635
30
0.781417
0
VERTEX
8
0
6
CONTINUOUS
62
252
70
192
10
61.000000
20
4.228617
30
1.539091
0
VERTEX
8
0
6
CONTINUOUS
62
252
70
192
10
61.000000
20
3.897114
30
2.250000
0
VERTEX
8
0
6
CONTINUOUS
62
252
70
192
10
61.000000
20
3.447200
30
2.892544
0
VERTEX
8
0
6
CONTINUOUS
62
252
70
192
10
61.000000
20
2.892544
30
3.447200
0
VERTEX
8
0
6
CONTINUOUS
62
252
70
192
10
61.000000
20
2.250000
30
3.897114
0
VERTEX
8
0
6
CONTINUOUS
62
252
70
192
10
61.000000
20
1.539091
30
4.228617
0
VERTEX
8
0
6
CONTINUOUS
62
252
70
192
10
61.000000
20
0.781417
30
4.431635
0
VERTEX
8
0
6
CONTINUOUS
62
252
70
192
10
61.000000
20
-0.000000
30
4.500000
0
VERTEX
8
0
6
CONTINUOUS
62
252
70
192
10
61.000000
20
-0.781417
30
4.431635
0
VERTEX
8
0
6
CONTINUOUS
62
252
70
192
10
61.000000
20
-1.539091
30
4.228617
0
VERTEX
8
0
6
CONTINUOUS
62
252
70
192
10
61.000000
20
-2.250000
30
3.897114
0
VERTEX
8
0
6
CONTINUOUS
62
252
70
192
10
61.000000
20
-2.892544
30
3.447200
0
VERTEX
8
0
6
CONTINUOUS
62
252
70
192
10
61.000000
20
-3.447200
30
2.892544
0
VERTEX
8
0
6
CONTINUOUS
62
252
70
192
10
61.000000
20
-3.897114
30
2.250000
0
VERTEX
8
0
6
CONTINUOUS
62
252
70
192
10
61.000000
20
-4.228617
30
1.539091
0
VERTEX
8
0
6
CONTINUOUS
62
252
70
192
10
61.000000
20
-4.431635
30
0.781417
0
VERTEX
8
0
6
CONTINUOUS
62
252
70
192
10
61.000000
20
-4.500000
30
0.000000
0
VERTEX
8
0
6
CONTINUOUS
62
252
70
192
10
61.000000
20
-4.431635
30
-0.781417
0
VERTEX
8
0
6
CONTINUOUS
62
252
70
192
10
61.000000
20
-4.228617
30
-1.539091
0
VERTEX
8
0
6
CONTINUOUS
62
252
70
192
10
61.000000
20
-3.897114
30
-2.250000
0
VERTEX
8
0
6
CONTINUOUS
62
252
70
192
10
61.000000
20
-3.447200
30
-2.892544
0
VERTEX
8
0
6
CONTINUOUS
62
252
70
192
10
61.000000
20
-2.892544
30
-3.447200
0
VERTEX
8
0
6
CONTINUOUS
62
252
70
192
10
61.000000
20
-2.250000
30
-3.897114
0
VERTEX
8
0
6
CONTINUOUS
62
252
70
192
10
61.000000
20
-1.539091
30
-4.228617
0
VERTEX
8
0
6
CONTINUOUS
62
252
70
192
10
61.000000
20
-0.781417
30
-4.431635
0
VERTEX
8
0
6
CONTINUOUS
62
252
70
128
10
0.000000
20
0.000000
30
0.000000
71
2
72
54
73
1
0
VERTEX
8
0
6
CONTINUOUS
62
252
70
128
10
0.000000
20
0.000000
30
0.000000
71
1
72
54
73
55
0
VERTEX
8
0
6
CONTINUOUS
62
252
70
128
10
0.000000
20
0.000000
30
0.000000
71
1
72
55
73
36
0
VERTEX
8
0
6
CONTINUOUS
62
252
70
128
10
0.000000
20
0.000000
30
0.000000
71
36
72
55
73
56
0
VERTEX
8
0
6
CONTINUOUS
62
252
70
128
10
0.000000
20
0.000000
30
0.000000
71
36
72
56
73
35
0
VERTEX
8
0
6
CONTINUOUS
62
252
70
128
10
0.000000
20
0.000000
30
0.000000
71
35
72
56
73
57
0
VERTEX
8
0
6
CONTINUOUS
62
252
70
128
10
0.000000
20
0.000000
30
0.000000
71
35
72
57
73
34
0
VERTEX
8
0
6
CONTINUOUS
62
252
70
128
10
0.000000
20
0.000000
30
0.000000
71
34
72
57
73
58
0
VERTEX
8
0
6
CONTINUOUS
62
252
70
128
10
0.000000
20
0.000000
30
0.000000
71
34
72
58
73
33
0
VERTEX
8
0
6
CONTINUOUS
62
252
70
128
10
0.000000
20
0.000000
30
0.000000
71
33
72
58
73
59
0
VERTEX
8
0
6
CONTINUOUS
62
252
70
128
10
0.000000
20
0.000000
30
0.000000
71
33
72
59
73
32
0
VERTEX
8
0
6
CONTINUOUS
62
252
70
128
10
0.000000
20
0.000000
30
0.000000
71
32
72
59
73
60
0
VERTEX
8
0
6
CONTINUOUS
62
252
70
128
10
0.000000
20
0.000000
30
0.000000
71
32
72
60
73
31
0
VERTEX
8
0
6
CONTINUOUS
62
252
70
128
10
0.000000
20
0.000000
30
0.000000
71
31
72
60
73
61
0
VERTEX
8
0
6
CONTINUOUS
62
252
70
128
10
0.000000
20
0.000000
30
0.000000
71
31
72
61
73
30
0
VERTEX
8
0
6
CONTINUOUS
62
252
70
128
10
0.000000
20
0.000000
30
0.000000
71
30
72
61
73
62
0
VERTEX
8
0
6
CONTINUOUS
62
252
70
128
10
0.000000
20
0.000000
30
0.000000
71
30
72
62
73
29
0
VERTEX
8
0
6
CONTINUOUS
62
252
70
128
10
0.000000
20
0.000000
30
0.000000
71
29
72
62
73
63
0
VERTEX
8
0
6
CONTINUOUS
62
252
70
128
10
0.000000
20
0.000000
30
0.000000
71
29
72
63
73
28
0
VERTEX
8
0
6
CONTINUOUS
62
252
70
128
10
0.000000
20
0.000000
30
0.000000
71
28
72
63
73
64
0
VERTEX
8
0
6
CONTINUOUS
62
252
70
128
10
0.000000
20
0.000000
30
0.000000
71
28
72
64
73
27
0
VERTEX
8
0
6
CONTINUOUS
62
252
70
128
10
0.000000
20
0.000000
30
0.000000
71
27
72
64
73
65
0
VERTEX
8
0
6
CONTINUOUS
62
252
70
128
10
0.000000
20
0.000000
30
0.000000
71
27
72
65
73
26
0
VERTEX
8
0
6
CONTINUOUS
62
252
70
128
10
0.000000
20
0.000000
30
0.000000
71
26
72
65
73
66
0
VERTEX
8
0
6
CONTINUOUS
62
252
70
128
10
0.000000
20
0.000000
30
0.000000
71
26
72
66
73
25
0
VERTEX
8
0
6
CONTINUOUS
62
252
70
128
10
0.000000
20
0.000000
30
0.000000
71
25
72
66
73
67
0
VERTEX
8
0
6
CONTINUOUS
62
252
70
128
10
0.000000
20
0.000000
30
0.000000
71
25
72
67
73
24
0
VERTEX
8
0
6
CONTINUOUS
62
252
70
128
10
0.000000
20
0.000000
30
0.000000
71
24
72
67
73
68
0
VERTEX
8
0
6
CONTINUOUS
62
252
70
128
10
0.000000
20
0.000000
30
0.000000
71
24
72
68
73
23
0
VERTEX
8
0
6
CONTINUOUS
62
252
70
128
10
0.000000
20
0.000000
30
0.000000
71
23
72
68
73
69
0
VERTEX
8
0
6
CONTINUOUS
62
252
70
128
10
0.000000
20
0.000000
30
0.000000
71
23
72
69
73
22
0
VERTEX
8
0
6
CONTINUOUS
62
252
70
128
10
0.000000
20
0.000000
30
0.000000
71
22
72
69
73
70
0
VERTEX
8
0
6
CONTINUOUS
62
252
70
128
10
0.000000
20
0.000000
30
0.000000
71
22
72
70
73
21
0
VERTEX
8
0
6
CONTINUOUS
62
252
70
128
10
0.000000
20
0.000000
30
0.000000
71
21
72
70
73
71
0
VERTEX
8
0
6
CONTINUOUS
62
252
70
128
10
0.000000
20
0.000000
30
0.000000
71
21
72
71
73
20
0
VERTEX
8
0
6
CONTINUOUS
62
252
70
128
10
0.000000
20
0.000000
30
0.000000
71
20
72
71
73
72
0
VERTEX
8
0
6
CONTINUOUS
62
252
70
128
10
0.000000
20
0.000000
30
0.000000
71
20
72
72
73
19
0
VERTEX
8
0
6
CONTINUOUS
62
252
70
128
10
0.000000
20
0.000000
30
0.000000
71
19
72
72
73
37
0
VERTEX
8
0
6
CONTINUOUS
62
252
70
128
10
0.000000
20
0.000000
30
0.000000
71
19
72
37
73
18
0
VERTEX
8
0
6
CONTINUOUS
62
252
70
128
10
0.000000
20
0.000000
30
0.000000
71
18
72
37
73
38
0
VERTEX
8
0
6
CONTINUOUS
62
252
70
128
10
0.000000
20
0.000000
30
0.000000
71
18
72
38
73
17
0
VERTEX
8
0
6
CONTINUOUS
62
252
70
128
10
0.000000
20
0.000000
30
0.000000
71
17
72
38
73
39
0
VERTEX
8
0
6
CONTINUOUS
62
252
70
128
10
0.000000
20
0.000000
30
0.000000
71
17
72
39
73
16
0
VERTEX
8
0
6
CONTINUOUS
62
252
70
128
10
0.000000
20
0.000000
30
0.000000
71
16
72
39
73
40
0
VERTEX
8
0
6
CONTINUOUS
62
252
70
128
10
0.000000
20
0.000000
30
0.000000
71
16
72
40
73
15
0
VERTEX
8
0
6
CONTINUOUS
62
252
70
128
10
0.000000
20
0.000000
30
0.000000
71
15
72
40
73
41
0
VERTEX
8
0
6
CONTINUOUS
62
252
70
128
10
0.000000
20
0.000000
30
0.000000
71
15
72
41
73
14
0
VERTEX
8
0
6
CONTINUOUS
62
252
70
128
10
0.000000
20
0.000000
30
0.000000
71
14
72
41
73
42
0
VERTEX
8
0
6
CONTINUOUS
62
252
70
128
10
0.000000
20
0.000000
30
0.000000
71
14
72
42
73
13
0
VERTEX
8
0
6
CONTINUOUS
62
252
70
128
10
0.000000
20
0.000000
30
0.000000
71
13
72
42
73
43
0
VERTEX
8
0
6
CONTINUOUS
62
252
70
128
10
0.000000
20
0.000000
30
0.000000
71
13
72
43
73
12
0
VERTEX
8
0
6
CONTINUOUS
62
252
70
128
10
0.000000
20
0.000000
30
0.000000
71
12
72
43
73
44
0
VERTEX
8
0
6
CONTINUOUS
62
252
70
128
10
0.000000
20
0.000000
30
0.000000
71
12
72
44
73
11
0
VERTEX
8
0
6
CONTINUOUS
62
252
70
128
10
0.000000
20
0.000000
30
0.000000
71
11
72
44
73
45
0
VERTEX
8
0
6
CONTINUOUS
62
252
70
128
10
0.000000
20
0.000000
30
0.000000
71
11
72
45
73
10
0
VERTEX
8
0
6
CONTINUOUS
62
252
70
128
10
0.000000
20
0.000000
30
0.000000
71
10
72
45
73
46
0
VERTEX
8
0
6
CONTINUOUS
62
252
70
128
10
0.000000
20
0.000000
30
0.000000
71
10
72
46
73
9
0
VERTEX
8
0
6
CONTINUOUS
62
252
70
128
10
0.000000
20
0.000000
30
0.000000
71
9
72
46
73
47
0
VERTEX
8
0
6
CONTINUOUS
62
252
70
128
10
0.000000
20
0.000000
30
0.000000
71
9
72
47
73
8
0
VERTEX
8
0
6
CONTINUOUS
62
252
70
128
10
0.000000
20
0.000000
30
0.000000
71
8
72
47
73
48
0
VERTEX
8
0
6
CONTINUOUS
62
252
70
128
10
0.000000
20
0.000000
30
0.000000
71
8
72
48
73
7
0
VERTEX
8
0
6
CONTINUOUS
62
252
70
128
10
0.000000
20
0.000000
30
0.000000
71
7
72
48
73
49
0
VERTEX
8
0
6
CONTINUOUS
62
252
70
128
10
0.000000
20
0.000000
30
0.000000
71
7
72
49
73
6
0
VERTEX
8
0
6
CONTINUOUS
62
252
70
128
10
0.000000
20
0.000000
30
0.000000
71
6
72
49
73
50
0
VERTEX
8
0
6
CONTINUOUS
62
252
70
128
10
0.000000
20
0.000000
30
0.000000
71
6
72
50
73
5
0
VERTEX
8
0
6
CONTINUOUS
62
252
70
128
10
0.000000
20
0.000000
30
0.000000
71
5
72
50
73
51
0
VERTEX
8
0
6
CONTINUOUS
62
252
70
128
10
0.000000
20
0.000000
30
0.000000
71
5
72
51
73
4
0
VERTEX
8
0
6
CONTINUOUS
62
252
70
128
10
0.000000
20
0.000000
30
0.000000
71
4
72
51
73
52
0
VERTEX
8
0
6
CONTINUOUS
62
252
70
128
10
0.000000
20
0.000000
30
0.000000
71
4
72
52
73
3
0
VERTEX
8
0
6
CONTINUOUS
62
252
70
128
10
0.000000
20
0.000000
30
0.000000
71
3
72
52
73
53
0
VERTEX
8
0
6
CONTINUOUS
62
252
70
128
10
0.000000
20
0.000000
30
0.000000
71
3
72
53
73
2
0
VERTEX
8
0
6
CONTINUOUS
62
252
70
128
10
0.000000
20
0.000000
30
0.000000
71
2
72
53
73
54
0
SEQEND
0
POLYLINE
66
1
8
0
6
CONTINUOUS
62
252
70
64
75
0
10
0.000000
20
0.000000
30
0.000000
0
VERTEX
8
0
6
CONTINUOUS
62
252
70
192
10
55.000000
20
-11.359551
30
-40.879358
0
VERTEX
8
0
6
CONTINUOUS
62
252
70
192
10
55.000000
20
11.359551
30
-40.879358
0
VERTEX
8
0
6
CONTINUOUS
62
252
70
192
10
0.000000
20
11.618492
30
-42.800000
0
VERTEX
8
0
6
CONTINUOUS
62
252
70
192
10
0.000000
20
-11.618492
30
-42.800000
0
VERTEX
8
0
6
CONTINUOUS
62
252
70
128
10
0.000000
20
0.000000
30
0.000000
71
1
72
2
73
4
0
VERTEX
8
0
6
CONTINUOUS
62
252
70
128
10
0.000000
20
0.000000
30
0.000000
71
4
72
2
73
3
0
SEQEND
0
POLYLINE
66
1
8
0
6
CONTINUOUS
62
252
70
64
75
0
10
0.000000
20
0.000000
30
0.000000
0
VERTEX
8
0
6
CONTINUOUS
62
252
70
192
10
55.000000
20
-40.879358
30
-11.359551
0
VERTEX
8
0
6
CONTINUOUS
62
252
70
192
10
55.000000
20
-38.341895
30
-18.167565
0
VERTEX
8
0
6
CONTINUOUS
62
252
70
192
10
55.000000
20
-34.680097
30
-24.442834
0
VERTEX
8
0
6
CONTINUOUS
62
252
70
192
10
55.000000
20
-30.001344
30
-30.001344
0
VERTEX
8
0
6
CONTINUOUS
62
252
70
192
10
55.000000
20
-24.442834
30
-34.680097
0
VERTEX
8
0
6
CONTINUOUS
62
252
70
192
10
55.000000
20
-18.167565
30
-38.341895
0
VERTEX
8
0
6
CONTINUOUS
62
252
70
192
10
55.000000
20
-11.359551
30
-40.879358
0
VERTEX
8
0
6
CONTINUOUS
62
252
70
192
10
0.000000
20
-11.618492
30
-42.800000
0
VERTEX
8
0
6
CONTINUOUS
62
252
70
192
10
0.000000
20
-18.830330
30
-40.152809
0
VERTEX
8
0
6
CONTINUOUS
62
252
70
192
10
0.000000
20
-25.477130
30
-36.300760
0
VERTEX
8
0
6
CONTINUOUS
62
252
70
192
10
0.000000
20
-31.359443
30
-31.359443
0
VERTEX
8
0
6
CONTINUOUS
62
252
70
192
10
0.000000
20
-36.300760
30
-25.477130
0
VERTEX
8
0
6
CONTINUOUS
62
252
70
192
10
0.000000
20
-40.152809
30
-18.830330
0
VERTEX
8
0
6
CONTINUOUS
62
252
70
192
10
0.000000
20
-42.800000
30
-11.618492
0
VERTEX
8
0
6
CONTINUOUS
62
252
70
128
10
0.000000
20
0.000000
30
0.000000
71
14
72
1
73
13
0
VERTEX
8
0
6
CONTINUOUS
62
252
70
128
10
0.000000
20
0.000000
30
0.000000
71
13
72
1
73
2
0
VERTEX
8
0
6
CONTINUOUS
62
252
70
128
10
0.000000
20
0.000000
30
0.000000
71
13
72
2
73
12
0
VERTEX
8
0
6
CONTINUOUS
62
252
70
128
10
0.000000
20
0.000000
30
0.000000
71
12
72
2
73
3
0
VERTEX
8
0
6
CONTINUOUS
62
252
70
128
10
0.000000
20
0.000000
30
0.000000
71
12
72
3
73
11
0
VERTEX
8
0
6
CONTINUOUS
62
252
70
128
10
0.000000
20
0.000000
30
0.000000
71
11
72
3
73
4
0
VERTEX
8
0
6
CONTINUOUS
62
252
70
128
10
0.000000
20
0.000000
30
0.000000
71
11
72
4
73
5
0
VERTEX
8
0
6
CONTINUOUS
62
252
70
128
10
0.000000
20
0.000000
30
0.000000
71
11
72
5
73
10
0
VERTEX
8
0
6
CONTINUOUS
62
252
70
128
10
0.000000
20
0.000000
30
0.000000
71
10
72
5
73
6
0
VERTEX
8
0
6
CONTINUOUS
62
252
70
128
10
0.000000
20
0.000000
30
0.000000
71
10
72
6
73
9
0
VERTEX
8
0
6
CONTINUOUS
62
252
70
128
10
0.000000
20
0.000000
30
0.000000
71
9
72
6
73
7
0
VERTEX
8
0
6
CONTINUOUS
62
252
70
128
10
0.000000
20
0.000000
30
0.000000
71
9
72
7
73
8
0
SEQEND
0
POLYLINE
66
1
8
0
6
CONTINUOUS
62
252
70
64
75
0
10
0.000000
20
0.000000
30
0.000000
0
VERTEX
8
0
6
CONTINUOUS
62
252
70
192
10
55.000000
20
-40.879358
30
11.359551
0
VERTEX
8
0
6
CONTINUOUS
62
252
70
192
10
55.000000
20
-40.879358
30
-11.359551
0
VERTEX
8
0
6
CONTINUOUS
62
252
70
192
10
0.000000
20
-42.800000
30
-11.618492
0
VERTEX
8
0
6
CONTINUOUS
62
252
70
192
10
-0.000000
20
-42.800000
30
11.618492
0
VERTEX
8
0
6
CONTINUOUS
62
252
70
128
10
0.000000
20
0.000000
30
0.000000
71
1
72
2
73
4
0
VERTEX
8
0
6
CONTINUOUS
62
252
70
128
10
0.000000
20
0.000000
30
0.000000
71
4
72
2
73
3
0
SEQEND
0
POLYLINE
66
1
8
0
6
CONTINUOUS
62
252
70
64
75
0
10
0.000000
20
0.000000
30
0.000000
0
VERTEX
8
0
6
CONTINUOUS
62
252
70
192
10
55.000000
20
-11.359551
30
40.879358
0
VERTEX
8
0
6
CONTINUOUS
62
252
70
192
10
55.000000
20
-18.167565
30
38.341895
0
VERTEX
8
0
6
CONTINUOUS
62
252
70
192
10
55.000000
20
-24.442834
30
34.680097
0
VERTEX
8
0
6
CONTINUOUS
62
252
70
192
10
55.000000
20
-30.001344
30
30.001344
0
VERTEX
8
0
6
CONTINUOUS
62
252
70
192
10
55.000000
20
-34.680097
30
24.442834
0
VERTEX
8
0
6
CONTINUOUS
62
252
70
192
10
55.000000
20
-38.341895
30
18.167565
0
VERTEX
8
0
6
CONTINUOUS
62
252
70
192
10
55.000000
20
-40.879358
30
11.359551
0
VERTEX
8
0
6
CONTINUOUS
62
252
70
192
10
-0.000000
20
-42.800000
30
11.618492
0
VERTEX
8
0
6
CONTINUOUS
62
252
70
192
10
-0.000000
20
-40.152809
30
18.830330
0
VERTEX
8
0
6
CONTINUOUS
62
252
70
192
10
-0.000000
20
-36.300760
30
25.477130
0
VERTEX
8
0
6
CONTINUOUS
62
252
70
192
10
-0.000000
20
-31.359443
30
31.359443
0
VERTEX
8
0
6
CONTINUOUS
62
252
70
192
10
-0.000000
20
-25.477130
30
36.300760
0
VERTEX
8
0
6
CONTINUOUS
62
252
70
192
10
-0.000000
20
-18.830330
30
40.152809
0
VERTEX
8
0
6
CONTINUOUS
62
252
70
192
10
-0.000000
20
-11.618492
30
42.800000
0
VERTEX
8
0
6
CONTINUOUS
62
252
70
128
10
0.000000
20
0.000000
30
0.000000
71
14
72
1
73
13
0
VERTEX
8
0
6
CONTINUOUS
62
252
70
128
10
0.000000
20
0.000000
30
0.000000
71
13
72
1
73
2
0
VERTEX
8
0
6
CONTINUOUS
62
252
70
128
10
0.000000
20
0.000000
30
0.000000
71
13
72
2
73
12
0
VERTEX
8
0
6
CONTINUOUS
62
252
70
128
10
0.000000
20
0.000000
30
0.000000
71
12
72
2
73
3
0
VERTEX
8
0
6
CONTINUOUS
62
252
70
128
10
0.000000
20
0.000000
30
0.000000
71
12
72
3
73
11
0
VERTEX
8
0
6
CONTINUOUS
62
252
70
128
10
0.000000
20
0.000000
30
0.000000
71
11
72
3
73
4
0
VERTEX
8
0
6
CONTINUOUS
62
252
70
128
10
0.000000
20
0.000000
30
0.000000
71
11
72
4
73
5
0
VERTEX
8
0
6
CONTINUOUS
62
252
70
128
10
0.000000
20
0.000000
30
0.000000
71
11
72
5
73
10
0
VERTEX
8
0
6
CONTINUOUS
62
252
70
128
10
0.000000
20
0.000000
30
0.000000
71
10
72
5
73
6
0
VERTEX
8
0
6
CONTINUOUS
62
252
70
128
10
0.000000
20
0.000000
30
0.000000
71
10
72
6
73
9
0
VERTEX
8
0
6
CONTINUOUS
62
252
70
128
10
0.000000
20
0.000000
30
0.000000
71
9
72
6
73
7
0
VERTEX
8
0
6
CONTINUOUS
62
252
70
128
10
0.000000
20
0.000000
30
0.000000
71
9
72
7
73
8
0
SEQEND
0
POLYLINE
66
1
8
0
6
CONTINUOUS
62
252
70
64
75
0
10
0.000000
20
0.000000
30
0.000000
0
VERTEX
8
0
6
CONTINUOUS
62
252
70
192
10
55.000000
20
11.359551
30
40.879358
0
VERTEX
8
0
6
CONTINUOUS
62
252
70
192
10
55.000000
20
-11.359551
30
40.879358
0
VERTEX
8
0
6
CONTINUOUS
62
252
70
192
10
-0.000000
20
-11.618492
30
42.800000
0
VERTEX
8
0
6
CONTINUOUS
62
252
70
192
10
-0.000000
20
11.618492
30
42.800000
0
VERTEX
8
0
6
CONTINUOUS
62
252
70
128
10
0.000000
20
0.000000
30
0.000000
71
1
72
2
73
4
0
VERTEX
8
0
6
CONTINUOUS
62
252
70
128
10
0.000000
20
0.000000
30
0.000000
71
4
72
2
73
3
0
SEQEND
0
POLYLINE
66
1
8
0
6
CONTINUOUS
62
252
70
64
75
0
10
0.000000
20
0.000000
30
0.000000
0
VERTEX
8
0
6
CONTINUOUS
62
252
70
192
10
55.000000
20
40.879358
30
11.359551
0
VERTEX
8
0
6
CONTINUOUS
62
252
70
192
10
55.000000
20
38.341895
30
18.167565
0
VERTEX
8
0
6
CONTINUOUS
62
252
70
192
10
55.000000
20
34.680097
30
24.442834
0
VERTEX
8
0
6
CONTINUOUS
62
252
70
192
10
55.000000
20
30.001344
30
30.001344
0
VERTEX
8
0
6
CONTINUOUS
62
252
70
192
10
55.000000
20
24.442834
30
34.680097
0
VERTEX
8
0
6
CONTINUOUS
62
252
70
192
10
55.000000
20
18.167565
30
38.341895
0
VERTEX
8
0
6
CONTINUOUS
62
252
70
192
10
55.000000
20
11.359551
30
40.879358
0
VERTEX
8
0
6
CONTINUOUS
62
252
70
192
10
-0.000000
20
11.618492
30
42.800000
0
VERTEX
8
0
6
CONTINUOUS
62
252
70
192
10
-0.000000
20
18.830330
30
40.152809
0
VERTEX
8
0
6
CONTINUOUS
62
252
70
192
10
-0.000000
20
25.477130
30
36.300760
0
VERTEX
8
0
6
CONTINUOUS
62
252
70
192
10
-0.000000
20
31.359443
30
31.359443
0
VERTEX
8
0
6
CONTINUOUS
62
252
70
192
10
-0.000000
20
36.300760
30
25.477130
0
VERTEX
8
0
6
CONTINUOUS
62
252
70
192
10
-0.000000
20
40.152809
30
18.830330
0
VERTEX
8
0
6
CONTINUOUS
62
252
70
192
10
-0.000000
20
42.800000
30
11.618492
0
VERTEX
8
0
6
CONTINUOUS
62
252
70
128
10
0.000000
20
0.000000
30
0.000000
71
14
72
1
73
13
0
VERTEX
8
0
6
CONTINUOUS
62
252
70
128
10
0.000000
20
0.000000
30
0.000000
71
13
72
1
73
2
0
VERTEX
8
0
6
CONTINUOUS
62
252
70
128
10
0.000000
20
0.000000
30
0.000000
71
13
72
2
73
12
0
VERTEX
8
0
6
CONTINUOUS
62
252
70
128
10
0.000000
20
0.000000
30
0.000000
71
12
72
2
73
3
0
VERTEX
8
0
6
CONTINUOUS
62
252
70
128
10
0.000000
20
0.000000
30
0.000000
71
12
72
3
73
11
0
VERTEX
8
0
6
CONTINUOUS
62
252
70
128
10
0.000000
20
0.000000
30
0.000000
71
11
72
3
73
4
0
VERTEX
8
0
6
CONTINUOUS
62
252
70
128
10
0.000000
20
0.000000
30
0.000000
71
11
72
4
73
5
0
VERTEX
8
0
6
CONTINUOUS
62
252
70
128
10
0.000000
20
0.000000
30
0.000000
71
11
72
5
73
10
0
VERTEX
8
0
6
CONTINUOUS
62
252
70
128
10
0.000000
20
0.000000
30
0.000000
71
10
72
5
73
6
0
VERTEX
8
0
6
CONTINUOUS
62
252
70
128
10
0.000000
20
0.000000
30
0.000000
71
10
72
6
73
9
0
VERTEX
8
0
6
CONTINUOUS
62
252
70
128
10
0.000000
20
0.000000
30
0.000000
71
9
72
6
73
7
0
VERTEX
8
0
6
CONTINUOUS
62
252
70
128
10
0.000000
20
0.000000
30
0.000000
71
9
72
7
73
8
0
SEQEND
0
POLYLINE
66
1
8
0
6
CONTINUOUS
62
252
70
64
75
0
10
0.000000
20
0.000000
30
0.000000
0
VERTEX
8
0
6
CONTINUOUS
62
252
70
192
10
55.000000
20
40.879358
30
-11.359551
0
VERTEX
8
0
6
CONTINUOUS
62
252
70
192
10
55.000000
20
40.879358
30
11.359551
0
VERTEX
8
0
6
CONTINUOUS
62
252
70
192
10
-0.000000
20
42.800000
30
11.618492
0
VERTEX
8
0
6
CONTINUOUS
62
252
70
192
10
0.000000
20
42.800000
30
-11.618492
0
VERTEX
8
0
6
CONTINUOUS
62
252
70
128
10
0.000000
20
0.000000
30
0.000000
71
2
72
3
73
1
0
VERTEX
8
0
6
CONTINUOUS
62
252
70
128
10
0.000000
20
0.000000
30
0.000000
71
1
72
3
73
4
0
SEQEND
0
POLYLINE
66
1
8
0
6
CONTINUOUS
62
252
70
64
75
0
10
0.000000
20
0.000000
30
0.000000
0
VERTEX
8
0
6
CONTINUOUS
62
252
70
192
10
55.000000
20
11.359551
30
-40.879358
0
VERTEX
8
0
6
CONTINUOUS
62
252
70
192
10
55.000000
20
18.167565
30
-38.341895
0
VERTEX
8
0
6
CONTINUOUS
62
252
70
192
10
55.000000
20
24.442834
30
-34.680097
0
VERTEX
8
0
6
CONTINUOUS
62
252
70
192
10
55.000000
20
30.001344
30
-30.001344
0
VERTEX
8
0
6
CONTINUOUS
62
252
70
192
10
55.000000
20
34.680097
30
-24.442834
0
VERTEX
8
0
6
CONTINUOUS
62
252
70
192
10
55.000000
20
38.341895
30
-18.167565
0
VERTEX
8
0
6
CONTINUOUS
62
252
70
192
10
55.000000
20
40.879358
30
-11.359551
0
VERTEX
8
0
6
CONTINUOUS
62
252
70
192
10
0.000000
20
42.800000
30
-11.618492
0
VERTEX
8
0
6
CONTINUOUS
62
252
70
192
10
0.000000
20
40.152809
30
-18.830330
0
VERTEX
8
0
6
CONTINUOUS
62
252
70
192
10
0.000000
20
36.300760
30
-25.477130
0
VERTEX
8
0
6
CONTINUOUS
62
252
70
192
10
0.000000
20
31.359443
30
-31.359443
0
VERTEX
8
0
6
CONTINUOUS
62
252
70
192
10
0.000000
20
25.477130
30
-36.300760
0
VERTEX
8
0
6
CONTINUOUS
62
252
70
192
10
0.000000
20
18.830330
30
-40.152809
0
VERTEX
8
0
6
CONTINUOUS
62
252
70
192
10
0.000000
20
11.618492
30
-42.800000
0
VERTEX
8
0
6
CONTINUOUS
62
252
70
128
10
0.000000
20
0.000000
30
0.000000
71
14
72
1
73
13
0
VERTEX
8
0
6
CONTINUOUS
62
252
70
128
10
0.000000
20
0.000000
30
0.000000
71
13
72
1
73
2
0
VERTEX
8
0
6
CONTINUOUS
62
252
70
128
10
0.000000
20
0.000000
30
0.000000
71
13
72
2
73
12
0
VERTEX
8
0
6
CONTINUOUS
62
252
70
128
10
0.000000
20
0.000000
30
0.000000
71
12
72
2
73
3
0
VERTEX
8
0
6
CONTINUOUS
62
252
70
128
10
0.000000
20
0.000000
30
0.000000
71
12
72
3
73
11
0
VERTEX
8
0
6
CONTINUOUS
62
252
70
128
10
0.000000
20
0.000000
30
0.000000
71
11
72
3
73
4
0
VERTEX
8
0
6
CONTINUOUS
62
252
70
128
10
0.000000
20
0.000000
30
0.000000
71
11
72
4
73
5
0
VERTEX
8
0
6
CONTINUOUS
62
252
70
128
10
0.000000
20
0.000000
30
0.000000
71
11
72
5
73
10
0
VERTEX
8
0
6
CONTINUOUS
62
252
70
128
10
0.000000
20
0.000000
30
0.000000
71
10
72
5
73
6
0
VERTEX
8
0
6
CONTINUOUS
62
252
70
128
10
0.000000
20
0.000000
30
0.000000
71
10
72
6
73
9
0
VERTEX
8
0
6
CONTINUOUS
62
252
70
128
10
0.000000
20
0.000000
30
0.000000
71
9
72
6
73
7
0
VERTEX
8
0
6
CONTINUOUS
62
252
70
128
10
0.000000
20
0.000000
30
0.000000
71
9
72
7
73
8
0
SEQEND
0
POLYLINE
66
1
8
0
6
CONTINUOUS
62
252
70
64
75
0
10
0.000000
20
0.000000
30
0.000000
0
VERTEX
8
0
6
CONTINUOUS
62
252
70
192
10
55.000000
20
-0.000000
30
4.500000
0
VERTEX
8
0
6
CONTINUOUS
62
252
70
192
10
55.000000
20
-0.781417
30
4.431635
0
VERTEX
8
0
6
CONTINUOUS
62
252
70
192
10
55.000000
20
-1.539091
30
4.228617
0
VERTEX
8
0
6
CONTINUOUS
62
252
70
192
10
55.000000
20
-2.250000
30
3.897114
0
VERTEX
8
0
6
CONTINUOUS
62
252
70
192
10
55.000000
20
-2.892544
30
3.447200
0
VERTEX
8
0
6
CONTINUOUS
62
252
70
192
10
55.000000
20
-3.447200
30
2.892544
0
VERTEX
8
0
6
CONTINUOUS
62
252
70
192
10
55.000000
20
-3.897114
30
2.250000
0
VERTEX
8
0
6
CONTINUOUS
62
252
70
192
10
55.000000
20
-4.228617
30
1.539091
0
VERTEX
8
0
6
CONTINUOUS
62
252
70
192
10
55.000000
20
-4.431635
30
0.781417
0
VERTEX
8
0
6
CONTINUOUS
62
252
70
192
10
55.000000
20
-4.500000
30
0.000000
0
VERTEX
8
0
6
CONTINUOUS
62
252
70
192
10
55.000000
20
-4.431635
30
-0.781417
0
VERTEX
8
0
6
CONTINUOUS
62
252
70
192
10
55.000000
20
-4.228617
30
-1.539091
0
VERTEX
8
0
6
CONTINUOUS
62
252
70
192
10
55.000000
20
-3.897114
30
-2.250000
0
VERTEX
8
0
6
CONTINUOUS
62
252
70
192
10
55.000000
20
-3.447200
30
-2.892544
0
VERTEX
8
0
6
CONTINUOUS
62
252
70
192
10
55.000000
20
-2.892544
30
-3.447200
0
VERTEX
8
0
6
CONTINUOUS
62
252
70
192
10
55.000000
20
-2.250000
30
-3.897114
0
VERTEX
8
0
6
CONTINUOUS
62
252
70
192
10
55.000000
20
-1.539091
30
-4.228617
0
VERTEX
8
0
6
CONTINUOUS
62
252
70
192
10
55.000000
20
-0.781417
30
-4.431635
0
VERTEX
8
0
6
CONTINUOUS
62
252
70
192
10
55.000000
20
0.000000
30
-4.500000
0
VERTEX
8
0
6
CONTINUOUS
62
252
70
192
10
55.000000
20
0.781417
30
-4.431635
0
VERTEX
8
0
6
CONTINUOUS
62
252
70
192
10
55.000000
20
1.539091
30
-4.228617
0
VERTEX
8
0
6
CONTINUOUS
62
252
70
192
10
55.000000
20
2.250000
30
-3.897114
0
VERTEX
8
0
6
CONTINUOUS
62
252
70
192
10
55.000000
20
2.892544
30
-3.447200
0
VERTEX
8
0
6
CONTINUOUS
62
252
70
192
10
55.000000
20
3.447200
30
-2.892544
0
VERTEX
8
0
6
CONTINUOUS
62
252
70
192
10
55.000000
20
3.897114
30
-2.250000
0
VERTEX
8
0
6
CONTINUOUS
62
252
70
192
10
55.000000
20
4.228617
30
-1.539091
0
VERTEX
8
0
6
CONTINUOUS
62
252
70
192
10
55.000000
20
4.431635
30
-0.781417
0
VERTEX
8
0
6
CONTINUOUS
62
252
70
192
10
55.000000
20
4.500000
30
0.000000
0
VERTEX
8
0
6
CONTINUOUS
62
252
70
192
10
55.000000
20
4.431635
30
0.781417
0
VERTEX
8
0
6
CONTINUOUS
62
252
70
192
10
55.000000
20
4.228617
30
1.539091
0
VERTEX
8
0
6
CONTINUOUS
62
252
70
192
10
55.000000
20
3.897114
30
2.250000
0
VERTEX
8
0
6
CONTINUOUS
62
252
70
192
10
55.000000
20
3.447200
30
2.892544
0
VERTEX
8
0
6
CONTINUOUS
62
252
70
192
10
55.000000
20
2.892544
30
3.447200
0
VERTEX
8
0
6
CONTINUOUS
62
252
70
192
10
55.000000
20
2.250000
30
3.897114
0
VERTEX
8
0
6
CONTINUOUS
62
252
70
192
10
55.000000
20
1.539091
30
4.228617
0
VERTEX
8
0
6
CONTINUOUS
62
252
70
192
10
55.000000
20
0.781417
30
4.431635
0
VERTEX
8
0
6
CONTINUOUS
62
252
70
192
10
55.000000
20
11.359551
30
-40.879358
0
VERTEX
8
0
6
CONTINUOUS
62
252
70
192
10
55.000000
20
-11.359551
30
-40.879358
0
VERTEX
8
0
6
CONTINUOUS
62
252
70
192
10
55.000000
20
-18.167565
30
-38.341895
0
VERTEX
8
0
6
CONTINUOUS
62
252
70
192
10
55.000000
20
-24.442834
30
-34.680097
0
VERTEX
8
0
6
CONTINUOUS
62
252
70
192
10
55.000000
20
-30.001344
30
-30.001344
0
VERTEX
8
0
6
CONTINUOUS
62
252
70
192
10
55.000000
20
-34.680097
30
-24.442834
0
VERTEX
8
0
6
CONTINUOUS
62
252
70
192
10
55.000000
20
-38.341895
30
-18.167565
0
VERTEX
8
0
6
CONTINUOUS
62
252
70
192
10
55.000000
20
-40.879358
30
-11.359551
0
VERTEX
8
0
6
CONTINUOUS
62
252
70
192
10
55.000000
20
-40.879358
30
11.359551
0
VERTEX
8
0
6
CONTINUOUS
62
252
70
192
10
55.000000
20
-38.341895
30
18.167565
0
VERTEX
8
0
6
CONTINUOUS
62
252
70
192
10
55.000000
20
-34.680097
30
24.442834
0
VERTEX
8
0
6
CONTINUOUS
62
252
70
192
10
55.000000
20
-30.001344
30
30.001344
0
VERTEX
8
0
6
CONTINUOUS
62
252
70
192
10
55.000000
20
-24.442834
30
34.680097
0
VERTEX
8
0
6
CONTINUOUS
62
252
70
192
10
55.000000
20
-18.167565
30
38.341895
0
VERTEX
8
0
6
CONTINUOUS
62
252
70
192
10
55.000000
20
-11.359551
30
40.879358
0
VERTEX
8
0
6
CONTINUOUS
62
252
70
192
10
55.000000
20
11.359551
30
40.879358
0
VERTEX
8
0
6
CONTINUOUS
62
252
70
192
10
55.000000
20
18.167565
30
38.341895
0
VERTEX
8
0
6
CONTINUOUS
62
252
70
192
10
55.000000
20
24.442834
30
34.680097
0
VERTEX
8
0
6
CONTINUOUS
62
252
70
192
10
55.000000
20
30.001344
30
30.001344
0
VERTEX
8
0
6
CONTINUOUS
62
252
70
192
10
55.000000
20
34.680097
30
24.442834
0
VERTEX
8
0
6
CONTINUOUS
62
252
70
192
10
55.000000
20
38.341895
30
18.167565
0
VERTEX
8
0
6
CONTINUOUS
62
252
70
192
10
55.000000
20
40.879358
30
11.359551
0
VERTEX
8
0
6
CONTINUOUS
62
252
70
192
10
55.000000
20
40.879358
30
-11.359551
0
VERTEX
8
0
6
CONTINUOUS
62
252
70
192
10
55.000000
20
38.341895
30
-18.167565
0
VERTEX
8
0
6
CONTINUOUS
62
252
70
192
10
55.000000
20
34.680097
30
-24.442834
0
VERTEX
8
0
6
CONTINUOUS
62
252
70
192
10
55.000000
20
30.001344
30
-30.001344
0
VERTEX
8
0
6
CONTINUOUS
62
252
70
192
10
55.000000
20
24.442834
30
-34.680097
0
VERTEX
8
0
6
CONTINUOUS
62
252
70
192
10
55.000000
20
18.167565
30
-38.341895
0
VERTEX
8
0
6
CONTINUOUS
62
252
70
128
10
0.000000
20
0.000000
30
0.000000
71
2
72
51
73
1
0
VERTEX
8
0
6
CONTINUOUS
62
252
70
128
10
0.000000
20
0.000000
30
0.000000
71
1
72
51
73
52
0
VERTEX
8
0
6
CONTINUOUS
62
252
70
128
10
0.000000
20
0.000000
30
0.000000
71
1
72
52
73
36
0
VERTEX
8
0
6
CONTINUOUS
62
252
70
128
10
0.000000
20
0.000000
30
0.000000
71
36
72
52
73
35
0
VERTEX
8
0
6
CONTINUOUS
62
252
70
128
10
0.000000
20
0.000000
30
0.000000
71
35
72
52
73
53
0
VERTEX
8
0
6
CONTINUOUS
62
252
70
128
10
0.000000
20
0.000000
30
0.000000
71
35
72
53
73
34
0
VERTEX
8
0
6
CONTINUOUS
62
252
70
128
10
0.000000
20
0.000000
30
0.000000
71
34
72
53
73
54
0
VERTEX
8
0
6
CONTINUOUS
62
252
70
128
10
0.000000
20
0.000000
30
0.000000
71
34
72
54
73
33
0
VERTEX
8
0
6
CONTINUOUS
62
252
70
128
10
0.000000
20
0.000000
30
0.000000
71
33
72
54
73
55
0
VERTEX
8
0
6
CONTINUOUS
62
252
70
128
10
0.000000
20
0.000000
30
0.000000
71
33
72
55
73
32
0
VERTEX
8
0
6
CONTINUOUS
62
252
70
128
10
0.000000
20
0.000000
30
0.000000
71
32
72
55
73
56
0
VERTEX
8
0
6
CONTINUOUS
62
252
70
128
10
0.000000
20
0.000000
30
0.000000
71
32
72
56
73
31
0
VERTEX
8
0
6
CONTINUOUS
62
252
70
128
10
0.000000
20
0.000000
30
0.000000
71
31
72
56
73
57
0
VERTEX
8
0
6
CONTINUOUS
62
252
70
128
10
0.000000
20
0.000000
30
0.000000
71
31
72
57
73
30
0
VERTEX
8
0
6
CONTINUOUS
62
252
70
128
10
0.000000
20
0.000000
30
0.000000
71
30
72
57
73
58
0
VERTEX
8
0
6
CONTINUOUS
62
252
70
128
10
0.000000
20
0.000000
30
0.000000
71
30
72
58
73
29
0
VERTEX
8
0
6
CONTINUOUS
62
252
70
128
10
0.000000
20
0.000000
30
0.000000
71
29
72
58
73
28
0
VERTEX
8
0
6
CONTINUOUS
62
252
70
128
10
0.000000
20
0.000000
30
0.000000
71
28
72
58
73
59
0
VERTEX
8
0
6
CONTINUOUS
62
252
70
128
10
0.000000
20
0.000000
30
0.000000
71
28
72
59
73
27
0
VERTEX
8
0
6
CONTINUOUS
62
252
70
128
10
0.000000
20
0.000000
30
0.000000
71
27
72
59
73
26
0
VERTEX
8
0
6
CONTINUOUS
62
252
70
128
10
0.000000
20
0.000000
30
0.000000
71
26
72
59
73
60
0
VERTEX
8
0
6
CONTINUOUS
62
252
70
128
10
0.000000
20
0.000000
30
0.000000
71
26
72
60
73
25
0
VERTEX
8
0
6
CONTINUOUS
62
252
70
128
10
0.000000
20
0.000000
30
0.000000
71
25
72
60
73
61
0
VERTEX
8
0
6
CONTINUOUS
62
252
70
128
10
0.000000
20
0.000000
30
0.000000
71
25
72
61
73
24
0
VERTEX
8
0
6
CONTINUOUS
62
252
70
128
10
0.000000
20
0.000000
30
0.000000
71
24
72
61
73
62
0
VERTEX
8
0
6
CONTINUOUS
62
252
70
128
10
0.000000
20
0.000000
30
0.000000
71
24
72
62
73
23
0
VERTEX
8
0
6
CONTINUOUS
62
252
70
128
10
0.000000
20
0.000000
30
0.000000
71
23
72
62
73
63
0
VERTEX
8
0
6
CONTINUOUS
62
252
70
128
10
0.000000
20
0.000000
30
0.000000
71
23
72
63
73
22
0
VERTEX
8
0
6
CONTINUOUS
62
252
70
128
10
0.000000
20
0.000000
30
0.000000
71
22
72
63
73
64
0
VERTEX
8
0
6
CONTINUOUS
62
252
70
128
10
0.000000
20
0.000000
30
0.000000
71
22
72
64
73
21
0
VERTEX
8
0
6
CONTINUOUS
62
252
70
128
10
0.000000
20
0.000000
30
0.000000
71
21
72
64
73
37
0
VERTEX
8
0
6
CONTINUOUS
62
252
70
128
10
0.000000
20
0.000000
30
0.000000
71
21
72
37
73
20
0
VERTEX
8
0
6
CONTINUOUS
62
252
70
128
10
0.000000
20
0.000000
30
0.000000
71
20
72
37
73
19
0
VERTEX
8
0
6
CONTINUOUS
62
252
70
128
10
0.000000
20
0.000000
30
0.000000
71
19
72
37
73
38
0
VERTEX
8
0
6
CONTINUOUS
62
252
70
128
10
0.000000
20
0.000000
30
0.000000
71
19
72
38
73
18
0
VERTEX
8
0
6
CONTINUOUS
62
252
70
128
10
0.000000
20
0.000000
30
0.000000
71
18
72
38
73
17
0
VERTEX
8
0
6
CONTINUOUS
62
252
70
128
10
0.000000
20
0.000000
30
0.000000
71
17
72
38
73
39
0
VERTEX
8
0
6
CONTINUOUS
62
252
70
128
10
0.000000
20
0.000000
30
0.000000
71
17
72
39
73
16
0
VERTEX
8
0
6
CONTINUOUS
62
252
70
128
10
0.000000
20
0.000000
30
0.000000
71
16
72
39
73
40
0
VERTEX
8
0
6
CONTINUOUS
62
252
70
128
10
0.000000
20
0.000000
30
0.000000
71
16
72
40
73
15
0
VERTEX
8
0
6
CONTINUOUS
62
252
70
128
10
0.000000
20
0.000000
30
0.000000
71
15
72
40
73
41
0
VERTEX
8
0
6
CONTINUOUS
62
252
70
128
10
0.000000
20
0.000000
30
0.000000
71
15
72
41
73
14
0
VERTEX
8
0
6
CONTINUOUS
62
252
70
128
10
0.000000
20
0.000000
30
0.000000
71
14
72
41
73
42
0
VERTEX
8
0
6
CONTINUOUS
62
252
70
128
10
0.000000
20
0.000000
30
0.000000
71
14
72
42
73
13
0
VERTEX
8
0
6
CONTINUOUS
62
252
70
128
10
0.000000
20
0.000000
30
0.000000
71
13
72
42
73
43
0
VERTEX
8
0
6
CONTINUOUS
62
252
70
128
10
0.000000
20
0.000000
30
0.000000
71
13
72
43
73
12
0
VERTEX
8
0
6
CONTINUOUS
62
252
70
128
10
0.000000
20
0.000000
30
0.000000
71
12
72
43
73
44
0
VERTEX
8
0
6
CONTINUOUS
62
252
70
128
10
0.000000
20
0.000000
30
0.000000
71
12
72
44
73
11
0
VERTEX
8
0
6
CONTINUOUS
62
252
70
128
10
0.000000
20
0.000000
30
0.000000
71
11
72
44
73
10
0
VERTEX
8
0
6
CONTINUOUS
62
252
70
128
10
0.000000
20
0.000000
30
0.000000
71
10
72
44
73
45
0
VERTEX
8
0
6
CONTINUOUS
62
252
70
128
10
0.000000
20
0.000000
30
0.000000
71
10
72
45
73
9
0
VERTEX
8
0
6
CONTINUOUS
62
252
70
128
10
0.000000
20
0.000000
30
0.000000
71
9
72
45
73
8
0
VERTEX
8
0
6
CONTINUOUS
62
252
70
128
10
0.000000
20
0.000000
30
0.000000
71
8
72
45
73
46
0
VERTEX
8
0
6
CONTINUOUS
62
252
70
128
10
0.000000
20
0.000000
30
0.000000
71
8
72
46
73
7
0
VERTEX
8
0
6
CONTINUOUS
62
252
70
128
10
0.000000
20
0.000000
30
0.000000
71
7
72
46
73
47
0
VERTEX
8
0
6
CONTINUOUS
62
252
70
128
10
0.000000
20
0.000000
30
0.000000
71
7
72
47
73
6
0
VERTEX
8
0
6
CONTINUOUS
62
252
70
128
10
0.000000
20
0.000000
30
0.000000
71
6
72
47
73
48
0
VERTEX
8
0
6
CONTINUOUS
62
252
70
128
10
0.000000
20
0.000000
30
0.000000
71
6
72
48
73
5
0
VERTEX
8
0
6
CONTINUOUS
62
252
70
128
10
0.000000
20
0.000000
30
0.000000
71
5
72
48
73
49
0
VERTEX
8
0
6
CONTINUOUS
62
252
70
128
10
0.000000
20
0.000000
30
0.000000
71
5
72
49
73
4
0
VERTEX
8
0
6
CONTINUOUS
62
252
70
128
10
0.000000
20
0.000000
30
0.000000
71
4
72
49
73
50
0
VERTEX
8
0
6
CONTINUOUS
62
252
70
128
10
0.000000
20
0.000000
30
0.000000
71
4
72
50
73
3
0
VERTEX
8
0
6
CONTINUOUS
62
252
70
128
10
0.000000
20
0.000000
30
0.000000
71
3
72
50
73
51
0
VERTEX
8
0
6
CONTINUOUS
62
252
70
128
10
0.000000
20
0.000000
30
0.000000
71
3
72
51
73
2
0
SEQEND
0
POLYLINE
66
1
8
0
6
CONTINUOUS
62
252
70
64
75
0
10
0.000000
20
0.000000
30
0.000000
0
VERTEX
8
0
6
CONTINUOUS
62
252
70
192
10
1.200000
20
40.092954
30
40.092954
0
VERTEX
8
0
6
CONTINUOUS
62
252
70
192
10
1.200000
20
39.465362
30
40.619567
0
VERTEX
8
0
6
CONTINUOUS
62
252
70
192
10
1.200000
20
38.755858
30
41.029199
0
VERTEX
8
0
6
CONTINUOUS
62
252
70
192
10
1.200000
20
37.986002
30
41.309404
0
VERTEX
8
0
6
CONTINUOUS
62
252
70
192
10
1.200000
20
37.179185
30
41.451668
0
VERTEX
8
0
6
CONTINUOUS
62
252
70
192
10
1.200000
20
36.359921
30
41.451668
0
VERTEX
8
0
6
CONTINUOUS
62
252
70
192
10
1.200000
20
35.553103
30
41.309404
0
VERTEX
8
0
6
CONTINUOUS
62
252
70
192
10
1.200000
20
34.783247
30
41.029199
0
VERTEX
8
0
6
CONTINUOUS
62
252
70
192
10
1.200000
20
34.073743
30
40.619567
0
VERTEX
8
0
6
CONTINUOUS
62
252
70
192
10
1.200000
20
33.446151
30
40.092954
0
VERTEX
8
0
6
CONTINUOUS
62
252
70
192
10
1.200000
20
32.919538
30
39.465362
0
VERTEX
8
0
6
CONTINUOUS
62
252
70
192
10
1.200000
20
32.509906
30
38.755858
0
VERTEX
8
0
6
CONTINUOUS
62
252
70
192
10
1.200000
20
32.229701
30
37.986002
0
VERTEX
8
0
6
CONTINUOUS
62
252
70
192
10
1.200000
20
32.087438
30
37.179185
0
VERTEX
8
0
6
CONTINUOUS
62
252
70
192
10
1.200000
20
32.087438
30
36.359921
0
VERTEX
8
0
6
CONTINUOUS
62
252
70
192
10
1.200000
20
32.229701
30
35.553103
0
VERTEX
8
0
6
CONTINUOUS
62
252
70
192
10
1.200000
20
32.509906
30
34.783247
0
VERTEX
8
0
6
CONTINUOUS
62
252
70
192
10
1.200000
20
32.919538
30
34.073743
0
VERTEX
8
0
6
CONTINUOUS
62
252
70
192
10
1.200000
20
33.446151
30
33.446151
0
VERTEX
8
0
6
CONTINUOUS
62
252
70
192
10
1.200000
20
34.073743
30
32.919538
0
VERTEX
8
0
6
CONTINUOUS
62
252
70
192
10
1.200000
20
34.783247
30
32.509906
0
VERTEX
8
0
6
CONTINUOUS
62
252
70
192
10
1.200000
20
35.553103
30
32.229701
0
VERTEX
8
0
6
CONTINUOUS
62
252
70
192
10
1.200000
20
36.359921
30
32.087438
0
VERTEX
8
0
6
CONTINUOUS
62
252
70
192
10
1.200000
20
37.179185
30
32.087438
0
VERTEX
8
0
6
CONTINUOUS
62
252
70
192
10
1.200000
20
37.986002
30
32.229701
0
VERTEX
8
0
6
CONTINUOUS
62
252
70
192
10
1.200000
20
38.755858
30
32.509906
0
VERTEX
8
0
6
CONTINUOUS
62
252
70
192
10
1.200000
20
39.465362
30
32.919538
0
VERTEX
8
0
6
CONTINUOUS
62
252
70
192
10
1.200000
20
40.092954
30
33.446151
0
VERTEX
8
0
6
CONTINUOUS
62
252
70
192
10
1.200000
20
40.619567
30
34.073743
0
VERTEX
8
0
6
CONTINUOUS
62
252
70
192
10
1.200000
20
41.029199
30
34.783247
0
VERTEX
8
0
6
CONTINUOUS
62
252
70
192
10
1.200000
20
41.309404
30
35.553103
0
VERTEX
8
0
6
CONTINUOUS
62
252
70
192
10
1.200000
20
41.451668
30
36.359921
0
VERTEX
8
0
6
CONTINUOUS
62
252
70
192
10
1.200000
20
41.451668
30
37.179185
0
VERTEX
8
0
6
CONTINUOUS
62
252
70
192
10
1.200000
20
41.309404
30
37.986002
0
VERTEX
8
0
6
CONTINUOUS
62
252
70
192
10
1.200000
20
41.029199
30
38.755858
0
VERTEX
8
0
6
CONTINUOUS
62
252
70
192
10
1.200000
20
40.619567
30
39.465362
0
VERTEX
8
0
6
CONTINUOUS
62
252
70
192
10
-0.000000
20
33.446151
30
33.446151
0
VERTEX
8
0
6
CONTINUOUS
62
252
70
192
10
-0.000000
20
32.919538
30
34.073743
0
VERTEX
8
0
6
CONTINUOUS
62
252
70
192
10
-0.000000
20
32.509906
30
34.783247
0
VERTEX
8
0
6
CONTINUOUS
62
252
70
192
10
-0.000000
20
32.229701
30
35.553103
0
VERTEX
8
0
6
CONTINUOUS
62
252
70
192
10
-0.000000
20
32.087438
30
36.359921
0
VERTEX
8
0
6
CONTINUOUS
62
252
70
192
10
-0.000000
20
32.087438
30
37.179185
0
VERTEX
8
0
6
CONTINUOUS
62
252
70
192
10
-0.000000
20
32.229701
30
37.986002
0
VERTEX
8
0
6
CONTINUOUS
62
252
70
192
10
-0.000000
20
32.509906
30
38.755858
0
VERTEX
8
0
6
CONTINUOUS
62
252
70
192
10
-0.000000
20
32.919538
30
39.465362
0
VERTEX
8
0
6
CONTINUOUS
62
252
70
192
10
-0.000000
20
33.446151
30
40.092954
0
VERTEX
8
0
6
CONTINUOUS
62
252
70
192
10
-0.000000
20
34.073743
30
40.619567
0
VERTEX
8
0
6
CONTINUOUS
62
252
70
192
10
-0.000000
20
34.783247
30
41.029199
0
VERTEX
8
0
6
CONTINUOUS
62
252
70
192
10
-0.000000
20
35.553103
30
41.309404
0
VERTEX
8
0
6
CONTINUOUS
62
252
70
192
10
-0.000000
20
36.359921
30
41.451668
0
VERTEX
8
0
6
CONTINUOUS
62
252
70
192
10
-0.000000
20
37.179185
30
41.451668
0
VERTEX
8
0
6
CONTINUOUS
62
252
70
192
10
-0.000000
20
37.986002
30
41.309404
0
VERTEX
8
0
6
CONTINUOUS
62
252
70
192
10
-0.000000
20
38.755858
30
41.029199
0
VERTEX
8
0
6
CONTINUOUS
62
252
70
192
10
-0.000000
20
39.465362
30
40.619567
0
VERTEX
8
0
6
CONTINUOUS
62
252
70
192
10
-0.000000
20
40.092954
30
40.092954
0
VERTEX
8
0
6
CONTINUOUS
62
252
70
192
10
-0.000000
20
40.619567
30
39.465362
0
VERTEX
8
0
6
CONTINUOUS
62
252
70
192
10
-0.000000
20
41.029199
30
38.755858
0
VERTEX
8
0
6
CONTINUOUS
62
252
70
192
10
-0.000000
20
41.309404
30
37.986002
0
VERTEX
8
0
6
CONTINUOUS
62
252
70
192
10
-0.000000
20
41.451668
30
37.179185
0
VERTEX
8
0
6
CONTINUOUS
62
252
70
192
10
-0.000000
20
41.451668
30
36.359921
0
VERTEX
8
0
6
CONTINUOUS
62
252
70
192
10
-0.000000
20
41.309404
30
35.553103
0
VERTEX
8
0
6
CONTINUOUS
62
252
70
192
10
-0.000000
20
41.029199
30
34.783247
0
VERTEX
8
0
6
CONTINUOUS
62
252
70
192
10
-0.000000
20
40.619567
30
34.073743
0
VERTEX
8
0
6
CONTINUOUS
62
252
70
192
10
-0.000000
20
40.092954
30
33.446151
0
VERTEX
8
0
6
CONTINUOUS
62
252
70
192
10
-0.000000
20
39.465362
30
32.919538
0
VERTEX
8
0
6
CONTINUOUS
62
252
70
192
10
-0.000000
20
38.755858
30
32.509906
0
VERTEX
8
0
6
CONTINUOUS
62
252
70
192
10
-0.000000
20
37.986002
30
32.229701
0
VERTEX
8
0
6
CONTINUOUS
62
252
70
192
10
-0.000000
20
37.179185
30
32.087438
0
VERTEX
8
0
6
CONTINUOUS
62
252
70
192
10
-0.000000
20
36.359921
30
32.087438
0
VERTEX
8
0
6
CONTINUOUS
62
252
70
192
10
-0.000000
20
35.553103
30
32.229701
0
VERTEX
8
0
6
CONTINUOUS
62
252
70
192
10
-0.000000
20
34.783247
30
32.509906
0
VERTEX
8
0
6
CONTINUOUS
62
252
70
192
10
-0.000000
20
34.073743
30
32.919538
0
VERTEX
8
0
6
CONTINUOUS
62
252
70
128
10
0.000000
20
0.000000
30
0.000000
71
2
72
54
73
1
0
VERTEX
8
0
6
CONTINUOUS
62
252
70
128
10
0.000000
20
0.000000
30
0.000000
71
1
72
54
73
55
0
VERTEX
8
0
6
CONTINUOUS
62
252
70
128
10
0.000000
20
0.000000
30
0.000000
71
1
72
55
73
36
0
VERTEX
8
0
6
CONTINUOUS
62
252
70
128
10
0.000000
20
0.000000
30
0.000000
71
36
72
55
73
56
0
VERTEX
8
0
6
CONTINUOUS
62
252
70
128
10
0.000000
20
0.000000
30
0.000000
71
36
72
56
73
35
0
VERTEX
8
0
6
CONTINUOUS
62
252
70
128
10
0.000000
20
0.000000
30
0.000000
71
35
72
56
73
57
0
VERTEX
8
0
6
CONTINUOUS
62
252
70
128
10
0.000000
20
0.000000
30
0.000000
71
35
72
57
73
34
0
VERTEX
8
0
6
CONTINUOUS
62
252
70
128
10
0.000000
20
0.000000
30
0.000000
71
34
72
57
73
58
0
VERTEX
8
0
6
CONTINUOUS
62
252
70
128
10
0.000000
20
0.000000
30
0.000000
71
34
72
58
73
59
0
VERTEX
8
0
6
CONTINUOUS
62
252
70
128
10
0.000000
20
0.000000
30
0.000000
71
54
72
2
73
53
0
VERTEX
8
0
6
CONTINUOUS
62
252
70
128
10
0.000000
20
0.000000
30
0.000000
71
53
72
2
73
3
0
VERTEX
8
0
6
CONTINUOUS
62
252
70
128
10
0.000000
20
0.000000
30
0.000000
71
53
72
3
73
52
0
VERTEX
8
0
6
CONTINUOUS
62
252
70
128
10
0.000000
20
0.000000
30
0.000000
71
52
72
3
73
4
0
VERTEX
8
0
6
CONTINUOUS
62
252
70
128
10
0.000000
20
0.000000
30
0.000000
71
52
72
4
73
51
0
VERTEX
8
0
6
CONTINUOUS
62
252
70
128
10
0.000000
20
0.000000
30
0.000000
71
51
72
4
73
5
0
VERTEX
8
0
6
CONTINUOUS
62
252
70
128
10
0.000000
20
0.000000
30
0.000000
71
51
72
5
73
50
0
VERTEX
8
0
6
CONTINUOUS
62
252
70
128
10
0.000000
20
0.000000
30
0.000000
71
50
72
5
73
6
0
VERTEX
8
0
6
CONTINUOUS
62
252
70
128
10
0.000000
20
0.000000
30
0.000000
71
50
72
6
73
49
0
VERTEX
8
0
6
CONTINUOUS
62
252
70
128
10
0.000000
20
0.000000
30
0.000000
71
49
72
6
73
7
0
VERTEX
8
0
6
CONTINUOUS
62
252
70
128
10
0.000000
20
0.000000
30
0.000000
71
49
72
7
73
48
0
VERTEX
8
0
6
CONTINUOUS
62
252
70
128
10
0.000000
20
0.000000
30
0.000000
71
48
72
7
73
8
0
VERTEX
8
0
6
CONTINUOUS
62
252
70
128
10
0.000000
20
0.000000
30
0.000000
71
48
72
8
73
47
0
VERTEX
8
0
6
CONTINUOUS
62
252
70
128
10
0.000000
20
0.000000
30
0.000000
71
47
72
8
73
9
0
VERTEX
8
0
6
CONTINUOUS
62
252
70
128
10
0.000000
20
0.000000
30
0.000000
71
47
72
9
73
46
0
VERTEX
8
0
6
CONTINUOUS
62
252
70
128
10
0.000000
20
0.000000
30
0.000000
71
46
72
9
73
10
0
VERTEX
8
0
6
CONTINUOUS
62
252
70
128
10
0.000000
20
0.000000
30
0.000000
71
46
72
10
73
45
0
VERTEX
8
0
6
CONTINUOUS
62
252
70
128
10
0.000000
20
0.000000
30
0.000000
71
45
72
10
73
11
0
VERTEX
8
0
6
CONTINUOUS
62
252
70
128
10
0.000000
20
0.000000
30
0.000000
71
45
72
11
73
44
0
VERTEX
8
0
6
CONTINUOUS
62
252
70
128
10
0.000000
20
0.000000
30
0.000000
71
44
72
11
73
12
0
VERTEX
8
0
6
CONTINUOUS
62
252
70
128
10
0.000000
20
0.000000
30
0.000000
71
44
72
12
73
43
0
VERTEX
8
0
6
CONTINUOUS
62
252
70
128
10
0.000000
20
0.000000
30
0.000000
71
43
72
12
73
13
0
VERTEX
8
0
6
CONTINUOUS
62
252
70
128
10
0.000000
20
0.000000
30
0.000000
71
43
72
13
73
42
0
VERTEX
8
0
6
CONTINUOUS
62
252
70
128
10
0.000000
20
0.000000
30
0.000000
71
42
72
13
73
14
0
VERTEX
8
0
6
CONTINUOUS
62
252
70
128
10
0.000000
20
0.000000
30
0.000000
71
42
72
14
73
41
0
VERTEX
8
0
6
CONTINUOUS
62
252
70
128
10
0.000000
20
0.000000
30
0.000000
71
41
72
14
73
15
0
VERTEX
8
0
6
CONTINUOUS
62
252
70
128
10
0.000000
20
0.000000
30
0.000000
71
41
72
15
73
40
0
VERTEX
8
0
6
CONTINUOUS
62
252
70
128
10
0.000000
20
0.000000
30
0.000000
71
40
72
15
73
16
0
VERTEX
8
0
6
CONTINUOUS
62
252
70
128
10
0.000000
20
0.000000
30
0.000000
71
40
72
16
73
39
0
VERTEX
8
0
6
CONTINUOUS
62
252
70
128
10
0.000000
20
0.000000
30
0.000000
71
39
72
16
73
17
0
VERTEX
8
0
6
CONTINUOUS
62
252
70
128
10
0.000000
20
0.000000
30
0.000000
71
39
72
17
73
38
0
VERTEX
8
0
6
CONTINUOUS
62
252
70
128
10
0.000000
20
0.000000
30
0.000000
71
38
72
17
73
18
0
VERTEX
8
0
6
CONTINUOUS
62
252
70
128
10
0.000000
20
0.000000
30
0.000000
71
38
72
18
73
37
0
VERTEX
8
0
6
CONTINUOUS
62
252
70
128
10
0.000000
20
0.000000
30
0.000000
71
37
72
18
73
19
0
VERTEX
8
0
6
CONTINUOUS
62
252
70
128
10
0.000000
20
0.000000
30
0.000000
71
37
72
19
73
72
0
VERTEX
8
0
6
CONTINUOUS
62
252
70
128
10
0.000000
20
0.000000
30
0.000000
71
72
72
19
73
20
0
VERTEX
8
0
6
CONTINUOUS
62
252
70
128
10
0.000000
20
0.000000
30
0.000000
71
72
72
20
73
71
0
VERTEX
8
0
6
CONTINUOUS
62
252
70
128
10
0.000000
20
0.000000
30
0.000000
71
71
72
20
73
21
0
VERTEX
8
0
6
CONTINUOUS
62
252
70
128
10
0.000000
20
0.000000
30
0.000000
71
71
72
21
73
70
0
VERTEX
8
0
6
CONTINUOUS
62
252
70
128
10
0.000000
20
0.000000
30
0.000000
71
70
72
21
73
22
0
VERTEX
8
0
6
CONTINUOUS
62
252
70
128
10
0.000000
20
0.000000
30
0.000000
71
70
72
22
73
69
0
VERTEX
8
0
6
CONTINUOUS
62
252
70
128
10
0.000000
20
0.000000
30
0.000000
71
69
72
22
73
23
0
VERTEX
8
0
6
CONTINUOUS
62
252
70
128
10
0.000000
20
0.000000
30
0.000000
71
69
72
23
73
68
0
VERTEX
8
0
6
CONTINUOUS
62
252
70
128
10
0.000000
20
0.000000
30
0.000000
71
68
72
23
73
24
0
VERTEX
8
0
6
CONTINUOUS
62
252
70
128
10
0.000000
20
0.000000
30
0.000000
71
68
72
24
73
67
0
VERTEX
8
0
6
CONTINUOUS
62
252
70
128
10
0.000000
20
0.000000
30
0.000000
71
67
72
24
73
25
0
VERTEX
8
0
6
CONTINUOUS
62
252
70
128
10
0.000000
20
0.000000
30
0.000000
71
67
72
25
73
66
0
VERTEX
8
0
6
CONTINUOUS
62
252
70
128
10
0.000000
20
0.000000
30
0.000000
71
66
72
25
73
26
0
VERTEX
8
0
6
CONTINUOUS
62
252
70
128
10
0.000000
20
0.000000
30
0.000000
71
66
72
26
73
65
0
VERTEX
8
0
6
CONTINUOUS
62
252
70
128
10
0.000000
20
0.000000
30
0.000000
71
65
72
26
73
27
0
VERTEX
8
0
6
CONTINUOUS
62
252
70
128
10
0.000000
20
0.000000
30
0.000000
71
65
72
27
73
64
0
VERTEX
8
0
6
CONTINUOUS
62
252
70
128
10
0.000000
20
0.000000
30
0.000000
71
64
72
27
73
28
0
VERTEX
8
0
6
CONTINUOUS
62
252
70
128
10
0.000000
20
0.000000
30
0.000000
71
64
72
28
73
29
0
VERTEX
8
0
6
CONTINUOUS
62
252
70
128
10
0.000000
20
0.000000
30
0.000000
71
64
72
29
73
63
0
VERTEX
8
0
6
CONTINUOUS
62
252
70
128
10
0.000000
20
0.000000
30
0.000000
71
63
72
29
73
30
0
VERTEX
8
0
6
CONTINUOUS
62
252
70
128
10
0.000000
20
0.000000
30
0.000000
71
63
72
30
73
62
0
VERTEX
8
0
6
CONTINUOUS
62
252
70
128
10
0.000000
20
0.000000
30
0.000000
71
62
72
30
73
31
0
VERTEX
8
0
6
CONTINUOUS
62
252
70
128
10
0.000000
20
0.000000
30
0.000000
71
62
72
31
73
61
0
VERTEX
8
0
6
CONTINUOUS
62
252
70
128
10
0.000000
20
0.000000
30
0.000000
71
61
72
31
73
60
0
VERTEX
8
0
6
CONTINUOUS
62
252
70
128
10
0.000000
20
0.000000
30
0.000000
71
60
72
31
73
32
0
VERTEX
8
0
6
CONTINUOUS
62
252
70
128
10
0.000000
20
0.000000
30
0.000000
71
60
72
32
73
33
0
VERTEX
8
0
6
CONTINUOUS
62
252
70
128
10
0.000000
20
0.000000
30
0.000000
71
60
72
33
73
59
0
VERTEX
8
0
6
CONTINUOUS
62
252
70
128
10
0.000000
20
0.000000
30
0.000000
71
59
72
33
73
34
0
SEQEND
0
POLYLINE
66
1
8
0
6
CONTINUOUS
62
252
70
64
75
0
10
0.000000
20
0.000000
30
0.000000
0
VERTEX
8
0
6
CONTINUOUS
62
252
70
192
10
1.200000
20
40.092954
30
-40.092954
0
VERTEX
8
0
6
CONTINUOUS
62
252
70
192
10
1.200000
20
40.619567
30
-39.465362
0
VERTEX
8
0
6
CONTINUOUS
62
252
70
192
10
1.200000
20
41.029199
30
-38.755858
0
VERTEX
8
0
6
CONTINUOUS
62
252
70
192
10
1.200000
20
41.309404
30
-37.986002
0
VERTEX
8
0
6
CONTINUOUS
62
252
70
192
10
1.200000
20
41.451668
30
-37.179185
0
VERTEX
8
0
6
CONTINUOUS
62
252
70
192
10
1.200000
20
41.451668
30
-36.359921
0
VERTEX
8
0
6
CONTINUOUS
62
252
70
192
10
1.200000
20
41.309404
30
-35.553103
0
VERTEX
8
0
6
CONTINUOUS
62
252
70
192
10
1.200000
20
41.029199
30
-34.783247
0
VERTEX
8
0
6
CONTINUOUS
62
252
70
192
10
1.200000
20
40.619567
30
-34.073743
0
VERTEX
8
0
6
CONTINUOUS
62
252
70
192
10
1.200000
20
40.092954
30
-33.446151
0
VERTEX
8
0
6
CONTINUOUS
62
252
70
192
10
1.200000
20
39.465362
30
-32.919538
0
VERTEX
8
0
6
CONTINUOUS
62
252
70
192
10
1.200000
20
38.755858
30
-32.509906
0
VERTEX
8
0
6
CONTINUOUS
62
252
70
192
10
1.200000
20
37.986002
30
-32.229701
0
VERTEX
8
0
6
CONTINUOUS
62
252
70
192
10
1.200000
20
37.179185
30
-32.087438
0
VERTEX
8
0
6
CONTINUOUS
62
252
70
192
10
1.200000
20
36.359921
30
-32.087438
0
VERTEX
8
0
6
CONTINUOUS
62
252
70
192
10
1.200000
20
35.553103
30
-32.229701
0
VERTEX
8
0
6
CONTINUOUS
62
252
70
192
10
1.200000
20
34.783247
30
-32.509906
0
VERTEX
8
0
6
CONTINUOUS
62
252
70
192
10
1.200000
20
34.073743
30
-32.919538
0
VERTEX
8
0
6
CONTINUOUS
62
252
70
192
10
1.200000
20
33.446151
30
-33.446151
0
VERTEX
8
0
6
CONTINUOUS
62
252
70
192
10
1.200000
20
32.919538
30
-34.073743
0
VERTEX
8
0
6
CONTINUOUS
62
252
70
192
10
1.200000
20
32.509906
30
-34.783247
0
VERTEX
8
0
6
CONTINUOUS
62
252
70
192
10
1.200000
20
32.229701
30
-35.553103
0
VERTEX
8
0
6
CONTINUOUS
62
252
70
192
10
1.200000
20
32.087438
30
-36.359921
0
VERTEX
8
0
6
CONTINUOUS
62
252
70
192
10
1.200000
20
32.087438
30
-37.179185
0
VERTEX
8
0
6
CONTINUOUS
62
252
70
192
10
1.200000
20
32.229701
30
-37.986002
0
VERTEX
8
0
6
CONTINUOUS
62
252
70
192
10
1.200000
20
32.509906
30
-38.755858
0
VERTEX
8
0
6
CONTINUOUS
62
252
70
192
10
1.200000
20
32.919538
30
-39.465362
0
VERTEX
8
0
6
CONTINUOUS
62
252
70
192
10
1.200000
20
33.446151
30
-40.092954
0
VERTEX
8
0
6
CONTINUOUS
62
252
70
192
10
1.200000
20
34.073743
30
-40.619567
0
VERTEX
8
0
6
CONTINUOUS
62
252
70
192
10
1.200000
20
34.783247
30
-41.029199
0
VERTEX
8
0
6
CONTINUOUS
62
252
70
192
10
1.200000
20
35.553103
30
-41.309404
0
VERTEX
8
0
6
CONTINUOUS
62
252
70
192
10
1.200000
20
36.359921
30
-41.451668
0
VERTEX
8
0
6
CONTINUOUS
62
252
70
192
10
1.200000
20
37.179185
30
-41.451668
0
VERTEX
8
0
6
CONTINUOUS
62
252
70
192
10
1.200000
20
37.986002
30
-41.309404
0
VERTEX
8
0
6
CONTINUOUS
62
252
70
192
10
1.200000
20
38.755858
30
-41.029199
0
VERTEX
8
0
6
CONTINUOUS
62
252
70
192
10
1.200000
20
39.465362
30
-40.619567
0
VERTEX
8
0
6
CONTINUOUS
62
252
70
192
10
0.000000
20
33.446151
30
-33.446151
0
VERTEX
8
0
6
CONTINUOUS
62
252
70
192
10
0.000000
20
34.073743
30
-32.919538
0
VERTEX
8
0
6
CONTINUOUS
62
252
70
192
10
0.000000
20
34.783247
30
-32.509906
0
VERTEX
8
0
6
CONTINUOUS
62
252
70
192
10
0.000000
20
35.553103
30
-32.229701
0
VERTEX
8
0
6
CONTINUOUS
62
252
70
192
10
0.000000
20
36.359921
30
-32.087438
0
VERTEX
8
0
6
CONTINUOUS
62
252
70
192
10
0.000000
20
37.179185
30
-32.087438
0
VERTEX
8
0
6
CONTINUOUS
62
252
70
192
10
0.000000
20
37.986002
30
-32.229701
0
VERTEX
8
0
6
CONTINUOUS
62
252
70
192
10
0.000000
20
38.755858
30
-32.509906
0
VERTEX
8
0
6
CONTINUOUS
62
252
70
192
10
0.000000
20
39.465362
30
-32.919538
0
VERTEX
8
0
6
CONTINUOUS
62
252
70
192
10
0.000000
20
40.092954
30
-33.446151
0
VERTEX
8
0
6
CONTINUOUS
62
252
70
192
10
0.000000
20
40.619567
30
-34.073743
0
VERTEX
8
0
6
CONTINUOUS
62
252
70
192
10
0.000000
20
41.029199
30
-34.783247
0
VERTEX
8
0
6
CONTINUOUS
62
252
70
192
10
0.000000
20
41.309404
30
-35.553103
0
VERTEX
8
0
6
CONTINUOUS
62
252
70
192
10
0.000000
20
41.451668
30
-36.359921
0
VERTEX
8
0
6
CONTINUOUS
62
252
70
192
10
0.000000
20
41.451668
30
-37.179185
0
VERTEX
8
0
6
CONTINUOUS
62
252
70
192
10
0.000000
20
41.309404
30
-37.986002
0
VERTEX
8
0
6
CONTINUOUS
62
252
70
192
10
0.000000
20
41.029199
30
-38.755858
0
VERTEX
8
0
6
CONTINUOUS
62
252
70
192
10
0.000000
20
40.619567
30
-39.465362
0
VERTEX
8
0
6
CONTINUOUS
62
252
70
192
10
0.000000
20
40.092954
30
-40.092954
0
VERTEX
8
0
6
CONTINUOUS
62
252
70
192
10
0.000000
20
39.465362
30
-40.619567
0
VERTEX
8
0
6
CONTINUOUS
62
252
70
192
10
0.000000
20
38.755858
30
-41.029199
0
VERTEX
8
0
6
CONTINUOUS
62
252
70
192
10
0.000000
20
37.986002
30
-41.309404
0
VERTEX
8
0
6
CONTINUOUS
62
252
70
192
10
0.000000
20
37.179185
30
-41.451668
0
VERTEX
8
0
6
CONTINUOUS
62
252
70
192
10
0.000000
20
36.359921
30
-41.451668
0
VERTEX
8
0
6
CONTINUOUS
62
252
70
192
10
0.000000
20
35.553103
30
-41.309404
0
VERTEX
8
0
6
CONTINUOUS
62
252
70
192
10
0.000000
20
34.783247
30
-41.029199
0
VERTEX
8
0
6
CONTINUOUS
62
252
70
192
10
0.000000
20
34.073743
30
-40.619567
0
VERTEX
8
0
6
CONTINUOUS
62
252
70
192
10
0.000000
20
33.446151
30
-40.092954
0
VERTEX
8
0
6
CONTINUOUS
62
252
70
192
10
0.000000
20
32.919538
30
-39.465362
0
VERTEX
8
0
6
CONTINUOUS
62
252
70
192
10
0.000000
20
32.509906
30
-38.755858
0
VERTEX
8
0
6
CONTINUOUS
62
252
70
192
10
0.000000
20
32.229701
30
-37.986002
0
VERTEX
8
0
6
CONTINUOUS
62
252
70
192
10
0.000000
20
32.087438
30
-37.179185
0
VERTEX
8
0
6
CONTINUOUS
62
252
70
192
10
0.000000
20
32.087438
30
-36.359921
0
VERTEX
8
0
6
CONTINUOUS
62
252
70
192
10
0.000000
20
32.229701
30
-35.553103
0
VERTEX
8
0
6
CONTINUOUS
62
252
70
192
10
0.000000
20
32.509906
30
-34.783247
0
VERTEX
8
0
6
CONTINUOUS
62
252
70
192
10
0.000000
20
32.919538
30
-34.073743
0
VERTEX
8
0
6
CONTINUOUS
62
252
70
128
10
0.000000
20
0.000000
30
0.000000
71
2
72
54
73
1
0
VERTEX
8
0
6
CONTINUOUS
62
252
70
128
10
0.000000
20
0.000000
30
0.000000
71
1
72
54
73
55
0
VERTEX
8
0
6
CONTINUOUS
62
252
70
128
10
0.000000
20
0.000000
30
0.000000
71
1
72
55
73
36
0
VERTEX
8
0
6
CONTINUOUS
62
252
70
128
10
0.000000
20
0.000000
30
0.000000
71
36
72
55
73
56
0
VERTEX
8
0
6
CONTINUOUS
62
252
70
128
10
0.000000
20
0.000000
30
0.000000
71
36
72
56
73
35
0
VERTEX
8
0
6
CONTINUOUS
62
252
70
128
10
0.000000
20
0.000000
30
0.000000
71
35
72
56
73
57
0
VERTEX
8
0
6
CONTINUOUS
62
252
70
128
10
0.000000
20
0.000000
30
0.000000
71
35
72
57
73
34
0
VERTEX
8
0
6
CONTINUOUS
62
252
70
128
10
0.000000
20
0.000000
30
0.000000
71
34
72
57
73
58
0
VERTEX
8
0
6
CONTINUOUS
62
252
70
128
10
0.000000
20
0.000000
30
0.000000
71
34
72
58
73
59
0
VERTEX
8
0
6
CONTINUOUS
62
252
70
128
10
0.000000
20
0.000000
30
0.000000
71
54
72
2
73
53
0
VERTEX
8
0
6
CONTINUOUS
62
252
70
128
10
0.000000
20
0.000000
30
0.000000
71
53
72
2
73
3
0
VERTEX
8
0
6
CONTINUOUS
62
252
70
128
10
0.000000
20
0.000000
30
0.000000
71
53
72
3
73
52
0
VERTEX
8
0
6
CONTINUOUS
62
252
70
128
10
0.000000
20
0.000000
30
0.000000
71
52
72
3
73
4
0
VERTEX
8
0
6
CONTINUOUS
62
252
70
128
10
0.000000
20
0.000000
30
0.000000
71
52
72
4
73
51
0
VERTEX
8
0
6
CONTINUOUS
62
252
70
128
10
0.000000
20
0.000000
30
0.000000
71
51
72
4
73
5
0
VERTEX
8
0
6
CONTINUOUS
62
252
70
128
10
0.000000
20
0.000000
30
0.000000
71
51
72
5
73
50
0
VERTEX
8
0
6
CONTINUOUS
62
252
70
128
10
0.000000
20
0.000000
30
0.000000
71
50
72
5
73
6
0
VERTEX
8
0
6
CONTINUOUS
62
252
70
128
10
0.000000
20
0.000000
30
0.000000
71
50
72
6
73
49
0
VERTEX
8
0
6
CONTINUOUS
62
252
70
128
10
0.000000
20
0.000000
30
0.000000
71
49
72
6
73
7
0
VERTEX
8
0
6
CONTINUOUS
62
252
70
128
10
0.000000
20
0.000000
30
0.000000
71
49
72
7
73
48
0
VERTEX
8
0
6
CONTINUOUS
62
252
70
128
10
0.000000
20
0.000000
30
0.000000
71
48
72
7
73
8
0
VERTEX
8
0
6
CONTINUOUS
62
252
70
128
10
0.000000
20
0.000000
30
0.000000
71
48
72
8
73
47
0
VERTEX
8
0
6
CONTINUOUS
62
252
70
128
10
0.000000
20
0.000000
30
0.000000
71
47
72
8
73
9
0
VERTEX
8
0
6
CONTINUOUS
62
252
70
128
10
0.000000
20
0.000000
30
0.000000
71
47
72
9
73
46
0
VERTEX
8
0
6
CONTINUOUS
62
252
70
128
10
0.000000
20
0.000000
30
0.000000
71
46
72
9
73
10
0
VERTEX
8
0
6
CONTINUOUS
62
252
70
128
10
0.000000
20
0.000000
30
0.000000
71
46
72
10
73
45
0
VERTEX
8
0
6
CONTINUOUS
62
252
70
128
10
0.000000
20
0.000000
30
0.000000
71
45
72
10
73
11
0
VERTEX
8
0
6
CONTINUOUS
62
252
70
128
10
0.000000
20
0.000000
30
0.000000
71
45
72
11
73
44
0
VERTEX
8
0
6
CONTINUOUS
62
252
70
128
10
0.000000
20
0.000000
30
0.000000
71
44
72
11
73
12
0
VERTEX
8
0
6
CONTINUOUS
62
252
70
128
10
0.000000
20
0.000000
30
0.000000
71
44
72
12
73
43
0
VERTEX
8
0
6
CONTINUOUS
62
252
70
128
10
0.000000
20
0.000000
30
0.000000
71
43
72
12
73
13
0
VERTEX
8
0
6
CONTINUOUS
62
252
70
128
10
0.000000
20
0.000000
30
0.000000
71
43
72
13
73
42
0
VERTEX
8
0
6
CONTINUOUS
62
252
70
128
10
0.000000
20
0.000000
30
0.000000
71
42
72
13
73
14
0
VERTEX
8
0
6
CONTINUOUS
62
252
70
128
10
0.000000
20
0.000000
30
0.000000
71
42
72
14
73
41
0
VERTEX
8
0
6
CONTINUOUS
62
252
70
128
10
0.000000
20
0.000000
30
0.000000
71
41
72
14
73
15
0
VERTEX
8
0
6
CONTINUOUS
62
252
70
128
10
0.000000
20
0.000000
30
0.000000
71
41
72
15
73
40
0
VERTEX
8
0
6
CONTINUOUS
62
252
70
128
10
0.000000
20
0.000000
30
0.000000
71
40
72
15
73
16
0
VERTEX
8
0
6
CONTINUOUS
62
252
70
128
10
0.000000
20
0.000000
30
0.000000
71
40
72
16
73
39
0
VERTEX
8
0
6
CONTINUOUS
62
252
70
128
10
0.000000
20
0.000000
30
0.000000
71
39
72
16
73
17
0
VERTEX
8
0
6
CONTINUOUS
62
252
70
128
10
0.000000
20
0.000000
30
0.000000
71
39
72
17
73
38
0
VERTEX
8
0
6
CONTINUOUS
62
252
70
128
10
0.000000
20
0.000000
30
0.000000
71
38
72
17
73
18
0
VERTEX
8
0
6
CONTINUOUS
62
252
70
128
10
0.000000
20
0.000000
30
0.000000
71
38
72
18
73
37
0
VERTEX
8
0
6
CONTINUOUS
62
252
70
128
10
0.000000
20
0.000000
30
0.000000
71
37
72
18
73
19
0
VERTEX
8
0
6
CONTINUOUS
62
252
70
128
10
0.000000
20
0.000000
30
0.000000
71
37
72
19
73
72
0
VERTEX
8
0
6
CONTINUOUS
62
252
70
128
10
0.000000
20
0.000000
30
0.000000
71
72
72
19
73
20
0
VERTEX
8
0
6
CONTINUOUS
62
252
70
128
10
0.000000
20
0.000000
30
0.000000
71
72
72
20
73
71
0
VERTEX
8
0
6
CONTINUOUS
62
252
70
128
10
0.000000
20
0.000000
30
0.000000
71
71
72
20
73
21
0
VERTEX
8
0
6
CONTINUOUS
62
252
70
128
10
0.000000
20
0.000000
30
0.000000
71
71
72
21
73
70
0
VERTEX
8
0
6
CONTINUOUS
62
252
70
128
10
0.000000
20
0.000000
30
0.000000
71
70
72
21
73
22
0
VERTEX
8
0
6
CONTINUOUS
62
252
70
128
10
0.000000
20
0.000000
30
0.000000
71
70
72
22
73
69
0
VERTEX
8
0
6
CONTINUOUS
62
252
70
128
10
0.000000
20
0.000000
30
0.000000
71
69
72
22
73
23
0
VERTEX
8
0
6
CONTINUOUS
62
252
70
128
10
0.000000
20
0.000000
30
0.000000
71
69
72
23
73
68
0
VERTEX
8
0
6
CONTINUOUS
62
252
70
128
10
0.000000
20
0.000000
30
0.000000
71
68
72
23
73
24
0
VERTEX
8
0
6
CONTINUOUS
62
252
70
128
10
0.000000
20
0.000000
30
0.000000
71
68
72
24
73
67
0
VERTEX
8
0
6
CONTINUOUS
62
252
70
128
10
0.000000
20
0.000000
30
0.000000
71
67
72
24
73
25
0
VERTEX
8
0
6
CONTINUOUS
62
252
70
128
10
0.000000
20
0.000000
30
0.000000
71
67
72
25
73
66
0
VERTEX
8
0
6
CONTINUOUS
62
252
70
128
10
0.000000
20
0.000000
30
0.000000
71
66
72
25
73
26
0
VERTEX
8
0
6
CONTINUOUS
62
252
70
128
10
0.000000
20
0.000000
30
0.000000
71
66
72
26
73
65
0
VERTEX
8
0
6
CONTINUOUS
62
252
70
128
10
0.000000
20
0.000000
30
0.000000
71
65
72
26
73
27
0
VERTEX
8
0
6
CONTINUOUS
62
252
70
128
10
0.000000
20
0.000000
30
0.000000
71
65
72
27
73
64
0
VERTEX
8
0
6
CONTINUOUS
62
252
70
128
10
0.000000
20
0.000000
30
0.000000
71
64
72
27
73
28
0
VERTEX
8
0
6
CONTINUOUS
62
252
70
128
10
0.000000
20
0.000000
30
0.000000
71
64
72
28
73
29
0
VERTEX
8
0
6
CONTINUOUS
62
252
70
128
10
0.000000
20
0.000000
30
0.000000
71
64
72
29
73
63
0
VERTEX
8
0
6
CONTINUOUS
62
252
70
128
10
0.000000
20
0.000000
30
0.000000
71
63
72
29
73
30
0
VERTEX
8
0
6
CONTINUOUS
62
252
70
128
10
0.000000
20
0.000000
30
0.000000
71
63
72
30
73
62
0
VERTEX
8
0
6
CONTINUOUS
62
252
70
128
10
0.000000
20
0.000000
30
0.000000
71
62
72
30
73
61
0
VERTEX
8
0
6
CONTINUOUS
62
252
70
128
10
0.000000
20
0.000000
30
0.000000
71
61
72
30
73
31
0
VERTEX
8
0
6
CONTINUOUS
62
252
70
128
10
0.000000
20
0.000000
30
0.000000
71
61
72
31
73
60
0
VERTEX
8
0
6
CONTINUOUS
62
252
70
128
10
0.000000
20
0.000000
30
0.000000
71
60
72
31
73
32
0
VERTEX
8
0
6
CONTINUOUS
62
252
70
128
10
0.000000
20
0.000000
30
0.000000
71
60
72
32
73
33
0
VERTEX
8
0
6
CONTINUOUS
62
252
70
128
10
0.000000
20
0.000000
30
0.000000
71
60
72
33
73
59
0
VERTEX
8
0
6
CONTINUOUS
62
252
70
128
10
0.000000
20
0.000000
30
0.000000
71
59
72
33
73
34
0
SEQEND
0
POLYLINE
66
1
8
0
6
CONTINUOUS
62
252
70
64
75
0
10
0.000000
20
0.000000
30
0.000000
0
VERTEX
8
0
6
CONTINUOUS
62
252
70
192
10
1.200000
20
-40.092954
30
-40.092954
0
VERTEX
8
0
6
CONTINUOUS
62
252
70
192
10
1.200000
20
-39.465362
30
-40.619567
0
VERTEX
8
0
6
CONTINUOUS
62
252
70
192
10
1.200000
20
-38.755858
30
-41.029199
0
VERTEX
8
0
6
CONTINUOUS
62
252
70
192
10
1.200000
20
-37.986002
30
-41.309404
0
VERTEX
8
0
6
CONTINUOUS
62
252
70
192
10
1.200000
20
-37.179185
30
-41.451668
0
VERTEX
8
0
6
CONTINUOUS
62
252
70
192
10
1.200000
20
-36.359921
30
-41.451668
0
VERTEX
8
0
6
CONTINUOUS
62
252
70
192
10
1.200000
20
-35.553103
30
-41.309404
0
VERTEX
8
0
6
CONTINUOUS
62
252
70
192
10
1.200000
20
-34.783247
30
-41.029199
0
VERTEX
8
0
6
CONTINUOUS
62
252
70
192
10
1.200000
20
-34.073743
30
-40.619567
0
VERTEX
8
0
6
CONTINUOUS
62
252
70
192
10
1.200000
20
-33.446151
30
-40.092954
0
VERTEX
8
0
6
CONTINUOUS
62
252
70
192
10
1.200000
20
-32.919538
30
-39.465362
0
VERTEX
8
0
6
CONTINUOUS
62
252
70
192
10
1.200000
20
-32.509906
30
-38.755858
0
VERTEX
8
0
6
CONTINUOUS
62
252
70
192
10
1.200000
20
-32.229701
30
-37.986002
0
VERTEX
8
0
6
CONTINUOUS
62
252
70
192
10
1.200000
20
-32.087438
30
-37.179185
0
VERTEX
8
0
6
CONTINUOUS
62
252
70
192
10
1.200000
20
-32.087438
30
-36.359921
0
VERTEX
8
0
6
CONTINUOUS
62
252
70
192
10
1.200000
20
-32.229701
30
-35.553103
0
VERTEX
8
0
6
CONTINUOUS
62
252
70
192
10
1.200000
20
-32.509906
30
-34.783247
0
VERTEX
8
0
6
CONTINUOUS
62
252
70
192
10
1.200000
20
-32.919538
30
-34.073743
0
VERTEX
8
0
6
CONTINUOUS
62
252
70
192
10
1.200000
20
-33.446151
30
-33.446151
0
VERTEX
8
0
6
CONTINUOUS
62
252
70
192
10
1.200000
20
-34.073743
30
-32.919538
0
VERTEX
8
0
6
CONTINUOUS
62
252
70
192
10
1.200000
20
-34.783247
30
-32.509906
0
VERTEX
8
0
6
CONTINUOUS
62
252
70
192
10
1.200000
20
-35.553103
30
-32.229701
0
VERTEX
8
0
6
CONTINUOUS
62
252
70
192
10
1.200000
20
-36.359921
30
-32.087438
0
VERTEX
8
0
6
CONTINUOUS
62
252
70
192
10
1.200000
20
-37.179185
30
-32.087438
0
VERTEX
8
0
6
CONTINUOUS
62
252
70
192
10
1.200000
20
-37.986002
30
-32.229701
0
VERTEX
8
0
6
CONTINUOUS
62
252
70
192
10
1.200000
20
-38.755858
30
-32.509906
0
VERTEX
8
0
6
CONTINUOUS
62
252
70
192
10
1.200000
20
-39.465362
30
-32.919538
0
VERTEX
8
0
6
CONTINUOUS
62
252
70
192
10
1.200000
20
-40.092954
30
-33.446151
0
VERTEX
8
0
6
CONTINUOUS
62
252
70
192
10
1.200000
20
-40.619567
30
-34.073743
0
VERTEX
8
0
6
CONTINUOUS
62
252
70
192
10
1.200000
20
-41.029199
30
-34.783247
0
VERTEX
8
0
6
CONTINUOUS
62
252
70
192
10
1.200000
20
-41.309404
30
-35.553103
0
VERTEX
8
0
6
CONTINUOUS
62
252
70
192
10
1.200000
20
-41.451668
30
-36.359921
0
VERTEX
8
0
6
CONTINUOUS
62
252
70
192
10
1.200000
20
-41.451668
30
-37.179185
0
VERTEX
8
0
6
CONTINUOUS
62
252
70
192
10
1.200000
20
-41.309404
30
-37.986002
0
VERTEX
8
0
6
CONTINUOUS
62
252
70
192
10
1.200000
20
-41.029199
30
-38.755858
0
VERTEX
8
0
6
CONTINUOUS
62
252
70
192
10
1.200000
20
-40.619567
30
-39.465362
0
VERTEX
8
0
6
CONTINUOUS
62
252
70
192
10
0.000000
20
-33.446151
30
-33.446151
0
VERTEX
8
0
6
CONTINUOUS
62
252
70
192
10
0.000000
20
-32.919538
30
-34.073743
0
VERTEX
8
0
6
CONTINUOUS
62
252
70
192
10
0.000000
20
-32.509906
30
-34.783247
0
VERTEX
8
0
6
CONTINUOUS
62
252
70
192
10
0.000000
20
-32.229701
30
-35.553103
0
VERTEX
8
0
6
CONTINUOUS
62
252
70
192
10
0.000000
20
-32.087438
30
-36.359921
0
VERTEX
8
0
6
CONTINUOUS
62
252
70
192
10
0.000000
20
-32.087438
30
-37.179185
0
VERTEX
8
0
6
CONTINUOUS
62
252
70
192
10
0.000000
20
-32.229701
30
-37.986002
0
VERTEX
8
0
6
CONTINUOUS
62
252
70
192
10
0.000000
20
-32.509906
30
-38.755858
0
VERTEX
8
0
6
CONTINUOUS
62
252
70
192
10
0.000000
20
-32.919538
30
-39.465362
0
VERTEX
8
0
6
CONTINUOUS
62
252
70
192
10
0.000000
20
-33.446151
30
-40.092954
0
VERTEX
8
0
6
CONTINUOUS
62
252
70
192
10
0.000000
20
-34.073743
30
-40.619567
0
VERTEX
8
0
6
CONTINUOUS
62
252
70
192
10
0.000000
20
-34.783247
30
-41.029199
0
VERTEX
8
0
6
CONTINUOUS
62
252
70
192
10
0.000000
20
-35.553103
30
-41.309404
0
VERTEX
8
0
6
CONTINUOUS
62
252
70
192
10
0.000000
20
-36.359921
30
-41.451668
0
VERTEX
8
0
6
CONTINUOUS
62
252
70
192
10
0.000000
20
-37.179185
30
-41.451668
0
VERTEX
8
0
6
CONTINUOUS
62
252
70
192
10
0.000000
20
-37.986002
30
-41.309404
0
VERTEX
8
0
6
CONTINUOUS
62
252
70
192
10
0.000000
20
-38.755858
30
-41.029199
0
VERTEX
8
0
6
CONTINUOUS
62
252
70
192
10
0.000000
20
-39.465362
30
-40.619567
0
VERTEX
8
0
6
CONTINUOUS
62
252
70
192
10
0.000000
20
-40.092954
30
-40.092954
0
VERTEX
8
0
6
CONTINUOUS
62
252
70
192
10
0.000000
20
-40.619567
30
-39.465362
0
VERTEX
8
0
6
CONTINUOUS
62
252
70
192
10
0.000000
20
-41.029199
30
-38.755858
0
VERTEX
8
0
6
CONTINUOUS
62
252
70
192
10
0.000000
20
-41.309404
30
-37.986002
0
VERTEX
8
0
6
CONTINUOUS
62
252
70
192
10
0.000000
20
-41.451668
30
-37.179185
0
VERTEX
8
0
6
CONTINUOUS
62
252
70
192
10
0.000000
20
-41.451668
30
-36.359921
0
VERTEX
8
0
6
CONTINUOUS
62
252
70
192
10
0.000000
20
-41.309404
30
-35.553103
0
VERTEX
8
0
6
CONTINUOUS
62
252
70
192
10
0.000000
20
-41.029199
30
-34.783247
0
VERTEX
8
0
6
CONTINUOUS
62
252
70
192
10
0.000000
20
-40.619567
30
-34.073743
0
VERTEX
8
0
6
CONTINUOUS
62
252
70
192
10
0.000000
20
-40.092954
30
-33.446151
0
VERTEX
8
0
6
CONTINUOUS
62
252
70
192
10
0.000000
20
-39.465362
30
-32.919538
0
VERTEX
8
0
6
CONTINUOUS
62
252
70
192
10
0.000000
20
-38.755858
30
-32.509906
0
VERTEX
8
0
6
CONTINUOUS
62
252
70
192
10
0.000000
20
-37.986002
30
-32.229701
0
VERTEX
8
0
6
CONTINUOUS
62
252
70
192
10
0.000000
20
-37.179185
30
-32.087438
0
VERTEX
8
0
6
CONTINUOUS
62
252
70
192
10
0.000000
20
-36.359921
30
-32.087438
0
VERTEX
8
0
6
CONTINUOUS
62
252
70
192
10
0.000000
20
-35.553103
30
-32.229701
0
VERTEX
8
0
6
CONTINUOUS
62
252
70
192
10
0.000000
20
-34.783247
30
-32.509906
0
VERTEX
8
0
6
CONTINUOUS
62
252
70
192
10
0.000000
20
-34.073743
30
-32.919538
0
VERTEX
8
0
6
CONTINUOUS
62
252
70
128
10
0.000000
20
0.000000
30
0.000000
71
2
72
54
73
1
0
VERTEX
8
0
6
CONTINUOUS
62
252
70
128
10
0.000000
20
0.000000
30
0.000000
71
1
72
54
73
55
0
VERTEX
8
0
6
CONTINUOUS
62
252
70
128
10
0.000000
20
0.000000
30
0.000000
71
1
72
55
73
36
0
VERTEX
8
0
6
CONTINUOUS
62
252
70
128
10
0.000000
20
0.000000
30
0.000000
71
36
72
55
73
56
0
VERTEX
8
0
6
CONTINUOUS
62
252
70
128
10
0.000000
20
0.000000
30
0.000000
71
36
72
56
73
35
0
VERTEX
8
0
6
CONTINUOUS
62
252
70
128
10
0.000000
20
0.000000
30
0.000000
71
35
72
56
73
57
0
VERTEX
8
0
6
CONTINUOUS
62
252
70
128
10
0.000000
20
0.000000
30
0.000000
71
35
72
57
73
34
0
VERTEX
8
0
6
CONTINUOUS
62
252
70
128
10
0.000000
20
0.000000
30
0.000000
71
34
72
57
73
58
0
VERTEX
8
0
6
CONTINUOUS
62
252
70
128
10
0.000000
20
0.000000
30
0.000000
71
34
72
58
73
33
0
VERTEX
8
0
6
CONTINUOUS
62
252
70
128
10
0.000000
20
0.000000
30
0.000000
71
33
72
58
73
59
0
VERTEX
8
0
6
CONTINUOUS
62
252
70
128
10
0.000000
20
0.000000
30
0.000000
71
33
72
59
73
32
0
VERTEX
8
0
6
CONTINUOUS
62
252
70
128
10
0.000000
20
0.000000
30
0.000000
71
32
72
59
73
60
0
VERTEX
8
0
6
CONTINUOUS
62
252
70
128
10
0.000000
20
0.000000
30
0.000000
71
32
72
60
73
31
0
VERTEX
8
0
6
CONTINUOUS
62
252
70
128
10
0.000000
20
0.000000
30
0.000000
71
31
72
60
73
61
0
VERTEX
8
0
6
CONTINUOUS
62
252
70
128
10
0.000000
20
0.000000
30
0.000000
71
31
72
61
73
30
0
VERTEX
8
0
6
CONTINUOUS
62
252
70
128
10
0.000000
20
0.000000
30
0.000000
71
30
72
61
73
62
0
VERTEX
8
0
6
CONTINUOUS
62
252
70
128
10
0.000000
20
0.000000
30
0.000000
71
30
72
62
73
29
0
VERTEX
8
0
6
CONTINUOUS
62
252
70
128
10
0.000000
20
0.000000
30
0.000000
71
29
72
62
73
63
0
VERTEX
8
0
6
CONTINUOUS
62
252
70
128
10
0.000000
20
0.000000
30
0.000000
71
29
72
63
73
28
0
VERTEX
8
0
6
CONTINUOUS
62
252
70
128
10
0.000000
20
0.000000
30
0.000000
71
28
72
63
73
64
0
VERTEX
8
0
6
CONTINUOUS
62
252
70
128
10
0.000000
20
0.000000
30
0.000000
71
28
72
64
73
27
0
VERTEX
8
0
6
CONTINUOUS
62
252
70
128
10
0.000000
20
0.000000
30
0.000000
71
27
72
64
73
65
0
VERTEX
8
0
6
CONTINUOUS
62
252
70
128
10
0.000000
20
0.000000
30
0.000000
71
27
72
65
73
26
0
VERTEX
8
0
6
CONTINUOUS
62
252
70
128
10
0.000000
20
0.000000
30
0.000000
71
26
72
65
73
66
0
VERTEX
8
0
6
CONTINUOUS
62
252
70
128
10
0.000000
20
0.000000
30
0.000000
71
26
72
66
73
25
0
VERTEX
8
0
6
CONTINUOUS
62
252
70
128
10
0.000000
20
0.000000
30
0.000000
71
25
72
66
73
67
0
VERTEX
8
0
6
CONTINUOUS
62
252
70
128
10
0.000000
20
0.000000
30
0.000000
71
25
72
67
73
24
0
VERTEX
8
0
6
CONTINUOUS
62
252
70
128
10
0.000000
20
0.000000
30
0.000000
71
24
72
67
73
68
0
VERTEX
8
0
6
CONTINUOUS
62
252
70
128
10
0.000000
20
0.000000
30
0.000000
71
24
72
68
73
23
0
VERTEX
8
0
6
CONTINUOUS
62
252
70
128
10
0.000000
20
0.000000
30
0.000000
71
23
72
68
73
69
0
VERTEX
8
0
6
CONTINUOUS
62
252
70
128
10
0.000000
20
0.000000
30
0.000000
71
23
72
69
73
22
0
VERTEX
8
0
6
CONTINUOUS
62
252
70
128
10
0.000000
20
0.000000
30
0.000000
71
22
72
69
73
70
0
VERTEX
8
0
6
CONTINUOUS
62
252
70
128
10
0.000000
20
0.000000
30
0.000000
71
22
72
70
73
21
0
VERTEX
8
0
6
CONTINUOUS
62
252
70
128
10
0.000000
20
0.000000
30
0.000000
71
21
72
70
73
71
0
VERTEX
8
0
6
CONTINUOUS
62
252
70
128
10
0.000000
20
0.000000
30
0.000000
71
21
72
71
73
20
0
VERTEX
8
0
6
CONTINUOUS
62
252
70
128
10
0.000000
20
0.000000
30
0.000000
71
20
72
71
73
72
0
VERTEX
8
0
6
CONTINUOUS
62
252
70
128
10
0.000000
20
0.000000
30
0.000000
71
20
72
72
73
19
0
VERTEX
8
0
6
CONTINUOUS
62
252
70
128
10
0.000000
20
0.000000
30
0.000000
71
19
72
72
73
37
0
VERTEX
8
0
6
CONTINUOUS
62
252
70
128
10
0.000000
20
0.000000
30
0.000000
71
19
72
37
73
18
0
VERTEX
8
0
6
CONTINUOUS
62
252
70
128
10
0.000000
20
0.000000
30
0.000000
71
18
72
37
73
38
0
VERTEX
8
0
6
CONTINUOUS
62
252
70
128
10
0.000000
20
0.000000
30
0.000000
71
18
72
38
73
39
0
VERTEX
8
0
6
CONTINUOUS
62
252
70
128
10
0.000000
20
0.000000
30
0.000000
71
54
72
2
73
53
0
VERTEX
8
0
6
CONTINUOUS
62
252
70
128
10
0.000000
20
0.000000
30
0.000000
71
53
72
2
73
3
0
VERTEX
8
0
6
CONTINUOUS
62
252
70
128
10
0.000000
20
0.000000
30
0.000000
71
53
72
3
73
52
0
VERTEX
8
0
6
CONTINUOUS
62
252
70
128
10
0.000000
20
0.000000
30
0.000000
71
52
72
3
73
4
0
VERTEX
8
0
6
CONTINUOUS
62
252
70
128
10
0.000000
20
0.000000
30
0.000000
71
52
72
4
73
51
0
VERTEX
8
0
6
CONTINUOUS
62
252
70
128
10
0.000000
20
0.000000
30
0.000000
71
51
72
4
73
5
0
VERTEX
8
0
6
CONTINUOUS
62
252
70
128
10
0.000000
20
0.000000
30
0.000000
71
51
72
5
73
50
0
VERTEX
8
0
6
CONTINUOUS
62
252
70
128
10
0.000000
20
0.000000
30
0.000000
71
50
72
5
73
6
0
VERTEX
8
0
6
CONTINUOUS
62
252
70
128
10
0.000000
20
0.000000
30
0.000000
71
50
72
6
73
49
0
VERTEX
8
0
6
CONTINUOUS
62
252
70
128
10
0.000000
20
0.000000
30
0.000000
71
49
72
6
73
7
0
VERTEX
8
0
6
CONTINUOUS
62
252
70
128
10
0.000000
20
0.000000
30
0.000000
71
49
72
7
73
48
0
VERTEX
8
0
6
CONTINUOUS
62
252
70
128
10
0.000000
20
0.000000
30
0.000000
71
48
72
7
73
8
0
VERTEX
8
0
6
CONTINUOUS
62
252
70
128
10
0.000000
20
0.000000
30
0.000000
71
48
72
8
73
47
0
VERTEX
8
0
6
CONTINUOUS
62
252
70
128
10
0.000000
20
0.000000
30
0.000000
71
47
72
8
73
9
0
VERTEX
8
0
6
CONTINUOUS
62
252
70
128
10
0.000000
20
0.000000
30
0.000000
71
47
72
9
73
46
0
VERTEX
8
0
6
CONTINUOUS
62
252
70
128
10
0.000000
20
0.000000
30
0.000000
71
46
72
9
73
10
0
VERTEX
8
0
6
CONTINUOUS
62
252
70
128
10
0.000000
20
0.000000
30
0.000000
71
46
72
10
73
45
0
VERTEX
8
0
6
CONTINUOUS
62
252
70
128
10
0.000000
20
0.000000
30
0.000000
71
45
72
10
73
11
0
VERTEX
8
0
6
CONTINUOUS
62
252
70
128
10
0.000000
20
0.000000
30
0.000000
71
45
72
11
73
44
0
VERTEX
8
0
6
CONTINUOUS
62
252
70
128
10
0.000000
20
0.000000
30
0.000000
71
44
72
11
73
12
0
VERTEX
8
0
6
CONTINUOUS
62
252
70
128
10
0.000000
20
0.000000
30
0.000000
71
44
72
12
73
43
0
VERTEX
8
0
6
CONTINUOUS
62
252
70
128
10
0.000000
20
0.000000
30
0.000000
71
43
72
12
73
13
0
VERTEX
8
0
6
CONTINUOUS
62
252
70
128
10
0.000000
20
0.000000
30
0.000000
71
43
72
13
73
42
0
VERTEX
8
0
6
CONTINUOUS
62
252
70
128
10
0.000000
20
0.000000
30
0.000000
71
42
72
13
73
14
0
VERTEX
8
0
6
CONTINUOUS
62
252
70
128
10
0.000000
20
0.000000
30
0.000000
71
42
72
14
73
41
0
VERTEX
8
0
6
CONTINUOUS
62
252
70
128
10
0.000000
20
0.000000
30
0.000000
71
41
72
14
73
15
0
VERTEX
8
0
6
CONTINUOUS
62
252
70
128
10
0.000000
20
0.000000
30
0.000000
71
41
72
15
73
40
0
VERTEX
8
0
6
CONTINUOUS
62
252
70
128
10
0.000000
20
0.000000
30
0.000000
71
40
72
15
73
16
0
VERTEX
8
0
6
CONTINUOUS
62
252
70
128
10
0.000000
20
0.000000
30
0.000000
71
40
72
16
73
17
0
VERTEX
8
0
6
CONTINUOUS
62
252
70
128
10
0.000000
20
0.000000
30
0.000000
71
40
72
17
73
39
0
VERTEX
8
0
6
CONTINUOUS
62
252
70
128
10
0.000000
20
0.000000
30
0.000000
71
39
72
17
73
18
0
SEQEND
0
POLYLINE
66
1
8
0
6
CONTINUOUS
62
252
70
64
75
0
10
0.000000
20
0.000000
30
0.000000
0
VERTEX
8
0
6
CONTINUOUS
62
252
70
192
10
1.200000
20
-40.092954
30
40.092954
0
VERTEX
8
0
6
CONTINUOUS
62
252
70
192
10
1.200000
20
-40.619567
30
39.465362
0
VERTEX
8
0
6
CONTINUOUS
62
252
70
192
10
1.200000
20
-41.029199
30
38.755858
0
VERTEX
8
0
6
CONTINUOUS
62
252
70
192
10
1.200000
20
-41.309404
30
37.986002
0
VERTEX
8
0
6
CONTINUOUS
62
252
70
192
10
1.200000
20
-41.451668
30
37.179185
0
VERTEX
8
0
6
CONTINUOUS
62
252
70
192
10
1.200000
20
-41.451668
30
36.359921
0
VERTEX
8
0
6
CONTINUOUS
62
252
70
192
10
1.200000
20
-41.309404
30
35.553103
0
VERTEX
8
0
6
CONTINUOUS
62
252
70
192
10
1.200000
20
-41.029199
30
34.783247
0
VERTEX
8
0
6
CONTINUOUS
62
252
70
192
10
1.200000
20
-40.619567
30
34.073743
0
VERTEX
8
0
6
CONTINUOUS
62
252
70
192
10
1.200000
20
-40.092954
30
33.446151
0
VERTEX
8
0
6
CONTINUOUS
62
252
70
192
10
1.200000
20
-39.465362
30
32.919538
0
VERTEX
8
0
6
CONTINUOUS
62
252
70
192
10
1.200000
20
-38.755858
30
32.509906
0
VERTEX
8
0
6
CONTINUOUS
62
252
70
192
10
1.200000
20
-37.986002
30
32.229701
0
VERTEX
8
0
6
CONTINUOUS
62
252
70
192
10
1.200000
20
-37.179185
30
32.087438
0
VERTEX
8
0
6
CONTINUOUS
62
252
70
192
10
1.200000
20
-36.359921
30
32.087438
0
VERTEX
8
0
6
CONTINUOUS
62
252
70
192
10
1.200000
20
-35.553103
30
32.229701
0
VERTEX
8
0
6
CONTINUOUS
62
252
70
192
10
1.200000
20
-34.783247
30
32.509906
0
VERTEX
8
0
6
CONTINUOUS
62
252
70
192
10
1.200000
20
-34.073743
30
32.919538
0
VERTEX
8
0
6
CONTINUOUS
62
252
70
192
10
1.200000
20
-33.446151
30
33.446151
0
VERTEX
8
0
6
CONTINUOUS
62
252
70
192
10
1.200000
20
-32.919538
30
34.073743
0
VERTEX
8
0
6
CONTINUOUS
62
252
70
192
10
1.200000
20
-32.509906
30
34.783247
0
VERTEX
8
0
6
CONTINUOUS
62
252
70
192
10
1.200000
20
-32.229701
30
35.553103
0
VERTEX
8
0
6
CONTINUOUS
62
252
70
192
10
1.200000
20
-32.087438
30
36.359921
0
VERTEX
8
0
6
CONTINUOUS
62
252
70
192
10
1.200000
20
-32.087438
30
37.179185
0
VERTEX
8
0
6
CONTINUOUS
62
252
70
192
10
1.200000
20
-32.229701
30
37.986002
0
VERTEX
8
0
6
CONTINUOUS
62
252
70
192
10
1.200000
20
-32.509906
30
38.755858
0
VERTEX
8
0
6
CONTINUOUS
62
252
70
192
10
1.200000
20
-32.919538
30
39.465362
0
VERTEX
8
0
6
CONTINUOUS
62
252
70
192
10
1.200000
20
-33.446151
30
40.092954
0
VERTEX
8
0
6
CONTINUOUS
62
252
70
192
10
1.200000
20
-34.073743
30
40.619567
0
VERTEX
8
0
6
CONTINUOUS
62
252
70
192
10
1.200000
20
-34.783247
30
41.029199
0
VERTEX
8
0
6
CONTINUOUS
62
252
70
192
10
1.200000
20
-35.553103
30
41.309404
0
VERTEX
8
0
6
CONTINUOUS
62
252
70
192
10
1.200000
20
-36.359921
30
41.451668
0
VERTEX
8
0
6
CONTINUOUS
62
252
70
192
10
1.200000
20
-37.179185
30
41.451668
0
VERTEX
8
0
6
CONTINUOUS
62
252
70
192
10
1.200000
20
-37.986002
30
41.309404
0
VERTEX
8
0
6
CONTINUOUS
62
252
70
192
10
1.200000
20
-38.755858
30
41.029199
0
VERTEX
8
0
6
CONTINUOUS
62
252
70
192
10
1.200000
20
-39.465362
30
40.619567
0
VERTEX
8
0
6
CONTINUOUS
62
252
70
192
10
-0.000000
20
-33.446151
30
33.446151
0
VERTEX
8
0
6
CONTINUOUS
62
252
70
192
10
-0.000000
20
-34.073743
30
32.919538
0
VERTEX
8
0
6
CONTINUOUS
62
252
70
192
10
-0.000000
20
-34.783247
30
32.509906
0
VERTEX
8
0
6
CONTINUOUS
62
252
70
192
10
-0.000000
20
-35.553103
30
32.229701
0
VERTEX
8
0
6
CONTINUOUS
62
252
70
192
10
-0.000000
20
-36.359921
30
32.087438
0
VERTEX
8
0
6
CONTINUOUS
62
252
70
192
10
-0.000000
20
-37.179185
30
32.087438
0
VERTEX
8
0
6
CONTINUOUS
62
252
70
192
10
-0.000000
20
-37.986002
30
32.229701
0
VERTEX
8
0
6
CONTINUOUS
62
252
70
192
10
-0.000000
20
-38.755858
30
32.509906
0
VERTEX
8
0
6
CONTINUOUS
62
252
70
192
10
-0.000000
20
-39.465362
30
32.919538
0
VERTEX
8
0
6
CONTINUOUS
62
252
70
192
10
-0.000000
20
-40.092954
30
33.446151
0
VERTEX
8
0
6
CONTINUOUS
62
252
70
192
10
-0.000000
20
-40.619567
30
34.073743
0
VERTEX
8
0
6
CONTINUOUS
62
252
70
192
10
-0.000000
20
-41.029199
30
34.783247
0
VERTEX
8
0
6
CONTINUOUS
62
252
70
192
10
-0.000000
20
-41.309404
30
35.553103
0
VERTEX
8
0
6
CONTINUOUS
62
252
70
192
10
-0.000000
20
-41.451668
30
36.359921
0
VERTEX
8
0
6
CONTINUOUS
62
252
70
192
10
-0.000000
20
-41.451668
30
37.179185
0
VERTEX
8
0
6
CONTINUOUS
62
252
70
192
10
-0.000000
20
-41.309404
30
37.986002
0
VERTEX
8
0
6
CONTINUOUS
62
252
70
192
10
-0.000000
20
-41.029199
30
38.755858
0
VERTEX
8
0
6
CONTINUOUS
62
252
70
192
10
-0.000000
20
-40.619567
30
39.465362
0
VERTEX
8
0
6
CONTINUOUS
62
252
70
192
10
-0.000000
20
-40.092954
30
40.092954
0
VERTEX
8
0
6
CONTINUOUS
62
252
70
192
10
-0.000000
20
-39.465362
30
40.619567
0
VERTEX
8
0
6
CONTINUOUS
62
252
70
192
10
-0.000000
20
-38.755858
30
41.029199
0
VERTEX
8
0
6
CONTINUOUS
62
252
70
192
10
-0.000000
20
-37.986002
30
41.309404
0
VERTEX
8
0
6
CONTINUOUS
62
252
70
192
10
-0.000000
20
-37.179185
30
41.451668
0
VERTEX
8
0
6
CONTINUOUS
62
252
70
192
10
-0.000000
20
-36.359921
30
41.451668
0
VERTEX
8
0
6
CONTINUOUS
62
252
70
192
10
-0.000000
20
-35.553103
30
41.309404
0
VERTEX
8
0
6
CONTINUOUS
62
252
70
192
10
-0.000000
20
-34.783247
30
41.029199
0
VERTEX
8
0
6
CONTINUOUS
62
252
70
192
10
-0.000000
20
-34.073743
30
40.619567
0
VERTEX
8
0
6
CONTINUOUS
62
252
70
192
10
-0.000000
20
-33.446151
30
40.092954
0
VERTEX
8
0
6
CONTINUOUS
62
252
70
192
10
-0.000000
20
-32.919538
30
39.465362
0
VERTEX
8
0
6
CONTINUOUS
62
252
70
192
10
-0.000000
20
-32.509906
30
38.755858
0
VERTEX
8
0
6
CONTINUOUS
62
252
70
192
10
-0.000000
20
-32.229701
30
37.986002
0
VERTEX
8
0
6
CONTINUOUS
62
252
70
192
10
-0.000000
20
-32.087438
30
37.179185
0
VERTEX
8
0
6
CONTINUOUS
62
252
70
192
10
-0.000000
20
-32.087438
30
36.359921
0
VERTEX
8
0
6
CONTINUOUS
62
252
70
192
10
-0.000000
20
-32.229701
30
35.553103
0
VERTEX
8
0
6
CONTINUOUS
62
252
70
192
10
-0.000000
20
-32.509906
30
34.783247
0
VERTEX
8
0
6
CONTINUOUS
62
252
70
192
10
-0.000000
20
-32.919538
30
34.073743
0
VERTEX
8
0
6
CONTINUOUS
62
252
70
128
10
0.000000
20
0.000000
30
0.000000
71
2
72
54
73
1
0
VERTEX
8
0
6
CONTINUOUS
62
252
70
128
10
0.000000
20
0.000000
30
0.000000
71
1
72
54
73
55
0
VERTEX
8
0
6
CONTINUOUS
62
252
70
128
10
0.000000
20
0.000000
30
0.000000
71
1
72
55
73
36
0
VERTEX
8
0
6
CONTINUOUS
62
252
70
128
10
0.000000
20
0.000000
30
0.000000
71
36
72
55
73
56
0
VERTEX
8
0
6
CONTINUOUS
62
252
70
128
10
0.000000
20
0.000000
30
0.000000
71
36
72
56
73
35
0
VERTEX
8
0
6
CONTINUOUS
62
252
70
128
10
0.000000
20
0.000000
30
0.000000
71
35
72
56
73
57
0
VERTEX
8
0
6
CONTINUOUS
62
252
70
128
10
0.000000
20
0.000000
30
0.000000
71
35
72
57
73
34
0
VERTEX
8
0
6
CONTINUOUS
62
252
70
128
10
0.000000
20
0.000000
30
0.000000
71
34
72
57
73
58
0
VERTEX
8
0
6
CONTINUOUS
62
252
70
128
10
0.000000
20
0.000000
30
0.000000
71
34
72
58
73
33
0
VERTEX
8
0
6
CONTINUOUS
62
252
70
128
10
0.000000
20
0.000000
30
0.000000
71
33
72
58
73
59
0
VERTEX
8
0
6
CONTINUOUS
62
252
70
128
10
0.000000
20
0.000000
30
0.000000
71
33
72
59
73
32
0
VERTEX
8
0
6
CONTINUOUS
62
252
70
128
10
0.000000
20
0.000000
30
0.000000
71
32
72
59
73
60
0
VERTEX
8
0
6
CONTINUOUS
62
252
70
128
10
0.000000
20
0.000000
30
0.000000
71
32
72
60
73
61
0
VERTEX
8
0
6
CONTINUOUS
62
252
70
128
10
0.000000
20
0.000000
30
0.000000
71
54
72
2
73
53
0
VERTEX
8
0
6
CONTINUOUS
62
252
70
128
10
0.000000
20
0.000000
30
0.000000
71
53
72
2
73
3
0
VERTEX
8
0
6
CONTINUOUS
62
252
70
128
10
0.000000
20
0.000000
30
0.000000
71
53
72
3
73
52
0
VERTEX
8
0
6
CONTINUOUS
62
252
70
128
10
0.000000
20
0.000000
30
0.000000
71
52
72
3
73
4
0
VERTEX
8
0
6
CONTINUOUS
62
252
70
128
10
0.000000
20
0.000000
30
0.000000
71
52
72
4
73
51
0
VERTEX
8
0
6
CONTINUOUS
62
252
70
128
10
0.000000
20
0.000000
30
0.000000
71
51
72
4
73
5
0
VERTEX
8
0
6
CONTINUOUS
62
252
70
128
10
0.000000
20
0.000000
30
0.000000
71
51
72
5
73
50
0
VERTEX
8
0
6
CONTINUOUS
62
252
70
128
10
0.000000
20
0.000000
30
0.000000
71
50
72
5
73
6
0
VERTEX
8
0
6
CONTINUOUS
62
252
70
128
10
0.000000
20
0.000000
30
0.000000
71
50
72
6
73
49
0
VERTEX
8
0
6
CONTINUOUS
62
252
70
128
10
0.000000
20
0.000000
30
0.000000
71
49
72
6
73
7
0
VERTEX
8
0
6
CONTINUOUS
62
252
70
128
10
0.000000
20
0.000000
30
0.000000
71
49
72
7
73
48
0
VERTEX
8
0
6
CONTINUOUS
62
252
70
128
10
0.000000
20
0.000000
30
0.000000
71
48
72
7
73
8
0
VERTEX
8
0
6
CONTINUOUS
62
252
70
128
10
0.000000
20
0.000000
30
0.000000
71
48
72
8
73
47
0
VERTEX
8
0
6
CONTINUOUS
62
252
70
128
10
0.000000
20
0.000000
30
0.000000
71
47
72
8
73
9
0
VERTEX
8
0
6
CONTINUOUS
62
252
70
128
10
0.000000
20
0.000000
30
0.000000
71
47
72
9
73
46
0
VERTEX
8
0
6
CONTINUOUS
62
252
70
128
10
0.000000
20
0.000000
30
0.000000
71
46
72
9
73
10
0
VERTEX
8
0
6
CONTINUOUS
62
252
70
128
10
0.000000
20
0.000000
30
0.000000
71
46
72
10
73
45
0
VERTEX
8
0
6
CONTINUOUS
62
252
70
128
10
0.000000
20
0.000000
30
0.000000
71
45
72
10
73
11
0
VERTEX
8
0
6
CONTINUOUS
62
252
70
128
10
0.000000
20
0.000000
30
0.000000
71
45
72
11
73
44
0
VERTEX
8
0
6
CONTINUOUS
62
252
70
128
10
0.000000
20
0.000000
30
0.000000
71
44
72
11
73
12
0
VERTEX
8
0
6
CONTINUOUS
62
252
70
128
10
0.000000
20
0.000000
30
0.000000
71
44
72
12
73
43
0
VERTEX
8
0
6
CONTINUOUS
62
252
70
128
10
0.000000
20
0.000000
30
0.000000
71
43
72
12
73
13
0
VERTEX
8
0
6
CONTINUOUS
62
252
70
128
10
0.000000
20
0.000000
30
0.000000
71
43
72
13
73
42
0
VERTEX
8
0
6
CONTINUOUS
62
252
70
128
10
0.000000
20
0.000000
30
0.000000
71
42
72
13
73
14
0
VERTEX
8
0
6
CONTINUOUS
62
252
70
128
10
0.000000
20
0.000000
30
0.000000
71
42
72
14
73
41
0
VERTEX
8
0
6
CONTINUOUS
62
252
70
128
10
0.000000
20
0.000000
30
0.000000
71
41
72
14
73
15
0
VERTEX
8
0
6
CONTINUOUS
62
252
70
128
10
0.000000
20
0.000000
30
0.000000
71
41
72
15
73
40
0
VERTEX
8
0
6
CONTINUOUS
62
252
70
128
10
0.000000
20
0.000000
30
0.000000
71
40
72
15
73
16
0
VERTEX
8
0
6
CONTINUOUS
62
252
70
128
10
0.000000
20
0.000000
30
0.000000
71
40
72
16
73
17
0
VERTEX
8
0
6
CONTINUOUS
62
252
70
128
10
0.000000
20
0.000000
30
0.000000
71
40
72
17
73
39
0
VERTEX
8
0
6
CONTINUOUS
62
252
70
128
10
0.000000
20
0.000000
30
0.000000
71
39
72
17
73
18
0
VERTEX
8
0
6
CONTINUOUS
62
252
70
128
10
0.000000
20
0.000000
30
0.000000
71
39
72
18
73
38
0
VERTEX
8
0
6
CONTINUOUS
62
252
70
128
10
0.000000
20
0.000000
30
0.000000
71
38
72
18
73
37
0
VERTEX
8
0
6
CONTINUOUS
62
252
70
128
10
0.000000
20
0.000000
30
0.000000
71
37
72
18
73
19
0
VERTEX
8
0
6
CONTINUOUS
62
252
70
128
10
0.000000
20
0.000000
30
0.000000
71
37
72
19
73
72
0
VERTEX
8
0
6
CONTINUOUS
62
252
70
128
10
0.000000
20
0.000000
30
0.000000
71
72
72
19
73
20
0
VERTEX
8
0
6
CONTINUOUS
62
252
70
128
10
0.000000
20
0.000000
30
0.000000
71
72
72
20
73
71
0
VERTEX
8
0
6
CONTINUOUS
62
252
70
128
10
0.000000
20
0.000000
30
0.000000
71
71
72
20
73
21
0
VERTEX
8
0
6
CONTINUOUS
62
252
70
128
10
0.000000
20
0.000000
30
0.000000
71
71
72
21
73
70
0
VERTEX
8
0
6
CONTINUOUS
62
252
70
128
10
0.000000
20
0.000000
30
0.000000
71
70
72
21
73
22
0
VERTEX
8
0
6
CONTINUOUS
62
252
70
128
10
0.000000
20
0.000000
30
0.000000
71
70
72
22
73
69
0
VERTEX
8
0
6
CONTINUOUS
62
252
70
128
10
0.000000
20
0.000000
30
0.000000
71
69
72
22
73
23
0
VERTEX
8
0
6
CONTINUOUS
62
252
70
128
10
0.000000
20
0.000000
30
0.000000
71
69
72
23
73
68
0
VERTEX
8
0
6
CONTINUOUS
62
252
70
128
10
0.000000
20
0.000000
30
0.000000
71
68
72
23
73
24
0
VERTEX
8
0
6
CONTINUOUS
62
252
70
128
10
0.000000
20
0.000000
30
0.000000
71
68
72
24
73
67
0
VERTEX
8
0
6
CONTINUOUS
62
252
70
128
10
0.000000
20
0.000000
30
0.000000
71
67
72
24
73
25
0
VERTEX
8
0
6
CONTINUOUS
62
252
70
128
10
0.000000
20
0.000000
30
0.000000
71
67
72
25
73
66
0
VERTEX
8
0
6
CONTINUOUS
62
252
70
128
10
0.000000
20
0.000000
30
0.000000
71
66
72
25
73
26
0
VERTEX
8
0
6
CONTINUOUS
62
252
70
128
10
0.000000
20
0.000000
30
0.000000
71
66
72
26
73
65
0
VERTEX
8
0
6
CONTINUOUS
62
252
70
128
10
0.000000
20
0.000000
30
0.000000
71
65
72
26
73
27
0
VERTEX
8
0
6
CONTINUOUS
62
252
70
128
10
0.000000
20
0.000000
30
0.000000
71
65
72
27
73
64
0
VERTEX
8
0
6
CONTINUOUS
62
252
70
128
10
0.000000
20
0.000000
30
0.000000
71
64
72
27
73
28
0
VERTEX
8
0
6
CONTINUOUS
62
252
70
128
10
0.000000
20
0.000000
30
0.000000
71
64
72
28
73
63
0
VERTEX
8
0
6
CONTINUOUS
62
252
70
128
10
0.000000
20
0.000000
30
0.000000
71
63
72
28
73
29
0
VERTEX
8
0
6
CONTINUOUS
62
252
70
128
10
0.000000
20
0.000000
30
0.000000
71
63
72
29
73
62
0
VERTEX
8
0
6
CONTINUOUS
62
252
70
128
10
0.000000
20
0.000000
30
0.000000
71
62
72
29
73
30
0
VERTEX
8
0
6
CONTINUOUS
62
252
70
128
10
0.000000
20
0.000000
30
0.000000
71
62
72
30
73
61
0
VERTEX
8
0
6
CONTINUOUS
62
252
70
128
10
0.000000
20
0.000000
30
0.000000
71
61
72
30
73
31
0
VERTEX
8
0
6
CONTINUOUS
62
252
70
128
10
0.000000
20
0.000000
30
0.000000
71
61
72
31
73
32
0
SEQEND
0
POLYLINE
66
1
8
0
6
CONTINUOUS
62
252
70
64
75
0
10
0.000000
20
0.000000
30
0.000000
0
VERTEX
8
0
6
CONTINUOUS
62
252
70
192
10
14.000000
20
-28.000000
30
-34.678867
0
VERTEX
8
0
6
CONTINUOUS
62
252
70
192
10
6.000000
20
-28.000000
30
-35.073950
0
VERTEX
8
0
6
CONTINUOUS
62
252
70
192
10
6.000000
20
-28.000000
30
-44.600000
0
VERTEX
8
0
6
CONTINUOUS
62
252
70
192
10
14.000000
20
-28.000000
30
-44.600000
0
VERTEX
8
0
6
CONTINUOUS
62
252
70
128
10
0.000000
20
0.000000
30
0.000000
71
1
72
2
73
4
0
VERTEX
8
0
6
CONTINUOUS
62
252
70
128
10
0.000000
20
0.000000
30
0.000000
71
4
72
2
73
3
0
SEQEND
0
POLYLINE
66
1
8
0
6
CONTINUOUS
62
252
70
64
75
0
10
0.000000
20
0.000000
30
0.000000
0
VERTEX
8
0
6
CONTINUOUS
62
252
70
192
10
6.000000
20
30.000000
30
-44.600000
0
VERTEX
8
0
6
CONTINUOUS
62
252
70
192
10
6.000000
20
28.000000
30
-44.600000
0
VERTEX
8
0
6
CONTINUOUS
62
252
70
192
10
14.000000
20
28.000000
30
-44.600000
0
VERTEX
8
0
6
CONTINUOUS
62
252
70
192
10
14.000000
20
30.000000
30
-44.600000
0
VERTEX
8
0
6
CONTINUOUS
62
252
70
128
10
0.000000
20
0.000000
30
0.000000
71
2
72
3
73
1
0
VERTEX
8
0
6
CONTINUOUS
62
252
70
128
10
0.000000
20
0.000000
30
0.000000
71
1
72
3
73
4
0
SEQEND
0
POLYLINE
66
1
8
0
6
CONTINUOUS
62
252
70
64
75
0
10
0.000000
20
0.000000
30
0.000000
0
VERTEX
8
0
6
CONTINUOUS
62
252
70
192
10
4.000000
20
-30.000000
30
-44.600000
0
VERTEX
8
0
6
CONTINUOUS
62
252
70
192
10
4.000000
20
30.000000
30
-44.600000
0
VERTEX
8
0
6
CONTINUOUS
62
252
70
192
10
4.000000
20
30.000000
30
-53.200000
0
VERTEX
8
0
6
CONTINUOUS
62
252
70
192
10
4.000000
20
-30.000000
30
-53.200000
0
VERTEX
8
0
6
CONTINUOUS
62
252
70
128
10
0.000000
20
0.000000
30
0.000000
71
1
72
2
73
4
0
VERTEX
8
0
6
CONTINUOUS
62
252
70
128
10
0.000000
20
0.000000
30
0.000000
71
4
72
2
73
3
0
SEQEND
0
POLYLINE
66
1
8
0
6
CONTINUOUS
62
252
70
64
75
0
10
0.000000
20
0.000000
30
0.000000
0
VERTEX
8
0
6
CONTINUOUS
62
252
70
192
10
14.000000
20
-30.000000
30
-53.200000
0
VERTEX
8
0
6
CONTINUOUS
62
252
70
192
10
14.000000
20
-30.000000
30
-44.600000
0
VERTEX
8
0
6
CONTINUOUS
62
252
70
192
10
6.000000
20
-30.000000
30
-44.600000
0
VERTEX
8
0
6
CONTINUOUS
62
252
70
192
10
4.000000
20
-30.000000
30
-44.600000
0
VERTEX
8
0
6
CONTINUOUS
62
252
70
192
10
4.000000
20
-30.000000
30
-53.200000
0
VERTEX
8
0
6
CONTINUOUS
62
252
70
128
10
0.000000
20
0.000000
30
0.000000
71
2
72
3
73
1
0
VERTEX
8
0
6
CONTINUOUS
62
252
70
128
10
0.000000
20
0.000000
30
0.000000
71
1
72
3
73
5
0
VERTEX
8
0
6
CONTINUOUS
62
252
70
128
10
0.000000
20
0.000000
30
0.000000
71
5
72
3
73
4
0
SEQEND
0
POLYLINE
66
1
8
0
6
CONTINUOUS
62
252
70
64
75
0
10
0.000000
20
0.000000
30
0.000000
0
VERTEX
8
0
6
CONTINUOUS
62
252
70
192
10
6.000000
20
-28.000000
30
-44.600000
0
VERTEX
8
0
6
CONTINUOUS
62
252
70
192
10
6.000000
20
-30.000000
30
-44.600000
0
VERTEX
8
0
6
CONTINUOUS
62
252
70
192
10
14.000000
20
-30.000000
30
-44.600000
0
VERTEX
8
0
6
CONTINUOUS
62
252
70
192
10
14.000000
20
-28.000000
30
-44.600000
0
VERTEX
8
0
6
CONTINUOUS
62
252
70
128
10
0.000000
20
0.000000
30
0.000000
71
1
72
2
73
4
0
VERTEX
8
0
6
CONTINUOUS
62
252
70
128
10
0.000000
20
0.000000
30
0.000000
71
4
72
2
73
3
0
SEQEND
0
POLYLINE
66
1
8
0
6
CONTINUOUS
62
252
70
64
75
0
10
0.000000
20
0.000000
30
0.000000
0
VERTEX
8
0
6
CONTINUOUS
62
252
70
192
10
6.000000
20
28.000000
30
-35.073950
0
VERTEX
8
0
6
CONTINUOUS
62
252
70
192
10
14.000000
20
28.000000
30
-34.678867
0
VERTEX
8
0
6
CONTINUOUS
62
252
70
192
10
14.000000
20
28.000000
30
-44.600000
0
VERTEX
8
0
6
CONTINUOUS
62
252
70
192
10
6.000000
20
28.000000
30
-44.600000
0
VERTEX
8
0
6
CONTINUOUS
62
252
70
128
10
0.000000
20
0.000000
30
0.000000
71
2
72
3
73
1
0
VERTEX
8
0
6
CONTINUOUS
62
252
70
128
10
0.000000
20
0.000000
30
0.000000
71
1
72
3
73
4
0
SEQEND
0
POLYLINE
66
1
8
0
6
CONTINUOUS
62
252
70
64
75
0
10
0.000000
20
0.000000
30
0.000000
0
VERTEX
8
0
6
CONTINUOUS
62
252
70
192
10
14.000000
20
30.000000
30
-44.600000
0
VERTEX
8
0
6
CONTINUOUS
62
252
70
192
10
14.000000
20
30.000000
30
-53.200000
0
VERTEX
8
0
6
CONTINUOUS
62
252
70
192
10
4.000000
20
30.000000
30
-53.200000
0
VERTEX
8
0
6
CONTINUOUS
62
252
70
192
10
4.000000
20
30.000000
30
-44.600000
0
VERTEX
8
0
6
CONTINUOUS
62
252
70
192
10
6.000000
20
30.000000
30
-44.600000
0
VERTEX
8
0
6
CONTINUOUS
62
252
70
128
10
0.000000
20
0.000000
30
0.000000
71
1
72
2
73
5
0
VERTEX
8
0
6
CONTINUOUS
62
252
70
128
10
0.000000
20
0.000000
30
0.000000
71
5
72
2
73
3
0
VERTEX
8
0
6
CONTINUOUS
62
252
70
128
10
0.000000
20
0.000000
30
0.000000
71
5
72
3
73
4
0
SEQEND
0
POLYLINE
66
1
8
0
6
CONTINUOUS
62
252
70
64
75
0
10
0.000000
20
0.000000
30
0.000000
0
VERTEX
8
0
6
CONTINUOUS
62
252
70
192
10
14.000000
20
30.000000
30
-53.200000
0
VERTEX
8
0
6
CONTINUOUS
62
252
70
192
10
14.000000
20
-30.000000
30
-53.200000
0
VERTEX
8
0
6
CONTINUOUS
62
252
70
192
10
4.000000
20
-30.000000
30
-53.200000
0
VERTEX
8
0
6
CONTINUOUS
62
252
70
192
10
4.000000
20
30.000000
30
-53.200000
0
VERTEX
8
0
6
CONTINUOUS
62
252
70
128
10
0.000000
20
0.000000
30
0.000000
71
2
72
3
73
1
0
VERTEX
8
0
6
CONTINUOUS
62
252
70
128
10
0.000000
20
0.000000
30
0.000000
71
1
72
3
73
4
0
SEQEND
0
POLYLINE
66
1
8
0
6
CONTINUOUS
62
252
70
64
75
0
10
0.000000
20
0.000000
30
0.000000
0
VERTEX
8
0
6
CONTINUOUS
62
252
70
192
10
14.000000
20
-18.358233
30
-44.320634
0
VERTEX
8
0
6
CONTINUOUS
62
252
70
192
10
14.000000
20
-28.000000
30
-34.678867
0
VERTEX
8
0
6
CONTINUOUS
62
252
70
192
10
14.000000
20
-28.000000
30
-44.600000
0
VERTEX
8
0
6
CONTINUOUS
62
252
70
192
10
14.000000
20
-30.000000
30
-44.600000
0
VERTEX
8
0
6
CONTINUOUS
62
252
70
192
10
14.000000
20
-30.000000
30
-53.200000
0
VERTEX
8
0
6
CONTINUOUS
62
252
70
192
10
14.000000
20
30.000000
30
-53.200000
0
VERTEX
8
0
6
CONTINUOUS
62
252
70
192
10
14.000000
20
30.000000
30
-44.600000
0
VERTEX
8
0
6
CONTINUOUS
62
252
70
192
10
14.000000
20
28.000000
30
-44.600000
0
VERTEX
8
0
6
CONTINUOUS
62
252
70
192
10
14.000000
20
28.000000
30
-34.678867
0
VERTEX
8
0
6
CONTINUOUS
62
252
70
192
10
14.000000
20
18.358233
30
-44.320634
0
VERTEX
8
0
6
CONTINUOUS
62
252
70
128
10
0.000000
20
0.000000
30
0.000000
71
2
72
3
73
1
0
VERTEX
8
0
6
CONTINUOUS
62
252
70
128
10
0.000000
20
0.000000
30
0.000000
71
1
72
3
73
5
0
VERTEX
8
0
6
CONTINUOUS
62
252
70
128
10
0.000000
20
0.000000
30
0.000000
71
1
72
5
73
6
0
VERTEX
8
0
6
CONTINUOUS
62
252
70
128
10
0.000000
20
0.000000
30
0.000000
71
3
72
4
73
5
0
VERTEX
8
0
6
CONTINUOUS
62
252
70
128
10
0.000000
20
0.000000
30
0.000000
71
7
72
8
73
6
0
VERTEX
8
0
6
CONTINUOUS
62
252
70
128
10
0.000000
20
0.000000
30
0.000000
71
6
72
8
73
10
0
VERTEX
8
0
6
CONTINUOUS
62
252
70
128
10
0.000000
20
0.000000
30
0.000000
71
6
72
10
73
1
0
VERTEX
8
0
6
CONTINUOUS
62
252
70
128
10
0.000000
20
0.000000
30
0.000000
71
8
72
9
73
10
0
SEQEND
0
POLYLINE
66
1
8
0
6
CONTINUOUS
62
252
70
64
75
0
10
0.000000
20
0.000000
30
0.000000
0
VERTEX
8
0
6
CONTINUOUS
62
252
70
192
10
14.000000
20
-18.358233
30
-44.320634
0
VERTEX
8
0
6
CONTINUOUS
62
252
70
192
10
14.000000
20
18.358233
30
-44.320634
0
VERTEX
8
0
6
CONTINUOUS
62
252
70
192
10
61.000000
20
17.678394
30
-42.679358
0
VERTEX
8
0
6
CONTINUOUS
62
252
70
192
10
61.000000
20
-17.678394
30
-42.679358
0
VERTEX
8
0
6
CONTINUOUS
62
252
70
128
10
0.000000
20
0.000000
30
0.000000
71
1
72
2
73
4
0
VERTEX
8
0
6
CONTINUOUS
62
252
70
128
10
0.000000
20
0.000000
30
0.000000
71
4
72
2
73
3
0
SEQEND
0
POLYLINE
66
1
8
0
6
CONTINUOUS
62
252
70
64
75
0
10
0.000000
20
0.000000
30
0.000000
0
VERTEX
8
0
6
CONTINUOUS
62
252
70
192
10
14.000000
20
18.358233
30
-44.320634
0
VERTEX
8
0
6
CONTINUOUS
62
252
70
192
10
14.000000
20
28.000000
30
-34.678867
0
VERTEX
8
0
6
CONTINUOUS
62
252
70
192
10
6.000000
20
28.000000
30
-35.073950
0
VERTEX
8
0
6
CONTINUOUS
62
252
70
192
10
6.000000
20
44.600000
30
-18.473950
0
VERTEX
8
0
6
CONTINUOUS
62
252
70
192
10
61.000000
20
42.679358
30
-17.678394
0
VERTEX
8
0
6
CONTINUOUS
62
252
70
192
10
61.000000
20
17.678394
30
-42.679358
0
VERTEX
8
0
6
CONTINUOUS
62
252
70
128
10
0.000000
20
0.000000
30
0.000000
71
1
72
2
73
6
0
VERTEX
8
0
6
CONTINUOUS
62
252
70
128
10
0.000000
20
0.000000
30
0.000000
71
6
72
2
73
5
0
VERTEX
8
0
6
CONTINUOUS
62
252
70
128
10
0.000000
20
0.000000
30
0.000000
71
5
72
2
73
4
0
VERTEX
8
0
6
CONTINUOUS
62
252
70
128
10
0.000000
20
0.000000
30
0.000000
71
4
72
2
73
3
0
SEQEND
0
POLYLINE
66
1
8
0
6
CONTINUOUS
62
252
70
64
75
0
10
0.000000
20
0.000000
30
0.000000
0
VERTEX
8
0
6
CONTINUOUS
62
252
70
192
10
6.000000
20
28.000000
30
-35.073950
0
VERTEX
8
0
6
CONTINUOUS
62
252
70
192
10
6.000000
20
28.000000
30
-44.600000
0
VERTEX
8
0
6
CONTINUOUS
62
252
70
192
10
6.000000
20
30.000000
30
-44.600000
0
VERTEX
8
0
6
CONTINUOUS
62
252
70
192
10
6.000000
20
35.407612
30
-44.600000
0
VERTEX
8
0
6
CONTINUOUS
62
252
70
192
10
6.000000
20
32.173359
30
-41.365747
0
VERTEX
8
0
6
CONTINUOUS
62
252
70
192
10
6.000000
20
31.445064
30
-40.497799
0
VERTEX
8
0
6
CONTINUOUS
62
252
70
192
10
6.000000
20
30.878552
30
-39.516571
0
VERTEX
8
0
6
CONTINUOUS
62
252
70
192
10
6.000000
20
30.491035
30
-38.451876
0
VERTEX
8
0
6
CONTINUOUS
62
252
70
192
10
6.000000
20
30.294287
30
-37.336065
0
VERTEX
8
0
6
CONTINUOUS
62
252
70
192
10
6.000000
20
30.294287
30
-36.203040
0
VERTEX
8
0
6
CONTINUOUS
62
252
70
192
10
6.000000
20
30.491035
30
-35.087229
0
VERTEX
8
0
6
CONTINUOUS
62
252
70
192
10
6.000000
20
30.878552
30
-34.022534
0
VERTEX
8
0
6
CONTINUOUS
62
252
70
192
10
6.000000
20
31.445064
30
-33.041306
0
VERTEX
8
0
6
CONTINUOUS
62
252
70
192
10
6.000000
20
32.173359
30
-32.173359
0
VERTEX
8
0
6
CONTINUOUS
62
252
70
192
10
6.000000
20
33.041306
30
-31.445064
0
VERTEX
8
0
6
CONTINUOUS
62
252
70
192
10
6.000000
20
34.022534
30
-30.878552
0
VERTEX
8
0
6
CONTINUOUS
62
252
70
192
10
6.000000
20
35.087229
30
-30.491035
0
VERTEX
8
0
6
CONTINUOUS
62
252
70
192
10
6.000000
20
36.203040
30
-30.294287
0
VERTEX
8
0
6
CONTINUOUS
62
252
70
192
10
6.000000
20
37.336065
30
-30.294287
0
VERTEX
8
0
6
CONTINUOUS
62
252
70
192
10
6.000000
20
38.451876
30
-30.491035
0
VERTEX
8
0
6
CONTINUOUS
62
252
70
192
10
6.000000
20
39.516571
30
-30.878552
0
VERTEX
8
0
6
CONTINUOUS
62
252
70
192
10
6.000000
20
40.497799
30
-31.445064
0
VERTEX
8
0
6
CONTINUOUS
62
252
70
192
10
6.000000
20
41.365747
30
-32.173359
0
VERTEX
8
0
6
CONTINUOUS
62
252
70
192
10
6.000000
20
44.600000
30
-35.407612
0
VERTEX
8
0
6
CONTINUOUS
62
252
70
192
10
6.000000
20
44.600000
30
-18.473950
0
VERTEX
8
0
6
CONTINUOUS
62
252
70
128
10
0.000000
20
0.000000
30
0.000000
71
2
72
8
73
1
0
VERTEX
8
0
6
CONTINUOUS
62
252
70
128
10
0.000000
20
0.000000
30
0.000000
71
1
72
8
73
9
0
VERTEX
8
0
6
CONTINUOUS
62
252
70
128
10
0.000000
20
0.000000
30
0.000000
71
1
72
9
73
10
0
VERTEX
8
0
6
CONTINUOUS
62
252
70
128
10
0.000000
20
0.000000
30
0.000000
71
3
72
6
73
2
0
VERTEX
8
0
6
CONTINUOUS
62
252
70
128
10
0.000000
20
0.000000
30
0.000000
71
2
72
6
73
7
0
VERTEX
8
0
6
CONTINUOUS
62
252
70
128
10
0.000000
20
0.000000
30
0.000000
71
2
72
7
73
8
0
VERTEX
8
0
6
CONTINUOUS
62
252
70
128
10
0.000000
20
0.000000
30
0.000000
71
4
72
5
73
3
0
VERTEX
8
0
6
CONTINUOUS
62
252
70
128
10
0.000000
20
0.000000
30
0.000000
71
3
72
5
73
6
0
VERTEX
8
0
6
CONTINUOUS
62
252
70
128
10
0.000000
20
0.000000
30
0.000000
71
10
72
11
73
1
0
VERTEX
8
0
6
CONTINUOUS
62
252
70
128
10
0.000000
20
0.000000
30
0.000000
71
1
72
11
73
12
0
VERTEX
8
0
6
CONTINUOUS
62
252
70
128
10
0.000000
20
0.000000
30
0.000000
71
1
72
12
73
13
0
VERTEX
8
0
6
CONTINUOUS
62
252
70
128
10
0.000000
20
0.000000
30
0.000000
71
13
72
14
73
1
0
VERTEX
8
0
6
CONTINUOUS
62
252
70
128
10
0.000000
20
0.000000
30
0.000000
71
1
72
14
73
15
0
VERTEX
8
0
6
CONTINUOUS
62
252
70
128
10
0.000000
20
0.000000
30
0.000000
71
1
72
15
73
25
0
VERTEX
8
0
6
CONTINUOUS
62
252
70
128
10
0.000000
20
0.000000
30
0.000000
71
25
72
15
73
16
0
VERTEX
8
0
6
CONTINUOUS
62
252
70
128
10
0.000000
20
0.000000
30
0.000000
71
25
72
16
73
17
0
VERTEX
8
0
6
CONTINUOUS
62
252
70
128
10
0.000000
20
0.000000
30
0.000000
71
17
72
18
73
25
0
VERTEX
8
0
6
CONTINUOUS
62
252
70
128
10
0.000000
20
0.000000
30
0.000000
71
25
72
18
73
19
0
VERTEX
8
0
6
CONTINUOUS
62
252
70
128
10
0.000000
20
0.000000
30
0.000000
71
25
72
19
73
20
0
VERTEX
8
0
6
CONTINUOUS
62
252
70
128
10
0.000000
20
0.000000
30
0.000000
71
20
72
21
73
25
0
VERTEX
8
0
6
CONTINUOUS
62
252
70
128
10
0.000000
20
0.000000
30
0.000000
71
25
72
21
73
22
0
VERTEX
8
0
6
CONTINUOUS
62
252
70
128
10
0.000000
20
0.000000
30
0.000000
71
25
72
22
73
23
0
VERTEX
8
0
6
CONTINUOUS
62
252
70
128
10
0.000000
20
0.000000
30
0.000000
71
23
72
24
73
25
0
SEQEND
0
POLYLINE
66
1
8
0
6
CONTINUOUS
62
252
70
64
75
0
10
0.000000
20
0.000000
30
0.000000
0
VERTEX
8
0
6
CONTINUOUS
62
252
70
192
10
6.000000
20
-35.407612
30
44.600000
0
VERTEX
8
0
6
CONTINUOUS
62
252
70
192
10
1.200000
20
-35.407612
30
44.600000
0
VERTEX
8
0
6
CONTINUOUS
62
252
70
192
10
1.200000
20
-32.173359
30
41.365747
0
VERTEX
8
0
6
CONTINUOUS
62
252
70
192
10
6.000000
20
-32.173359
30
41.365747
0
VERTEX
8
0
6
CONTINUOUS
62
252
70
128
10
0.000000
20
0.000000
30
0.000000
71
2
72
3
73
1
0
VERTEX
8
0
6
CONTINUOUS
62
252
70
128
10
0.000000
20
0.000000
30
0.000000
71
1
72
3
73
4
0
SEQEND
0
POLYLINE
66
1
8
0
6
CONTINUOUS
62
252
70
64
75
0
10
0.000000
20
0.000000
30
0.000000
0
VERTEX
8
0
6
CONTINUOUS
62
252
70
192
10
1.200000
20
-44.600000
30
35.407612
0
VERTEX
8
0
6
CONTINUOUS
62
252
70
192
10
6.000000
20
-44.600000
30
35.407612
0
VERTEX
8
0
6
CONTINUOUS
62
252
70
192
10
6.000000
20
-41.365747
30
32.173359
0
VERTEX
8
0
6
CONTINUOUS
62
252
70
192
10
1.200000
20
-41.365747
30
32.173359
0
VERTEX
8
0
6
CONTINUOUS
62
252
70
128
10
0.000000
20
0.000000
30
0.000000
71
1
72
2
73
4
0
VERTEX
8
0
6
CONTINUOUS
62
252
70
128
10
0.000000
20
0.000000
30
0.000000
71
4
72
2
73
3
0
SEQEND
0
POLYLINE
66
1
8
0
6
CONTINUOUS
62
252
70
64
75
0
10
0.000000
20
0.000000
30
0.000000
0
VERTEX
8
0
6
CONTINUOUS
62
252
70
192
10
1.200000
20
-32.173359
30
41.365747
0
VERTEX
8
0
6
CONTINUOUS
62
252
70
192
10
1.200000
20
-31.445064
30
40.497799
0
VERTEX
8
0
6
CONTINUOUS
62
252
70
192
10
1.200000
20
-30.878552
30
39.516571
0
VERTEX
8
0
6
CONTINUOUS
62
252
70
192
10
1.200000
20
-30.491035
30
38.451876
0
VERTEX
8
0
6
CONTINUOUS
62
252
70
192
10
1.200000
20
-30.294287
30
37.336065
0
VERTEX
8
0
6
CONTINUOUS
62
252
70
192
10
1.200000
20
-30.294287
30
36.203040
0
VERTEX
8
0
6
CONTINUOUS
62
252
70
192
10
1.200000
20
-30.491035
30
35.087229
0
VERTEX
8
0
6
CONTINUOUS
62
252
70
192
10
1.200000
20
-30.878552
30
34.022534
0
VERTEX
8
0
6
CONTINUOUS
62
252
70
192
10
1.200000
20
-31.445064
30
33.041306
0
VERTEX
8
0
6
CONTINUOUS
62
252
70
192
10
1.200000
20
-32.173359
30
32.173359
0
VERTEX
8
0
6
CONTINUOUS
62
252
70
192
10
1.200000
20
-33.041306
30
31.445064
0
VERTEX
8
0
6
CONTINUOUS
62
252
70
192
10
1.200000
20
-34.022534
30
30.878552
0
VERTEX
8
0
6
CONTINUOUS
62
252
70
192
10
1.200000
20
-35.087229
30
30.491035
0
VERTEX
8
0
6
CONTINUOUS
62
252
70
192
10
1.200000
20
-36.203040
30
30.294287
0
VERTEX
8
0
6
CONTINUOUS
62
252
70
192
10
1.200000
20
-37.336065
30
30.294287
0
VERTEX
8
0
6
CONTINUOUS
62
252
70
192
10
1.200000
20
-38.451876
30
30.491035
0
VERTEX
8
0
6
CONTINUOUS
62
252
70
192
10
1.200000
20
-39.516571
30
30.878552
0
VERTEX
8
0
6
CONTINUOUS
62
252
70
192
10
1.200000
20
-40.497799
30
31.445064
0
VERTEX
8
0
6
CONTINUOUS
62
252
70
192
10
1.200000
20
-41.365747
30
32.173359
0
VERTEX
8
0
6
CONTINUOUS
62
252
70
192
10
6.000000
20
-41.365747
30
32.173359
0
VERTEX
8
0
6
CONTINUOUS
62
252
70
192
10
6.000000
20
-40.497799
30
31.445064
0
VERTEX
8
0
6
CONTINUOUS
62
252
70
192
10
6.000000
20
-39.516571
30
30.878552
0
VERTEX
8
0
6
CONTINUOUS
62
252
70
192
10
6.000000
20
-38.451876
30
30.491035
0
VERTEX
8
0
6
CONTINUOUS
62
252
70
192
10
6.000000
20
-37.336065
30
30.294287
0
VERTEX
8
0
6
CONTINUOUS
62
252
70
192
10
6.000000
20
-36.203040
30
30.294287
0
VERTEX
8
0
6
CONTINUOUS
62
252
70
192
10
6.000000
20
-35.087229
30
30.491035
0
VERTEX
8
0
6
CONTINUOUS
62
252
70
192
10
6.000000
20
-34.022534
30
30.878552
0
VERTEX
8
0
6
CONTINUOUS
62
252
70
192
10
6.000000
20
-33.041306
30
31.445064
0
VERTEX
8
0
6
CONTINUOUS
62
252
70
192
10
6.000000
20
-32.173359
30
32.173359
0
VERTEX
8
0
6
CONTINUOUS
62
252
70
192
10
6.000000
20
-31.445064
30
33.041306
0
VERTEX
8
0
6
CONTINUOUS
62
252
70
192
10
6.000000
20
-30.878552
30
34.022534
0
VERTEX
8
0
6
CONTINUOUS
62
252
70
192
10
6.000000
20
-30.491035
30
35.087229
0
VERTEX
8
0
6
CONTINUOUS
62
252
70
192
10
6.000000
20
-30.294287
30
36.203040
0
VERTEX
8
0
6
CONTINUOUS
62
252
70
192
10
6.000000
20
-30.294287
30
37.336065
0
VERTEX
8
0
6
CONTINUOUS
62
252
70
192
10
6.000000
20
-30.491035
30
38.451876
0
VERTEX
8
0
6
CONTINUOUS
62
252
70
192
10
6.000000
20
-30.878552
30
39.516571
0
VERTEX
8
0
6
CONTINUOUS
62
252
70
192
10
6.000000
20
-31.445064
30
40.497799
0
VERTEX
8
0
6
CONTINUOUS
62
252
70
192
10
6.000000
20
-32.173359
30
41.365747
0
VERTEX
8
0
6
CONTINUOUS
62
252
70
128
10
0.000000
20
0.000000
30
0.000000
71
38
72
1
73
37
0
VERTEX
8
0
6
CONTINUOUS
62
252
70
128
10
0.000000
20
0.000000
30
0.000000
71
37
72
1
73
2
0
VERTEX
8
0
6
CONTINUOUS
62
252
70
128
10
0.000000
20
0.000000
30
0.000000
71
37
72
2
73
36
0
VERTEX
8
0
6
CONTINUOUS
62
252
70
128
10
0.000000
20
0.000000
30
0.000000
71
36
72
2
73
3
0
VERTEX
8
0
6
CONTINUOUS
62
252
70
128
10
0.000000
20
0.000000
30
0.000000
71
36
72
3
73
35
0
VERTEX
8
0
6
CONTINUOUS
62
252
70
128
10
0.000000
20
0.000000
30
0.000000
71
35
72
3
73
4
0
VERTEX
8
0
6
CONTINUOUS
62
252
70
128
10
0.000000
20
0.000000
30
0.000000
71
35
72
4
73
34
0
VERTEX
8
0
6
CONTINUOUS
62
252
70
128
10
0.000000
20
0.000000
30
0.000000
71
34
72
4
73
5
0
VERTEX
8
0
6
CONTINUOUS
62
252
70
128
10
0.000000
20
0.000000
30
0.000000
71
34
72
5
73
33
0
VERTEX
8
0
6
CONTINUOUS
62
252
70
128
10
0.000000
20
0.000000
30
0.000000
71
33
72
5
73
6
0
VERTEX
8
0
6
CONTINUOUS
62
252
70
128
10
0.000000
20
0.000000
30
0.000000
71
33
72
6
73
32
0
VERTEX
8
0
6
CONTINUOUS
62
252
70
128
10
0.000000
20
0.000000
30
0.000000
71
32
72
6
73
7
0
VERTEX
8
0
6
CONTINUOUS
62
252
70
128
10
0.000000
20
0.000000
30
0.000000
71
32
72
7
73
31
0
VERTEX
8
0
6
CONTINUOUS
62
252
70
128
10
0.000000
20
0.000000
30
0.000000
71
31
72
7
73
8
0
VERTEX
8
0
6
CONTINUOUS
62
252
70
128
10
0.000000
20
0.000000
30
0.000000
71
31
72
8
73
30
0
VERTEX
8
0
6
CONTINUOUS
62
252
70
128
10
0.000000
20
0.000000
30
0.000000
71
30
72
8
73
9
0
VERTEX
8
0
6
CONTINUOUS
62
252
70
128
10
0.000000
20
0.000000
30
0.000000
71
30
72
9
73
29
0
VERTEX
8
0
6
CONTINUOUS
62
252
70
128
10
0.000000
20
0.000000
30
0.000000
71
29
72
9
73
10
0
VERTEX
8
0
6
CONTINUOUS
62
252
70
128
10
0.000000
20
0.000000
30
0.000000
71
29
72
10
73
28
0
VERTEX
8
0
6
CONTINUOUS
62
252
70
128
10
0.000000
20
0.000000
30
0.000000
71
28
72
10
73
11
0
VERTEX
8
0
6
CONTINUOUS
62
252
70
128
10
0.000000
20
0.000000
30
0.000000
71
28
72
11
73
27
0
VERTEX
8
0
6
CONTINUOUS
62
252
70
128
10
0.000000
20
0.000000
30
0.000000
71
27
72
11
73
12
0
VERTEX
8
0
6
CONTINUOUS
62
252
70
128
10
0.000000
20
0.000000
30
0.000000
71
27
72
12
73
26
0
VERTEX
8
0
6
CONTINUOUS
62
252
70
128
10
0.000000
20
0.000000
30
0.000000
71
26
72
12
73
13
0
VERTEX
8
0
6
CONTINUOUS
62
252
70
128
10
0.000000
20
0.000000
30
0.000000
71
26
72
13
73
25
0
VERTEX
8
0
6
CONTINUOUS
62
252
70
128
10
0.000000
20
0.000000
30
0.000000
71
25
72
13
73
14
0
VERTEX
8
0
6
CONTINUOUS
62
252
70
128
10
0.000000
20
0.000000
30
0.000000
71
25
72
14
73
24
0
VERTEX
8
0
6
CONTINUOUS
62
252
70
128
10
0.000000
20
0.000000
30
0.000000
71
24
72
14
73
15
0
VERTEX
8
0
6
CONTINUOUS
62
252
70
128
10
0.000000
20
0.000000
30
0.000000
71
24
72
15
73
23
0
VERTEX
8
0
6
CONTINUOUS
62
252
70
128
10
0.000000
20
0.000000
30
0.000000
71
23
72
15
73
16
0
VERTEX
8
0
6
CONTINUOUS
62
252
70
128
10
0.000000
20
0.000000
30
0.000000
71
23
72
16
73
22
0
VERTEX
8
0
6
CONTINUOUS
62
252
70
128
10
0.000000
20
0.000000
30
0.000000
71
22
72
16
73
17
0
VERTEX
8
0
6
CONTINUOUS
62
252
70
128
10
0.000000
20
0.000000
30
0.000000
71
22
72
17
73
21
0
VERTEX
8
0
6
CONTINUOUS
62
252
70
128
10
0.000000
20
0.000000
30
0.000000
71
21
72
17
73
18
0
VERTEX
8
0
6
CONTINUOUS
62
252
70
128
10
0.000000
20
0.000000
30
0.000000
71
21
72
18
73
20
0
VERTEX
8
0
6
CONTINUOUS
62
252
70
128
10
0.000000
20
0.000000
30
0.000000
71
20
72
18
73
19
0
SEQEND
0
POLYLINE
66
1
8
0
6
CONTINUOUS
62
252
70
64
75
0
10
0.000000
20
0.000000
30
0.000000
0
VERTEX
8
0
6
CONTINUOUS
62
252
70
192
10
1.200000
20
-40.092954
30
40.092954
0
VERTEX
8
0
6
CONTINUOUS
62
252
70
192
10
1.200000
20
-39.465362
30
40.619567
0
VERTEX
8
0
6
CONTINUOUS
62
252
70
192
10
1.200000
20
-38.755858
30
41.029199
0
VERTEX
8
0
6
CONTINUOUS
62
252
70
192
10
1.200000
20
-37.986002
30
41.309404
0
VERTEX
8
0
6
CONTINUOUS
62
252
70
192
10
1.200000
20
-37.179185
30
41.451668
0
VERTEX
8
0
6
CONTINUOUS
62
252
70
192
10
1.200000
20
-36.359921
30
41.451668
0
VERTEX
8
0
6
CONTINUOUS
62
252
70
192
10
1.200000
20
-35.553103
30
41.309404
0
VERTEX
8
0
6
CONTINUOUS
62
252
70
192
10
1.200000
20
-34.783247
30
41.029199
0
VERTEX
8
0
6
CONTINUOUS
62
252
70
192
10
1.200000
20
-34.073743
30
40.619567
0
VERTEX
8
0
6
CONTINUOUS
62
252
70
192
10
1.200000
20
-33.446151
30
40.092954
0
VERTEX
8
0
6
CONTINUOUS
62
252
70
192
10
1.200000
20
-32.919538
30
39.465362
0
VERTEX
8
0
6
CONTINUOUS
62
252
70
192
10
1.200000
20
-32.509906
30
38.755858
0
VERTEX
8
0
6
CONTINUOUS
62
252
70
192
10
1.200000
20
-32.229701
30
37.986002
0
VERTEX
8
0
6
CONTINUOUS
62
252
70
192
10
1.200000
20
-32.087438
30
37.179185
0
VERTEX
8
0
6
CONTINUOUS
62
252
70
192
10
1.200000
20
-32.087438
30
36.359921
0
VERTEX
8
0
6
CONTINUOUS
62
252
70
192
10
1.200000
20
-32.229701
30
35.553103
0
VERTEX
8
0
6
CONTINUOUS
62
252
70
192
10
1.200000
20
-32.509906
30
34.783247
0
VERTEX
8
0
6
CONTINUOUS
62
252
70
192
10
1.200000
20
-32.919538
30
34.073743
0
VERTEX
8
0
6
CONTINUOUS
62
252
70
192
10
1.200000
20
-33.446151
30
33.446151
0
VERTEX
8
0
6
CONTINUOUS
62
252
70
192
10
1.200000
20
-34.073743
30
32.919538
0
VERTEX
8
0
6
CONTINUOUS
62
252
70
192
10
1.200000
20
-34.783247
30
32.509906
0
VERTEX
8
0
6
CONTINUOUS
62
252
70
192
10
1.200000
20
-35.553103
30
32.229701
0
VERTEX
8
0
6
CONTINUOUS
62
252
70
192
10
1.200000
20
-36.359921
30
32.087438
0
VERTEX
8
0
6
CONTINUOUS
62
252
70
192
10
1.200000
20
-37.179185
30
32.087438
0
VERTEX
8
0
6
CONTINUOUS
62
252
70
192
10
1.200000
20
-37.986002
30
32.229701
0
VERTEX
8
0
6
CONTINUOUS
62
252
70
192
10
1.200000
20
-38.755858
30
32.509906
0
VERTEX
8
0
6
CONTINUOUS
62
252
70
192
10
1.200000
20
-39.465362
30
32.919538
0
VERTEX
8
0
6
CONTINUOUS
62
252
70
192
10
1.200000
20
-40.092954
30
33.446151
0
VERTEX
8
0
6
CONTINUOUS
62
252
70
192
10
1.200000
20
-40.619567
30
34.073743
0
VERTEX
8
0
6
CONTINUOUS
62
252
70
192
10
1.200000
20
-41.029199
30
34.783247
0
VERTEX
8
0
6
CONTINUOUS
62
252
70
192
10
1.200000
20
-41.309404
30
35.553103
0
VERTEX
8
0
6
CONTINUOUS
62
252
70
192
10
1.200000
20
-41.451668
30
36.359921
0
VERTEX
8
0
6
CONTINUOUS
62
252
70
192
10
1.200000
20
-41.451668
30
37.179185
0
VERTEX
8
0
6
CONTINUOUS
62
252
70
192
10
1.200000
20
-41.309404
30
37.986002
0
VERTEX
8
0
6
CONTINUOUS
62
252
70
192
10
1.200000
20
-41.029199
30
38.755858
0
VERTEX
8
0
6
CONTINUOUS
62
252
70
192
10
1.200000
20
-40.619567
30
39.465362
0
VERTEX
8
0
6
CONTINUOUS
62
252
70
192
10
1.200000
20
-35.407612
30
44.600000
0
VERTEX
8
0
6
CONTINUOUS
62
252
70
192
10
1.200000
20
-37.600000
30
44.600000
0
VERTEX
8
0
6
CONTINUOUS
62
252
70
192
10
1.200000
20
-38.815537
30
44.493654
0
VERTEX
8
0
6
CONTINUOUS
62
252
70
192
10
1.200000
20
-39.994141
30
44.177848
0
VERTEX
8
0
6
CONTINUOUS
62
252
70
192
10
1.200000
20
-41.100000
30
43.662178
0
VERTEX
8
0
6
CONTINUOUS
62
252
70
192
10
1.200000
20
-42.099513
30
42.962311
0
VERTEX
8
0
6
CONTINUOUS
62
252
70
192
10
1.200000
20
-42.962311
30
42.099513
0
VERTEX
8
0
6
CONTINUOUS
62
252
70
192
10
1.200000
20
-43.662178
30
41.100000
0
VERTEX
8
0
6
CONTINUOUS
62
252
70
192
10
1.200000
20
-44.177848
30
39.994141
0
VERTEX
8
0
6
CONTINUOUS
62
252
70
192
10
1.200000
20
-44.493654
30
38.815537
0
VERTEX
8
0
6
CONTINUOUS
62
252
70
192
10
1.200000
20
-44.600000
30
37.600000
0
VERTEX
8
0
6
CONTINUOUS
62
252
70
192
10
1.200000
20
-44.600000
30
35.407612
0
VERTEX
8
0
6
CONTINUOUS
62
252
70
192
10
1.200000
20
-41.365747
30
32.173359
0
VERTEX
8
0
6
CONTINUOUS
62
252
70
192
10
1.200000
20
-40.497799
30
31.445064
0
VERTEX
8
0
6
CONTINUOUS
62
252
70
192
10
1.200000
20
-39.516571
30
30.878552
0
VERTEX
8
0
6
CONTINUOUS
62
252
70
192
10
1.200000
20
-38.451876
30
30.491035
0
VERTEX
8
0
6
CONTINUOUS
62
252
70
192
10
1.200000
20
-37.336065
30
30.294287
0
VERTEX
8
0
6
CONTINUOUS
62
252
70
192
10
1.200000
20
-36.203040
30
30.294287
0
VERTEX
8
0
6
CONTINUOUS
62
252
70
192
10
1.200000
20
-35.087229
30
30.491035
0
VERTEX
8
0
6
CONTINUOUS
62
252
70
192
10
1.200000
20
-34.022534
30
30.878552
0
VERTEX
8
0
6
CONTINUOUS
62
252
70
192
10
1.200000
20
-33.041306
30
31.445064
0
VERTEX
8
0
6
CONTINUOUS
62
252
70
192
10
1.200000
20
-32.173359
30
32.173359
0
VERTEX
8
0
6
CONTINUOUS
62
252
70
192
10
1.200000
20
-31.445064
30
33.041306
0
VERTEX
8
0
6
CONTINUOUS
62
252
70
192
10
1.200000
20
-30.878552
30
34.022534
0
VERTEX
8
0
6
CONTINUOUS
62
252
70
192
10
1.200000
20
-30.491035
30
35.087229
0
VERTEX
8
0
6
CONTINUOUS
62
252
70
192
10
1.200000
20
-30.294287
30
36.203040
0
VERTEX
8
0
6
CONTINUOUS
62
252
70
192
10
1.200000
20
-30.294287
30
37.336065
0
VERTEX
8
0
6
CONTINUOUS
62
252
70
192
10
1.200000
20
-30.491035
30
38.451876
0
VERTEX
8
0
6
CONTINUOUS
62
252
70
192
10
1.200000
20
-30.878552
30
39.516571
0
VERTEX
8
0
6
CONTINUOUS
62
252
70
192
10
1.200000
20
-31.445064
30
40.497799
0
VERTEX
8
0
6
CONTINUOUS
62
252
70
192
10
1.200000
20
-32.173359
30
41.365747
0
VERTEX
8
0
6
CONTINUOUS
62
252
70
128
10
0.000000
20
0.000000
30
0.000000
71
2
72
42
73
1
0
VERTEX
8
0
6
CONTINUOUS
62
252
70
128
10
0.000000
20
0.000000
30
0.000000
71
1
72
42
73
43
0
VERTEX
8
0
6
CONTINUOUS
62
252
70
128
10
0.000000
20
0.000000
30
0.000000
71
1
72
43
73
36
0
VERTEX
8
0
6
CONTINUOUS
62
252
70
128
10
0.000000
20
0.000000
30
0.000000
71
36
72
43
73
44
0
VERTEX
8
0
6
CONTINUOUS
62
252
70
128
10
0.000000
20
0.000000
30
0.000000
71
36
72
44
73
35
0
VERTEX
8
0
6
CONTINUOUS
62
252
70
128
10
0.000000
20
0.000000
30
0.000000
71
35
72
44
73
45
0
VERTEX
8
0
6
CONTINUOUS
62
252
70
128
10
0.000000
20
0.000000
30
0.000000
71
35
72
45
73
34
0
VERTEX
8
0
6
CONTINUOUS
62
252
70
128
10
0.000000
20
0.000000
30
0.000000
71
34
72
45
73
46
0
VERTEX
8
0
6
CONTINUOUS
62
252
70
128
10
0.000000
20
0.000000
30
0.000000
71
34
72
46
73
33
0
VERTEX
8
0
6
CONTINUOUS
62
252
70
128
10
0.000000
20
0.000000
30
0.000000
71
33
72
46
73
47
0
VERTEX
8
0
6
CONTINUOUS
62
252
70
128
10
0.000000
20
0.000000
30
0.000000
71
33
72
47
73
32
0
VERTEX
8
0
6
CONTINUOUS
62
252
70
128
10
0.000000
20
0.000000
30
0.000000
71
32
72
47
73
48
0
VERTEX
8
0
6
CONTINUOUS
62
252
70
128
10
0.000000
20
0.000000
30
0.000000
71
32
72
48
73
31
0
VERTEX
8
0
6
CONTINUOUS
62
252
70
128
10
0.000000
20
0.000000
30
0.000000
71
31
72
48
73
30
0
VERTEX
8
0
6
CONTINUOUS
62
252
70
128
10
0.000000
20
0.000000
30
0.000000
71
30
72
48
73
49
0
VERTEX
8
0
6
CONTINUOUS
62
252
70
128
10
0.000000
20
0.000000
30
0.000000
71
30
72
49
73
29
0
VERTEX
8
0
6
CONTINUOUS
62
252
70
128
10
0.000000
20
0.000000
30
0.000000
71
29
72
49
73
28
0
VERTEX
8
0
6
CONTINUOUS
62
252
70
128
10
0.000000
20
0.000000
30
0.000000
71
28
72
49
73
50
0
VERTEX
8
0
6
CONTINUOUS
62
252
70
128
10
0.000000
20
0.000000
30
0.000000
71
28
72
50
73
27
0
VERTEX
8
0
6
CONTINUOUS
62
252
70
128
10
0.000000
20
0.000000
30
0.000000
71
27
72
50
73
51
0
VERTEX
8
0
6
CONTINUOUS
62
252
70
128
10
0.000000
20
0.000000
30
0.000000
71
27
72
51
73
26
0
VERTEX
8
0
6
CONTINUOUS
62
252
70
128
10
0.000000
20
0.000000
30
0.000000
71
26
72
51
73
52
0
VERTEX
8
0
6
CONTINUOUS
62
252
70
128
10
0.000000
20
0.000000
30
0.000000
71
26
72
52
73
25
0
VERTEX
8
0
6
CONTINUOUS
62
252
70
128
10
0.000000
20
0.000000
30
0.000000
71
25
72
52
73
53
0
VERTEX
8
0
6
CONTINUOUS
62
252
70
128
10
0.000000
20
0.000000
30
0.000000
71
25
72
53
73
24
0
VERTEX
8
0
6
CONTINUOUS
62
252
70
128
10
0.000000
20
0.000000
30
0.000000
71
24
72
53
73
54
0
VERTEX
8
0
6
CONTINUOUS
62
252
70
128
10
0.000000
20
0.000000
30
0.000000
71
24
72
54
73
23
0
VERTEX
8
0
6
CONTINUOUS
62
252
70
128
10
0.000000
20
0.000000
30
0.000000
71
23
72
54
73
55
0
VERTEX
8
0
6
CONTINUOUS
62
252
70
128
10
0.000000
20
0.000000
30
0.000000
71
23
72
55
73
22
0
VERTEX
8
0
6
CONTINUOUS
62
252
70
128
10
0.000000
20
0.000000
30
0.000000
71
22
72
55
73
56
0
VERTEX
8
0
6
CONTINUOUS
62
252
70
128
10
0.000000
20
0.000000
30
0.000000
71
22
72
56
73
21
0
VERTEX
8
0
6
CONTINUOUS
62
252
70
128
10
0.000000
20
0.000000
30
0.000000
71
21
72
56
73
57
0
VERTEX
8
0
6
CONTINUOUS
62
252
70
128
10
0.000000
20
0.000000
30
0.000000
71
21
72
57
73
20
0
VERTEX
8
0
6
CONTINUOUS
62
252
70
128
10
0.000000
20
0.000000
30
0.000000
71
20
72
57
73
58
0
VERTEX
8
0
6
CONTINUOUS
62
252
70
128
10
0.000000
20
0.000000
30
0.000000
71
20
72
58
73
19
0
VERTEX
8
0
6
CONTINUOUS
62
252
70
128
10
0.000000
20
0.000000
30
0.000000
71
19
72
58
73
18
0
VERTEX
8
0
6
CONTINUOUS
62
252
70
128
10
0.000000
20
0.000000
30
0.000000
71
18
72
58
73
59
0
VERTEX
8
0
6
CONTINUOUS
62
252
70
128
10
0.000000
20
0.000000
30
0.000000
71
18
72
59
73
17
0
VERTEX
8
0
6
CONTINUOUS
62
252
70
128
10
0.000000
20
0.000000
30
0.000000
71
17
72
59
73
60
0
VERTEX
8
0
6
CONTINUOUS
62
252
70
128
10
0.000000
20
0.000000
30
0.000000
71
17
72
60
73
16
0
VERTEX
8
0
6
CONTINUOUS
62
252
70
128
10
0.000000
20
0.000000
30
0.000000
71
16
72
60
73
61
0
VERTEX
8
0
6
CONTINUOUS
62
252
70
128
10
0.000000
20
0.000000
30
0.000000
71
16
72
61
73
15
0
VERTEX
8
0
6
CONTINUOUS
62
252
70
128
10
0.000000
20
0.000000
30
0.000000
71
15
72
61
73
62
0
VERTEX
8
0
6
CONTINUOUS
62
252
70
128
10
0.000000
20
0.000000
30
0.000000
71
15
72
62
73
14
0
VERTEX
8
0
6
CONTINUOUS
62
252
70
128
10
0.000000
20
0.000000
30
0.000000
71
14
72
62
73
63
0
VERTEX
8
0
6
CONTINUOUS
62
252
70
128
10
0.000000
20
0.000000
30
0.000000
71
14
72
63
73
13
0
VERTEX
8
0
6
CONTINUOUS
62
252
70
128
10
0.000000
20
0.000000
30
0.000000
71
13
72
63
73
64
0
VERTEX
8
0
6
CONTINUOUS
62
252
70
128
10
0.000000
20
0.000000
30
0.000000
71
13
72
64
73
12
0
VERTEX
8
0
6
CONTINUOUS
62
252
70
128
10
0.000000
20
0.000000
30
0.000000
71
12
72
64
73
65
0
VERTEX
8
0
6
CONTINUOUS
62
252
70
128
10
0.000000
20
0.000000
30
0.000000
71
12
72
65
73
11
0
VERTEX
8
0
6
CONTINUOUS
62
252
70
128
10
0.000000
20
0.000000
30
0.000000
71
11
72
65
73
66
0
VERTEX
8
0
6
CONTINUOUS
62
252
70
128
10
0.000000
20
0.000000
30
0.000000
71
11
72
66
73
10
0
VERTEX
8
0
6
CONTINUOUS
62
252
70
128
10
0.000000
20
0.000000
30
0.000000
71
10
72
66
73
67
0
VERTEX
8
0
6
CONTINUOUS
62
252
70
128
10
0.000000
20
0.000000
30
0.000000
71
10
72
67
73
9
0
VERTEX
8
0
6
CONTINUOUS
62
252
70
128
10
0.000000
20
0.000000
30
0.000000
71
9
72
67
73
8
0
VERTEX
8
0
6
CONTINUOUS
62
252
70
128
10
0.000000
20
0.000000
30
0.000000
71
8
72
67
73
37
0
VERTEX
8
0
6
CONTINUOUS
62
252
70
128
10
0.000000
20
0.000000
30
0.000000
71
8
72
37
73
7
0
VERTEX
8
0
6
CONTINUOUS
62
252
70
128
10
0.000000
20
0.000000
30
0.000000
71
7
72
37
73
6
0
VERTEX
8
0
6
CONTINUOUS
62
252
70
128
10
0.000000
20
0.000000
30
0.000000
71
6
72
37
73
38
0
VERTEX
8
0
6
CONTINUOUS
62
252
70
128
10
0.000000
20
0.000000
30
0.000000
71
6
72
38
73
5
0
VERTEX
8
0
6
CONTINUOUS
62
252
70
128
10
0.000000
20
0.000000
30
0.000000
71
5
72
38
73
39
0
VERTEX
8
0
6
CONTINUOUS
62
252
70
128
10
0.000000
20
0.000000
30
0.000000
71
5
72
39
73
4
0
VERTEX
8
0
6
CONTINUOUS
62
252
70
128
10
0.000000
20
0.000000
30
0.000000
71
4
72
39
73
40
0
VERTEX
8
0
6
CONTINUOUS
62
252
70
128
10
0.000000
20
0.000000
30
0.000000
71
4
72
40
73
3
0
VERTEX
8
0
6
CONTINUOUS
62
252
70
128
10
0.000000
20
0.000000
30
0.000000
71
3
72
40
73
41
0
VERTEX
8
0
6
CONTINUOUS
62
252
70
128
10
0.000000
20
0.000000
30
0.000000
71
3
72
41
73
2
0
VERTEX
8
0
6
CONTINUOUS
62
252
70
128
10
0.000000
20
0.000000
30
0.000000
71
2
72
41
73
42
0
SEQEND
0
POLYLINE
66
1
8
0
6
CONTINUOUS
62
252
70
64
75
0
10
0.000000
20
0.000000
30
0.000000
0
VERTEX
8
0
6
CONTINUOUS
62
252
70
192
10
6.000000
20
-35.407612
30
44.600000
0
VERTEX
8
0
6
CONTINUOUS
62
252
70
192
10
6.000000
20
-32.173359
30
41.365747
0
VERTEX
8
0
6
CONTINUOUS
62
252
70
192
10
6.000000
20
-31.445064
30
40.497799
0
VERTEX
8
0
6
CONTINUOUS
62
252
70
192
10
6.000000
20
-30.878552
30
39.516571
0
VERTEX
8
0
6
CONTINUOUS
62
252
70
192
10
6.000000
20
-30.491035
30
38.451876
0
VERTEX
8
0
6
CONTINUOUS
62
252
70
192
10
6.000000
20
-30.294287
30
37.336065
0
VERTEX
8
0
6
CONTINUOUS
62
252
70
192
10
6.000000
20
-30.294287
30
36.203040
0
VERTEX
8
0
6
CONTINUOUS
62
252
70
192
10
6.000000
20
-30.491035
30
35.087229
0
VERTEX
8
0
6
CONTINUOUS
62
252
70
192
10
6.000000
20
-30.878552
30
34.022534
0
VERTEX
8
0
6
CONTINUOUS
62
252
70
192
10
6.000000
20
-31.445064
30
33.041306
0
VERTEX
8
0
6
CONTINUOUS
62
252
70
192
10
6.000000
20
-32.173359
30
32.173359
0
VERTEX
8
0
6
CONTINUOUS
62
252
70
192
10
6.000000
20
-33.041306
30
31.445064
0
VERTEX
8
0
6
CONTINUOUS
62
252
70
192
10
6.000000
20
-34.022534
30
30.878552
0
VERTEX
8
0
6
CONTINUOUS
62
252
70
192
10
6.000000
20
-35.087229
30
30.491035
0
VERTEX
8
0
6
CONTINUOUS
62
252
70
192
10
6.000000
20
-36.203040
30
30.294287
0
VERTEX
8
0
6
CONTINUOUS
62
252
70
192
10
6.000000
20
-37.336065
30
30.294287
0
VERTEX
8
0
6
CONTINUOUS
62
252
70
192
10
6.000000
20
-38.451876
30
30.491035
0
VERTEX
8
0
6
CONTINUOUS
62
252
70
192
10
6.000000
20
-39.516571
30
30.878552
0
VERTEX
8
0
6
CONTINUOUS
62
252
70
192
10
6.000000
20
-40.497799
30
31.445064
0
VERTEX
8
0
6
CONTINUOUS
62
252
70
192
10
6.000000
20
-41.365747
30
32.173359
0
VERTEX
8
0
6
CONTINUOUS
62
252
70
192
10
6.000000
20
-44.600000
30
35.407612
0
VERTEX
8
0
6
CONTINUOUS
62
252
70
192
10
6.000000
20
-44.600000
30
18.473950
0
VERTEX
8
0
6
CONTINUOUS
62
252
70
192
10
6.000000
20
-18.473950
30
44.600000
0
VERTEX
8
0
6
CONTINUOUS
62
252
70
128
10
0.000000
20
0.000000
30
0.000000
71
1
72
2
73
23
0
VERTEX
8
0
6
CONTINUOUS
62
252
70
128
10
0.000000
20
0.000000
30
0.000000
71
23
72
2
73
3
0
VERTEX
8
0
6
CONTINUOUS
62
252
70
128
10
0.000000
20
0.000000
30
0.000000
71
23
72
3
73
4
0
VERTEX
8
0
6
CONTINUOUS
62
252
70
128
10
0.000000
20
0.000000
30
0.000000
71
4
72
5
73
23
0
VERTEX
8
0
6
CONTINUOUS
62
252
70
128
10
0.000000
20
0.000000
30
0.000000
71
23
72
5
73
6
0
VERTEX
8
0
6
CONTINUOUS
62
252
70
128
10
0.000000
20
0.000000
30
0.000000
71
23
72
6
73
7
0
VERTEX
8
0
6
CONTINUOUS
62
252
70
128
10
0.000000
20
0.000000
30
0.000000
71
7
72
8
73
23
0
VERTEX
8
0
6
CONTINUOUS
62
252
70
128
10
0.000000
20
0.000000
30
0.000000
71
23
72
8
73
9
0
VERTEX
8
0
6
CONTINUOUS
62
252
70
128
10
0.000000
20
0.000000
30
0.000000
71
23
72
9
73
10
0
VERTEX
8
0
6
CONTINUOUS
62
252
70
128
10
0.000000
20
0.000000
30
0.000000
71
10
72
11
73
23
0
VERTEX
8
0
6
CONTINUOUS
62
252
70
128
10
0.000000
20
0.000000
30
0.000000
71
23
72
11
73
22
0
VERTEX
8
0
6
CONTINUOUS
62
252
70
128
10
0.000000
20
0.000000
30
0.000000
71
22
72
11
73
12
0
VERTEX
8
0
6
CONTINUOUS
62
252
70
128
10
0.000000
20
0.000000
30
0.000000
71
22
72
12
73
13
0
VERTEX
8
0
6
CONTINUOUS
62
252
70
128
10
0.000000
20
0.000000
30
0.000000
71
13
72
14
73
22
0
VERTEX
8
0
6
CONTINUOUS
62
252
70
128
10
0.000000
20
0.000000
30
0.000000
71
22
72
14
73
15
0
VERTEX
8
0
6
CONTINUOUS
62
252
70
128
10
0.000000
20
0.000000
30
0.000000
71
22
72
15
73
16
0
VERTEX
8
0
6
CONTINUOUS
62
252
70
128
10
0.000000
20
0.000000
30
0.000000
71
16
72
17
73
22
0
VERTEX
8
0
6
CONTINUOUS
62
252
70
128
10
0.000000
20
0.000000
30
0.000000
71
22
72
17
73
18
0
VERTEX
8
0
6
CONTINUOUS
62
252
70
128
10
0.000000
20
0.000000
30
0.000000
71
22
72
18
73
19
0
VERTEX
8
0
6
CONTINUOUS
62
252
70
128
10
0.000000
20
0.000000
30
0.000000
71
19
72
20
73
22
0
VERTEX
8
0
6
CONTINUOUS
62
252
70
128
10
0.000000
20
0.000000
30
0.000000
71
22
72
20
73
21
0
SEQEND
0
POLYLINE
66
1
8
0
6
CONTINUOUS
62
252
70
64
75
0
10
0.000000
20
0.000000
30
0.000000
0
VERTEX
8
0
6
CONTINUOUS
62
252
70
192
10
6.000000
20
44.600000
30
35.407612
0
VERTEX
8
0
6
CONTINUOUS
62
252
70
192
10
1.200000
20
44.600000
30
35.407612
0
VERTEX
8
0
6
CONTINUOUS
62
252
70
192
10
1.200000
20
41.365747
30
32.173359
0
VERTEX
8
0
6
CONTINUOUS
62
252
70
192
10
6.000000
20
41.365747
30
32.173359
0
VERTEX
8
0
6
CONTINUOUS
62
252
70
128
10
0.000000
20
0.000000
30
0.000000
71
1
72
2
73
4
0
VERTEX
8
0
6
CONTINUOUS
62
252
70
128
10
0.000000
20
0.000000
30
0.000000
71
4
72
2
73
3
0
SEQEND
0
POLYLINE
66
1
8
0
6
CONTINUOUS
62
252
70
64
75
0
10
0.000000
20
0.000000
30
0.000000
0
VERTEX
8
0
6
CONTINUOUS
62
252
70
192
10
1.200000
20
35.407612
30
44.600000
0
VERTEX
8
0
6
CONTINUOUS
62
252
70
192
10
6.000000
20
35.407612
30
44.600000
0
VERTEX
8
0
6
CONTINUOUS
62
252
70
192
10
6.000000
20
32.173359
30
41.365747
0
VERTEX
8
0
6
CONTINUOUS
62
252
70
192
10
1.200000
20
32.173359
30
41.365747
0
VERTEX
8
0
6
CONTINUOUS
62
252
70
128
10
0.000000
20
0.000000
30
0.000000
71
1
72
2
73
4
0
VERTEX
8
0
6
CONTINUOUS
62
252
70
128
10
0.000000
20
0.000000
30
0.000000
71
4
72
2
73
3
0
SEQEND
0
POLYLINE
66
1
8
0
6
CONTINUOUS
62
252
70
64
75
0
10
0.000000
20
0.000000
30
0.000000
0
VERTEX
8
0
6
CONTINUOUS
62
252
70
192
10
1.200000
20
41.365747
30
32.173359
0
VERTEX
8
0
6
CONTINUOUS
62
252
70
192
10
1.200000
20
40.497799
30
31.445064
0
VERTEX
8
0
6
CONTINUOUS
62
252
70
192
10
1.200000
20
39.516571
30
30.878552
0
VERTEX
8
0
6
CONTINUOUS
62
252
70
192
10
1.200000
20
38.451876
30
30.491035
0
VERTEX
8
0
6
CONTINUOUS
62
252
70
192
10
1.200000
20
37.336065
30
30.294287
0
VERTEX
8
0
6
CONTINUOUS
62
252
70
192
10
1.200000
20
36.203040
30
30.294287
0
VERTEX
8
0
6
CONTINUOUS
62
252
70
192
10
1.200000
20
35.087229
30
30.491035
0
VERTEX
8
0
6
CONTINUOUS
62
252
70
192
10
1.200000
20
34.022534
30
30.878552
0
VERTEX
8
0
6
CONTINUOUS
62
252
70
192
10
1.200000
20
33.041306
30
31.445064
0
VERTEX
8
0
6
CONTINUOUS
62
252
70
192
10
1.200000
20
32.173359
30
32.173359
0
VERTEX
8
0
6
CONTINUOUS
62
252
70
192
10
1.200000
20
31.445064
30
33.041306
0
VERTEX
8
0
6
CONTINUOUS
62
252
70
192
10
1.200000
20
30.878552
30
34.022534
0
VERTEX
8
0
6
CONTINUOUS
62
252
70
192
10
1.200000
20
30.491035
30
35.087229
0
VERTEX
8
0
6
CONTINUOUS
62
252
70
192
10
1.200000
20
30.294287
30
36.203040
0
VERTEX
8
0
6
CONTINUOUS
62
252
70
192
10
1.200000
20
30.294287
30
37.336065
0
VERTEX
8
0
6
CONTINUOUS
62
252
70
192
10
1.200000
20
30.491035
30
38.451876
0
VERTEX
8
0
6
CONTINUOUS
62
252
70
192
10
1.200000
20
30.878552
30
39.516571
0
VERTEX
8
0
6
CONTINUOUS
62
252
70
192
10
1.200000
20
31.445064
30
40.497799
0
VERTEX
8
0
6
CONTINUOUS
62
252
70
192
10
1.200000
20
32.173359
30
41.365747
0
VERTEX
8
0
6
CONTINUOUS
62
252
70
192
10
6.000000
20
32.173359
30
41.365747
0
VERTEX
8
0
6
CONTINUOUS
62
252
70
192
10
6.000000
20
31.445064
30
40.497799
0
VERTEX
8
0
6
CONTINUOUS
62
252
70
192
10
6.000000
20
30.878552
30
39.516571
0
VERTEX
8
0
6
CONTINUOUS
62
252
70
192
10
6.000000
20
30.491035
30
38.451876
0
VERTEX
8
0
6
CONTINUOUS
62
252
70
192
10
6.000000
20
30.294287
30
37.336065
0
VERTEX
8
0
6
CONTINUOUS
62
252
70
192
10
6.000000
20
30.294287
30
36.203040
0
VERTEX
8
0
6
CONTINUOUS
62
252
70
192
10
6.000000
20
30.491035
30
35.087229
0
VERTEX
8
0
6
CONTINUOUS
62
252
70
192
10
6.000000
20
30.878552
30
34.022534
0
VERTEX
8
0
6
CONTINUOUS
62
252
70
192
10
6.000000
20
31.445064
30
33.041306
0
VERTEX
8
0
6
CONTINUOUS
62
252
70
192
10
6.000000
20
32.173359
30
32.173359
0
VERTEX
8
0
6
CONTINUOUS
62
252
70
192
10
6.000000
20
33.041306
30
31.445064
0
VERTEX
8
0
6
CONTINUOUS
62
252
70
192
10
6.000000
20
34.022534
30
30.878552
0
VERTEX
8
0
6
CONTINUOUS
62
252
70
192
10
6.000000
20
35.087229
30
30.491035
0
VERTEX
8
0
6
CONTINUOUS
62
252
70
192
10
6.000000
20
36.203040
30
30.294287
0
VERTEX
8
0
6
CONTINUOUS
62
252
70
192
10
6.000000
20
37.336065
30
30.294287
0
VERTEX
8
0
6
CONTINUOUS
62
252
70
192
10
6.000000
20
38.451876
30
30.491035
0
VERTEX
8
0
6
CONTINUOUS
62
252
70
192
10
6.000000
20
39.516571
30
30.878552
0
VERTEX
8
0
6
CONTINUOUS
62
252
70
192
10
6.000000
20
40.497799
30
31.445064
0
VERTEX
8
0
6
CONTINUOUS
62
252
70
192
10
6.000000
20
41.365747
30
32.173359
0
VERTEX
8
0
6
CONTINUOUS
62
252
70
128
10
0.000000
20
0.000000
30
0.000000
71
38
72
1
73
37
0
VERTEX
8
0
6
CONTINUOUS
62
252
70
128
10
0.000000
20
0.000000
30
0.000000
71
37
72
1
73
2
0
VERTEX
8
0
6
CONTINUOUS
62
252
70
128
10
0.000000
20
0.000000
30
0.000000
71
37
72
2
73
36
0
VERTEX
8
0
6
CONTINUOUS
62
252
70
128
10
0.000000
20
0.000000
30
0.000000
71
36
72
2
73
3
0
VERTEX
8
0
6
CONTINUOUS
62
252
70
128
10
0.000000
20
0.000000
30
0.000000
71
36
72
3
73
35
0
VERTEX
8
0
6
CONTINUOUS
62
252
70
128
10
0.000000
20
0.000000
30
0.000000
71
35
72
3
73
4
0
VERTEX
8
0
6
CONTINUOUS
62
252
70
128
10
0.000000
20
0.000000
30
0.000000
71
35
72
4
73
34
0
VERTEX
8
0
6
CONTINUOUS
62
252
70
128
10
0.000000
20
0.000000
30
0.000000
71
34
72
4
73
5
0
VERTEX
8
0
6
CONTINUOUS
62
252
70
128
10
0.000000
20
0.000000
30
0.000000
71
34
72
5
73
33
0
VERTEX
8
0
6
CONTINUOUS
62
252
70
128
10
0.000000
20
0.000000
30
0.000000
71
33
72
5
73
6
0
VERTEX
8
0
6
CONTINUOUS
62
252
70
128
10
0.000000
20
0.000000
30
0.000000
71
33
72
6
73
32
0
VERTEX
8
0
6
CONTINUOUS
62
252
70
128
10
0.000000
20
0.000000
30
0.000000
71
32
72
6
73
7
0
VERTEX
8
0
6
CONTINUOUS
62
252
70
128
10
0.000000
20
0.000000
30
0.000000
71
32
72
7
73
31
0
VERTEX
8
0
6
CONTINUOUS
62
252
70
128
10
0.000000
20
0.000000
30
0.000000
71
31
72
7
73
8
0
VERTEX
8
0
6
CONTINUOUS
62
252
70
128
10
0.000000
20
0.000000
30
0.000000
71
31
72
8
73
30
0
VERTEX
8
0
6
CONTINUOUS
62
252
70
128
10
0.000000
20
0.000000
30
0.000000
71
30
72
8
73
9
0
VERTEX
8
0
6
CONTINUOUS
62
252
70
128
10
0.000000
20
0.000000
30
0.000000
71
30
72
9
73
29
0
VERTEX
8
0
6
CONTINUOUS
62
252
70
128
10
0.000000
20
0.000000
30
0.000000
71
29
72
9
73
10
0
VERTEX
8
0
6
CONTINUOUS
62
252
70
128
10
0.000000
20
0.000000
30
0.000000
71
29
72
10
73
28
0
VERTEX
8
0
6
CONTINUOUS
62
252
70
128
10
0.000000
20
0.000000
30
0.000000
71
28
72
10
73
11
0
VERTEX
8
0
6
CONTINUOUS
62
252
70
128
10
0.000000
20
0.000000
30
0.000000
71
28
72
11
73
27
0
VERTEX
8
0
6
CONTINUOUS
62
252
70
128
10
0.000000
20
0.000000
30
0.000000
71
27
72
11
73
12
0
VERTEX
8
0
6
CONTINUOUS
62
252
70
128
10
0.000000
20
0.000000
30
0.000000
71
27
72
12
73
26
0
VERTEX
8
0
6
CONTINUOUS
62
252
70
128
10
0.000000
20
0.000000
30
0.000000
71
26
72
12
73
13
0
VERTEX
8
0
6
CONTINUOUS
62
252
70
128
10
0.000000
20
0.000000
30
0.000000
71
26
72
13
73
25
0
VERTEX
8
0
6
CONTINUOUS
62
252
70
128
10
0.000000
20
0.000000
30
0.000000
71
25
72
13
73
14
0
VERTEX
8
0
6
CONTINUOUS
62
252
70
128
10
0.000000
20
0.000000
30
0.000000
71
25
72
14
73
24
0
VERTEX
8
0
6
CONTINUOUS
62
252
70
128
10
0.000000
20
0.000000
30
0.000000
71
24
72
14
73
15
0
VERTEX
8
0
6
CONTINUOUS
62
252
70
128
10
0.000000
20
0.000000
30
0.000000
71
24
72
15
73
23
0
VERTEX
8
0
6
CONTINUOUS
62
252
70
128
10
0.000000
20
0.000000
30
0.000000
71
23
72
15
73
16
0
VERTEX
8
0
6
CONTINUOUS
62
252
70
128
10
0.000000
20
0.000000
30
0.000000
71
23
72
16
73
22
0
VERTEX
8
0
6
CONTINUOUS
62
252
70
128
10
0.000000
20
0.000000
30
0.000000
71
22
72
16
73
17
0
VERTEX
8
0
6
CONTINUOUS
62
252
70
128
10
0.000000
20
0.000000
30
0.000000
71
22
72
17
73
21
0
VERTEX
8
0
6
CONTINUOUS
62
252
70
128
10
0.000000
20
0.000000
30
0.000000
71
21
72
17
73
18
0
VERTEX
8
0
6
CONTINUOUS
62
252
70
128
10
0.000000
20
0.000000
30
0.000000
71
21
72
18
73
20
0
VERTEX
8
0
6
CONTINUOUS
62
252
70
128
10
0.000000
20
0.000000
30
0.000000
71
20
72
18
73
19
0
SEQEND
0
POLYLINE
66
1
8
0
6
CONTINUOUS
62
252
70
64
75
0
10
0.000000
20
0.000000
30
0.000000
0
VERTEX
8
0
6
CONTINUOUS
62
252
70
192
10
1.200000
20
40.092954
30
40.092954
0
VERTEX
8
0
6
CONTINUOUS
62
252
70
192
10
1.200000
20
40.619567
30
39.465362
0
VERTEX
8
0
6
CONTINUOUS
62
252
70
192
10
1.200000
20
41.029199
30
38.755858
0
VERTEX
8
0
6
CONTINUOUS
62
252
70
192
10
1.200000
20
41.309404
30
37.986002
0
VERTEX
8
0
6
CONTINUOUS
62
252
70
192
10
1.200000
20
41.451668
30
37.179185
0
VERTEX
8
0
6
CONTINUOUS
62
252
70
192
10
1.200000
20
41.451668
30
36.359921
0
VERTEX
8
0
6
CONTINUOUS
62
252
70
192
10
1.200000
20
41.309404
30
35.553103
0
VERTEX
8
0
6
CONTINUOUS
62
252
70
192
10
1.200000
20
41.029199
30
34.783247
0
VERTEX
8
0
6
CONTINUOUS
62
252
70
192
10
1.200000
20
40.619567
30
34.073743
0
VERTEX
8
0
6
CONTINUOUS
62
252
70
192
10
1.200000
20
40.092954
30
33.446151
0
VERTEX
8
0
6
CONTINUOUS
62
252
70
192
10
1.200000
20
39.465362
30
32.919538
0
VERTEX
8
0
6
CONTINUOUS
62
252
70
192
10
1.200000
20
38.755858
30
32.509906
0
VERTEX
8
0
6
CONTINUOUS
62
252
70
192
10
1.200000
20
37.986002
30
32.229701
0
VERTEX
8
0
6
CONTINUOUS
62
252
70
192
10
1.200000
20
37.179185
30
32.087438
0
VERTEX
8
0
6
CONTINUOUS
62
252
70
192
10
1.200000
20
36.359921
30
32.087438
0
VERTEX
8
0
6
CONTINUOUS
62
252
70
192
10
1.200000
20
35.553103
30
32.229701
0
VERTEX
8
0
6
CONTINUOUS
62
252
70
192
10
1.200000
20
34.783247
30
32.509906
0
VERTEX
8
0
6
CONTINUOUS
62
252
70
192
10
1.200000
20
34.073743
30
32.919538
0
VERTEX
8
0
6
CONTINUOUS
62
252
70
192
10
1.200000
20
33.446151
30
33.446151
0
VERTEX
8
0
6
CONTINUOUS
62
252
70
192
10
1.200000
20
32.919538
30
34.073743
0
VERTEX
8
0
6
CONTINUOUS
62
252
70
192
10
1.200000
20
32.509906
30
34.783247
0
VERTEX
8
0
6
CONTINUOUS
62
252
70
192
10
1.200000
20
32.229701
30
35.553103
0
VERTEX
8
0
6
CONTINUOUS
62
252
70
192
10
1.200000
20
32.087438
30
36.359921
0
VERTEX
8
0
6
CONTINUOUS
62
252
70
192
10
1.200000
20
32.087438
30
37.179185
0
VERTEX
8
0
6
CONTINUOUS
62
252
70
192
10
1.200000
20
32.229701
30
37.986002
0
VERTEX
8
0
6
CONTINUOUS
62
252
70
192
10
1.200000
20
32.509906
30
38.755858
0
VERTEX
8
0
6
CONTINUOUS
62
252
70
192
10
1.200000
20
32.919538
30
39.465362
0
VERTEX
8
0
6
CONTINUOUS
62
252
70
192
10
1.200000
20
33.446151
30
40.092954
0
VERTEX
8
0
6
CONTINUOUS
62
252
70
192
10
1.200000
20
34.073743
30
40.619567
0
VERTEX
8
0
6
CONTINUOUS
62
252
70
192
10
1.200000
20
34.783247
30
41.029199
0
VERTEX
8
0
6
CONTINUOUS
62
252
70
192
10
1.200000
20
35.553103
30
41.309404
0
VERTEX
8
0
6
CONTINUOUS
62
252
70
192
10
1.200000
20
36.359921
30
41.451668
0
VERTEX
8
0
6
CONTINUOUS
62
252
70
192
10
1.200000
20
37.179185
30
41.451668
0
VERTEX
8
0
6
CONTINUOUS
62
252
70
192
10
1.200000
20
37.986002
30
41.309404
0
VERTEX
8
0
6
CONTINUOUS
62
252
70
192
10
1.200000
20
38.755858
30
41.029199
0
VERTEX
8
0
6
CONTINUOUS
62
252
70
192
10
1.200000
20
39.465362
30
40.619567
0
VERTEX
8
0
6
CONTINUOUS
62
252
70
192
10
1.200000
20
44.600000
30
35.407612
0
VERTEX
8
0
6
CONTINUOUS
62
252
70
192
10
1.200000
20
44.600000
30
37.600000
0
VERTEX
8
0
6
CONTINUOUS
62
252
70
192
10
1.200000
20
44.493654
30
38.815537
0
VERTEX
8
0
6
CONTINUOUS
62
252
70
192
10
1.200000
20
44.177848
30
39.994141
0
VERTEX
8
0
6
CONTINUOUS
62
252
70
192
10
1.200000
20
43.662178
30
41.100000
0
VERTEX
8
0
6
CONTINUOUS
62
252
70
192
10
1.200000
20
42.962311
30
42.099513
0
VERTEX
8
0
6
CONTINUOUS
62
252
70
192
10
1.200000
20
42.099513
30
42.962311
0
VERTEX
8
0
6
CONTINUOUS
62
252
70
192
10
1.200000
20
41.100000
30
43.662178
0
VERTEX
8
0
6
CONTINUOUS
62
252
70
192
10
1.200000
20
39.994141
30
44.177848
0
VERTEX
8
0
6
CONTINUOUS
62
252
70
192
10
1.200000
20
38.815537
30
44.493654
0
VERTEX
8
0
6
CONTINUOUS
62
252
70
192
10
1.200000
20
37.600000
30
44.600000
0
VERTEX
8
0
6
CONTINUOUS
62
252
70
192
10
1.200000
20
35.407612
30
44.600000
0
VERTEX
8
0
6
CONTINUOUS
62
252
70
192
10
1.200000
20
32.173359
30
41.365747
0
VERTEX
8
0
6
CONTINUOUS
62
252
70
192
10
1.200000
20
31.445064
30
40.497799
0
VERTEX
8
0
6
CONTINUOUS
62
252
70
192
10
1.200000
20
30.878552
30
39.516571
0
VERTEX
8
0
6
CONTINUOUS
62
252
70
192
10
1.200000
20
30.491035
30
38.451876
0
VERTEX
8
0
6
CONTINUOUS
62
252
70
192
10
1.200000
20
30.294287
30
37.336065
0
VERTEX
8
0
6
CONTINUOUS
62
252
70
192
10
1.200000
20
30.294287
30
36.203040
0
VERTEX
8
0
6
CONTINUOUS
62
252
70
192
10
1.200000
20
30.491035
30
35.087229
0
VERTEX
8
0
6
CONTINUOUS
62
252
70
192
10
1.200000
20
30.878552
30
34.022534
0
VERTEX
8
0
6
CONTINUOUS
62
252
70
192
10
1.200000
20
31.445064
30
33.041306
0
VERTEX
8
0
6
CONTINUOUS
62
252
70
192
10
1.200000
20
32.173359
30
32.173359
0
VERTEX
8
0
6
CONTINUOUS
62
252
70
192
10
1.200000
20
33.041306
30
31.445064
0
VERTEX
8
0
6
CONTINUOUS
62
252
70
192
10
1.200000
20
34.022534
30
30.878552
0
VERTEX
8
0
6
CONTINUOUS
62
252
70
192
10
1.200000
20
35.087229
30
30.491035
0
VERTEX
8
0
6
CONTINUOUS
62
252
70
192
10
1.200000
20
36.203040
30
30.294287
0
VERTEX
8
0
6
CONTINUOUS
62
252
70
192
10
1.200000
20
37.336065
30
30.294287
0
VERTEX
8
0
6
CONTINUOUS
62
252
70
192
10
1.200000
20
38.451876
30
30.491035
0
VERTEX
8
0
6
CONTINUOUS
62
252
70
192
10
1.200000
20
39.516571
30
30.878552
0
VERTEX
8
0
6
CONTINUOUS
62
252
70
192
10
1.200000
20
40.497799
30
31.445064
0
VERTEX
8
0
6
CONTINUOUS
62
252
70
192
10
1.200000
20
41.365747
30
32.173359
0
VERTEX
8
0
6
CONTINUOUS
62
252
70
128
10
0.000000
20
0.000000
30
0.000000
71
2
72
42
73
1
0
VERTEX
8
0
6
CONTINUOUS
62
252
70
128
10
0.000000
20
0.000000
30
0.000000
71
1
72
42
73
43
0
VERTEX
8
0
6
CONTINUOUS
62
252
70
128
10
0.000000
20
0.000000
30
0.000000
71
1
72
43
73
36
0
VERTEX
8
0
6
CONTINUOUS
62
252
70
128
10
0.000000
20
0.000000
30
0.000000
71
36
72
43
73
44
0
VERTEX
8
0
6
CONTINUOUS
62
252
70
128
10
0.000000
20
0.000000
30
0.000000
71
36
72
44
73
35
0
VERTEX
8
0
6
CONTINUOUS
62
252
70
128
10
0.000000
20
0.000000
30
0.000000
71
35
72
44
73
45
0
VERTEX
8
0
6
CONTINUOUS
62
252
70
128
10
0.000000
20
0.000000
30
0.000000
71
35
72
45
73
34
0
VERTEX
8
0
6
CONTINUOUS
62
252
70
128
10
0.000000
20
0.000000
30
0.000000
71
34
72
45
73
46
0
VERTEX
8
0
6
CONTINUOUS
62
252
70
128
10
0.000000
20
0.000000
30
0.000000
71
34
72
46
73
33
0
VERTEX
8
0
6
CONTINUOUS
62
252
70
128
10
0.000000
20
0.000000
30
0.000000
71
33
72
46
73
47
0
VERTEX
8
0
6
CONTINUOUS
62
252
70
128
10
0.000000
20
0.000000
30
0.000000
71
33
72
47
73
32
0
VERTEX
8
0
6
CONTINUOUS
62
252
70
128
10
0.000000
20
0.000000
30
0.000000
71
32
72
47
73
48
0
VERTEX
8
0
6
CONTINUOUS
62
252
70
128
10
0.000000
20
0.000000
30
0.000000
71
32
72
48
73
31
0
VERTEX
8
0
6
CONTINUOUS
62
252
70
128
10
0.000000
20
0.000000
30
0.000000
71
31
72
48
73
30
0
VERTEX
8
0
6
CONTINUOUS
62
252
70
128
10
0.000000
20
0.000000
30
0.000000
71
30
72
48
73
49
0
VERTEX
8
0
6
CONTINUOUS
62
252
70
128
10
0.000000
20
0.000000
30
0.000000
71
30
72
49
73
29
0
VERTEX
8
0
6
CONTINUOUS
62
252
70
128
10
0.000000
20
0.000000
30
0.000000
71
29
72
49
73
28
0
VERTEX
8
0
6
CONTINUOUS
62
252
70
128
10
0.000000
20
0.000000
30
0.000000
71
28
72
49
73
50
0
VERTEX
8
0
6
CONTINUOUS
62
252
70
128
10
0.000000
20
0.000000
30
0.000000
71
28
72
50
73
27
0
VERTEX
8
0
6
CONTINUOUS
62
252
70
128
10
0.000000
20
0.000000
30
0.000000
71
27
72
50
73
51
0
VERTEX
8
0
6
CONTINUOUS
62
252
70
128
10
0.000000
20
0.000000
30
0.000000
71
27
72
51
73
26
0
VERTEX
8
0
6
CONTINUOUS
62
252
70
128
10
0.000000
20
0.000000
30
0.000000
71
26
72
51
73
52
0
VERTEX
8
0
6
CONTINUOUS
62
252
70
128
10
0.000000
20
0.000000
30
0.000000
71
26
72
52
73
25
0
VERTEX
8
0
6
CONTINUOUS
62
252
70
128
10
0.000000
20
0.000000
30
0.000000
71
25
72
52
73
53
0
VERTEX
8
0
6
CONTINUOUS
62
252
70
128
10
0.000000
20
0.000000
30
0.000000
71
25
72
53
73
24
0
VERTEX
8
0
6
CONTINUOUS
62
252
70
128
10
0.000000
20
0.000000
30
0.000000
71
24
72
53
73
54
0
VERTEX
8
0
6
CONTINUOUS
62
252
70
128
10
0.000000
20
0.000000
30
0.000000
71
24
72
54
73
23
0
VERTEX
8
0
6
CONTINUOUS
62
252
70
128
10
0.000000
20
0.000000
30
0.000000
71
23
72
54
73
55
0
VERTEX
8
0
6
CONTINUOUS
62
252
70
128
10
0.000000
20
0.000000
30
0.000000
71
23
72
55
73
22
0
VERTEX
8
0
6
CONTINUOUS
62
252
70
128
10
0.000000
20
0.000000
30
0.000000
71
22
72
55
73
56
0
VERTEX
8
0
6
CONTINUOUS
62
252
70
128
10
0.000000
20
0.000000
30
0.000000
71
22
72
56
73
21
0
VERTEX
8
0
6
CONTINUOUS
62
252
70
128
10
0.000000
20
0.000000
30
0.000000
71
21
72
56
73
57
0
VERTEX
8
0
6
CONTINUOUS
62
252
70
128
10
0.000000
20
0.000000
30
0.000000
71
21
72
57
73
20
0
VERTEX
8
0
6
CONTINUOUS
62
252
70
128
10
0.000000
20
0.000000
30
0.000000
71
20
72
57
73
58
0
VERTEX
8
0
6
CONTINUOUS
62
252
70
128
10
0.000000
20
0.000000
30
0.000000
71
20
72
58
73
19
0
VERTEX
8
0
6
CONTINUOUS
62
252
70
128
10
0.000000
20
0.000000
30
0.000000
71
19
72
58
73
18
0
VERTEX
8
0
6
CONTINUOUS
62
252
70
128
10
0.000000
20
0.000000
30
0.000000
71
18
72
58
73
59
0
VERTEX
8
0
6
CONTINUOUS
62
252
70
128
10
0.000000
20
0.000000
30
0.000000
71
18
72
59
73
17
0
VERTEX
8
0
6
CONTINUOUS
62
252
70
128
10
0.000000
20
0.000000
30
0.000000
71
17
72
59
73
60
0
VERTEX
8
0
6
CONTINUOUS
62
252
70
128
10
0.000000
20
0.000000
30
0.000000
71
17
72
60
73
16
0
VERTEX
8
0
6
CONTINUOUS
62
252
70
128
10
0.000000
20
0.000000
30
0.000000
71
16
72
60
73
61
0
VERTEX
8
0
6
CONTINUOUS
62
252
70
128
10
0.000000
20
0.000000
30
0.000000
71
16
72
61
73
15
0
VERTEX
8
0
6
CONTINUOUS
62
252
70
128
10
0.000000
20
0.000000
30
0.000000
71
15
72
61
73
62
0
VERTEX
8
0
6
CONTINUOUS
62
252
70
128
10
0.000000
20
0.000000
30
0.000000
71
15
72
62
73
14
0
VERTEX
8
0
6
CONTINUOUS
62
252
70
128
10
0.000000
20
0.000000
30
0.000000
71
14
72
62
73
63
0
VERTEX
8
0
6
CONTINUOUS
62
252
70
128
10
0.000000
20
0.000000
30
0.000000
71
14
72
63
73
13
0
VERTEX
8
0
6
CONTINUOUS
62
252
70
128
10
0.000000
20
0.000000
30
0.000000
71
13
72
63
73
64
0
VERTEX
8
0
6
CONTINUOUS
62
252
70
128
10
0.000000
20
0.000000
30
0.000000
71
13
72
64
73
12
0
VERTEX
8
0
6
CONTINUOUS
62
252
70
128
10
0.000000
20
0.000000
30
0.000000
71
12
72
64
73
65
0
VERTEX
8
0
6
CONTINUOUS
62
252
70
128
10
0.000000
20
0.000000
30
0.000000
71
12
72
65
73
11
0
VERTEX
8
0
6
CONTINUOUS
62
252
70
128
10
0.000000
20
0.000000
30
0.000000
71
11
72
65
73
66
0
VERTEX
8
0
6
CONTINUOUS
62
252
70
128
10
0.000000
20
0.000000
30
0.000000
71
11
72
66
73
10
0
VERTEX
8
0
6
CONTINUOUS
62
252
70
128
10
0.000000
20
0.000000
30
0.000000
71
10
72
66
73
67
0
VERTEX
8
0
6
CONTINUOUS
62
252
70
128
10
0.000000
20
0.000000
30
0.000000
71
10
72
67
73
9
0
VERTEX
8
0
6
CONTINUOUS
62
252
70
128
10
0.000000
20
0.000000
30
0.000000
71
9
72
67
73
8
0
VERTEX
8
0
6
CONTINUOUS
62
252
70
128
10
0.000000
20
0.000000
30
0.000000
71
8
72
67
73
37
0
VERTEX
8
0
6
CONTINUOUS
62
252
70
128
10
0.000000
20
0.000000
30
0.000000
71
8
72
37
73
7
0
VERTEX
8
0
6
CONTINUOUS
62
252
70
128
10
0.000000
20
0.000000
30
0.000000
71
7
72
37
73
6
0
VERTEX
8
0
6
CONTINUOUS
62
252
70
128
10
0.000000
20
0.000000
30
0.000000
71
6
72
37
73
38
0
VERTEX
8
0
6
CONTINUOUS
62
252
70
128
10
0.000000
20
0.000000
30
0.000000
71
6
72
38
73
5
0
VERTEX
8
0
6
CONTINUOUS
62
252
70
128
10
0.000000
20
0.000000
30
0.000000
71
5
72
38
73
39
0
VERTEX
8
0
6
CONTINUOUS
62
252
70
128
10
0.000000
20
0.000000
30
0.000000
71
5
72
39
73
4
0
VERTEX
8
0
6
CONTINUOUS
62
252
70
128
10
0.000000
20
0.000000
30
0.000000
71
4
72
39
73
40
0
VERTEX
8
0
6
CONTINUOUS
62
252
70
128
10
0.000000
20
0.000000
30
0.000000
71
4
72
40
73
3
0
VERTEX
8
0
6
CONTINUOUS
62
252
70
128
10
0.000000
20
0.000000
30
0.000000
71
3
72
40
73
41
0
VERTEX
8
0
6
CONTINUOUS
62
252
70
128
10
0.000000
20
0.000000
30
0.000000
71
3
72
41
73
2
0
VERTEX
8
0
6
CONTINUOUS
62
252
70
128
10
0.000000
20
0.000000
30
0.000000
71
2
72
41
73
42
0
SEQEND
0
POLYLINE
66
1
8
0
6
CONTINUOUS
62
252
70
64
75
0
10
0.000000
20
0.000000
30
0.000000
0
VERTEX
8
0
6
CONTINUOUS
62
252
70
192
10
1.200000
20
44.600000
30
37.600000
0
VERTEX
8
0
6
CONTINUOUS
62
252
70
192
10
1.200000
20
44.600000
30
35.407612
0
VERTEX
8
0
6
CONTINUOUS
62
252
70
192
10
6.000000
20
44.600000
30
35.407612
0
VERTEX
8
0
6
CONTINUOUS
62
252
70
192
10
6.000000
20
44.600000
30
18.473950
0
VERTEX
8
0
6
CONTINUOUS
62
252
70
192
10
6.000000
20
44.600000
30
-18.473950
0
VERTEX
8
0
6
CONTINUOUS
62
252
70
192
10
6.000000
20
44.600000
30
-35.407612
0
VERTEX
8
0
6
CONTINUOUS
62
252
70
192
10
1.200000
20
44.600000
30
-35.407612
0
VERTEX
8
0
6
CONTINUOUS
62
252
70
192
10
1.200000
20
44.600000
30
-37.600000
0
VERTEX
8
0
6
CONTINUOUS
62
252
70
192
10
0.000000
20
44.600000
30
-37.600000
0
VERTEX
8
0
6
CONTINUOUS
62
252
70
192
10
-0.000000
20
44.600000
30
37.600000
0
VERTEX
8
0
6
CONTINUOUS
62
252
70
128
10
0.000000
20
0.000000
30
0.000000
71
1
72
2
73
10
0
VERTEX
8
0
6
CONTINUOUS
62
252
70
128
10
0.000000
20
0.000000
30
0.000000
71
10
72
2
73
9
0
VERTEX
8
0
6
CONTINUOUS
62
252
70
128
10
0.000000
20
0.000000
30
0.000000
71
9
72
2
73
7
0
VERTEX
8
0
6
CONTINUOUS
62
252
70
128
10
0.000000
20
0.000000
30
0.000000
71
9
72
7
73
8
0
VERTEX
8
0
6
CONTINUOUS
62
252
70
128
10
0.000000
20
0.000000
30
0.000000
71
3
72
4
73
2
0
VERTEX
8
0
6
CONTINUOUS
62
252
70
128
10
0.000000
20
0.000000
30
0.000000
71
2
72
4
73
5
0
VERTEX
8
0
6
CONTINUOUS
62
252
70
128
10
0.000000
20
0.000000
30
0.000000
71
2
72
5
73
7
0
VERTEX
8
0
6
CONTINUOUS
62
252
70
128
10
0.000000
20
0.000000
30
0.000000
71
7
72
5
73
6
0
SEQEND
0
POLYLINE
66
1
8
0
6
CONTINUOUS
62
252
70
64
75
0
10
0.000000
20
0.000000
30
0.000000
0
VERTEX
8
0
6
CONTINUOUS
62
252
70
192
10
6.000000
20
44.600000
30
35.407612
0
VERTEX
8
0
6
CONTINUOUS
62
252
70
192
10
6.000000
20
41.365747
30
32.173359
0
VERTEX
8
0
6
CONTINUOUS
62
252
70
192
10
6.000000
20
40.497799
30
31.445064
0
VERTEX
8
0
6
CONTINUOUS
62
252
70
192
10
6.000000
20
39.516571
30
30.878552
0
VERTEX
8
0
6
CONTINUOUS
62
252
70
192
10
6.000000
20
38.451876
30
30.491035
0
VERTEX
8
0
6
CONTINUOUS
62
252
70
192
10
6.000000
20
37.336065
30
30.294287
0
VERTEX
8
0
6
CONTINUOUS
62
252
70
192
10
6.000000
20
36.203040
30
30.294287
0
VERTEX
8
0
6
CONTINUOUS
62
252
70
192
10
6.000000
20
35.087229
30
30.491035
0
VERTEX
8
0
6
CONTINUOUS
62
252
70
192
10
6.000000
20
34.022534
30
30.878552
0
VERTEX
8
0
6
CONTINUOUS
62
252
70
192
10
6.000000
20
33.041306
30
31.445064
0
VERTEX
8
0
6
CONTINUOUS
62
252
70
192
10
6.000000
20
32.173359
30
32.173359
0
VERTEX
8
0
6
CONTINUOUS
62
252
70
192
10
6.000000
20
31.445064
30
33.041306
0
VERTEX
8
0
6
CONTINUOUS
62
252
70
192
10
6.000000
20
30.878552
30
34.022534
0
VERTEX
8
0
6
CONTINUOUS
62
252
70
192
10
6.000000
20
30.491035
30
35.087229
0
VERTEX
8
0
6
CONTINUOUS
62
252
70
192
10
6.000000
20
30.294287
30
36.203040
0
VERTEX
8
0
6
CONTINUOUS
62
252
70
192
10
6.000000
20
30.294287
30
37.336065
0
VERTEX
8
0
6
CONTINUOUS
62
252
70
192
10
6.000000
20
30.491035
30
38.451876
0
VERTEX
8
0
6
CONTINUOUS
62
252
70
192
10
6.000000
20
30.878552
30
39.516571
0
VERTEX
8
0
6
CONTINUOUS
62
252
70
192
10
6.000000
20
31.445064
30
40.497799
0
VERTEX
8
0
6
CONTINUOUS
62
252
70
192
10
6.000000
20
32.173359
30
41.365747
0
VERTEX
8
0
6
CONTINUOUS
62
252
70
192
10
6.000000
20
35.407612
30
44.600000
0
VERTEX
8
0
6
CONTINUOUS
62
252
70
192
10
6.000000
20
18.473950
30
44.600000
0
VERTEX
8
0
6
CONTINUOUS
62
252
70
192
10
6.000000
20
44.600000
30
18.473950
0
VERTEX
8
0
6
CONTINUOUS
62
252
70
128
10
0.000000
20
0.000000
30
0.000000
71
1
72
2
73
23
0
VERTEX
8
0
6
CONTINUOUS
62
252
70
128
10
0.000000
20
0.000000
30
0.000000
71
23
72
2
73
3
0
VERTEX
8
0
6
CONTINUOUS
62
252
70
128
10
0.000000
20
0.000000
30
0.000000
71
23
72
3
73
4
0
VERTEX
8
0
6
CONTINUOUS
62
252
70
128
10
0.000000
20
0.000000
30
0.000000
71
4
72
5
73
23
0
VERTEX
8
0
6
CONTINUOUS
62
252
70
128
10
0.000000
20
0.000000
30
0.000000
71
23
72
5
73
6
0
VERTEX
8
0
6
CONTINUOUS
62
252
70
128
10
0.000000
20
0.000000
30
0.000000
71
23
72
6
73
7
0
VERTEX
8
0
6
CONTINUOUS
62
252
70
128
10
0.000000
20
0.000000
30
0.000000
71
7
72
8
73
23
0
VERTEX
8
0
6
CONTINUOUS
62
252
70
128
10
0.000000
20
0.000000
30
0.000000
71
23
72
8
73
9
0
VERTEX
8
0
6
CONTINUOUS
62
252
70
128
10
0.000000
20
0.000000
30
0.000000
71
23
72
9
73
10
0
VERTEX
8
0
6
CONTINUOUS
62
252
70
128
10
0.000000
20
0.000000
30
0.000000
71
10
72
11
73
23
0
VERTEX
8
0
6
CONTINUOUS
62
252
70
128
10
0.000000
20
0.000000
30
0.000000
71
23
72
11
73
22
0
VERTEX
8
0
6
CONTINUOUS
62
252
70
128
10
0.000000
20
0.000000
30
0.000000
71
22
72
11
73
12
0
VERTEX
8
0
6
CONTINUOUS
62
252
70
128
10
0.000000
20
0.000000
30
0.000000
71
22
72
12
73
13
0
VERTEX
8
0
6
CONTINUOUS
62
252
70
128
10
0.000000
20
0.000000
30
0.000000
71
13
72
14
73
22
0
VERTEX
8
0
6
CONTINUOUS
62
252
70
128
10
0.000000
20
0.000000
30
0.000000
71
22
72
14
73
15
0
VERTEX
8
0
6
CONTINUOUS
62
252
70
128
10
0.000000
20
0.000000
30
0.000000
71
22
72
15
73
16
0
VERTEX
8
0
6
CONTINUOUS
62
252
70
128
10
0.000000
20
0.000000
30
0.000000
71
16
72
17
73
22
0
VERTEX
8
0
6
CONTINUOUS
62
252
70
128
10
0.000000
20
0.000000
30
0.000000
71
22
72
17
73
18
0
VERTEX
8
0
6
CONTINUOUS
62
252
70
128
10
0.000000
20
0.000000
30
0.000000
71
22
72
18
73
19
0
VERTEX
8
0
6
CONTINUOUS
62
252
70
128
10
0.000000
20
0.000000
30
0.000000
71
19
72
20
73
22
0
VERTEX
8
0
6
CONTINUOUS
62
252
70
128
10
0.000000
20
0.000000
30
0.000000
71
22
72
20
73
21
0
SEQEND
0
POLYLINE
66
1
8
0
6
CONTINUOUS
62
252
70
64
75
0
10
0.000000
20
0.000000
30
0.000000
0
VERTEX
8
0
6
CONTINUOUS
62
252
70
192
10
6.000000
20
35.407612
30
-44.600000
0
VERTEX
8
0
6
CONTINUOUS
62
252
70
192
10
1.200000
20
35.407612
30
-44.600000
0
VERTEX
8
0
6
CONTINUOUS
62
252
70
192
10
1.200000
20
32.173359
30
-41.365747
0
VERTEX
8
0
6
CONTINUOUS
62
252
70
192
10
6.000000
20
32.173359
30
-41.365747
0
VERTEX
8
0
6
CONTINUOUS
62
252
70
128
10
0.000000
20
0.000000
30
0.000000
71
2
72
3
73
1
0
VERTEX
8
0
6
CONTINUOUS
62
252
70
128
10
0.000000
20
0.000000
30
0.000000
71
1
72
3
73
4
0
SEQEND
0
POLYLINE
66
1
8
0
6
CONTINUOUS
62
252
70
64
75
0
10
0.000000
20
0.000000
30
0.000000
0
VERTEX
8
0
6
CONTINUOUS
62
252
70
192
10
1.200000
20
44.600000
30
-35.407612
0
VERTEX
8
0
6
CONTINUOUS
62
252
70
192
10
6.000000
20
44.600000
30
-35.407612
0
VERTEX
8
0
6
CONTINUOUS
62
252
70
192
10
6.000000
20
41.365747
30
-32.173359
0
VERTEX
8
0
6
CONTINUOUS
62
252
70
192
10
1.200000
20
41.365747
30
-32.173359
0
VERTEX
8
0
6
CONTINUOUS
62
252
70
128
10
0.000000
20
0.000000
30
0.000000
71
1
72
2
73
4
0
VERTEX
8
0
6
CONTINUOUS
62
252
70
128
10
0.000000
20
0.000000
30
0.000000
71
4
72
2
73
3
0
SEQEND
0
POLYLINE
66
1
8
0
6
CONTINUOUS
62
252
70
64
75
0
10
0.000000
20
0.000000
30
0.000000
0
VERTEX
8
0
6
CONTINUOUS
62
252
70
192
10
1.200000
20
32.173359
30
-41.365747
0
VERTEX
8
0
6
CONTINUOUS
62
252
70
192
10
1.200000
20
31.445064
30
-40.497799
0
VERTEX
8
0
6
CONTINUOUS
62
252
70
192
10
1.200000
20
30.878552
30
-39.516571
0
VERTEX
8
0
6
CONTINUOUS
62
252
70
192
10
1.200000
20
30.491035
30
-38.451876
0
VERTEX
8
0
6
CONTINUOUS
62
252
70
192
10
1.200000
20
30.294287
30
-37.336065
0
VERTEX
8
0
6
CONTINUOUS
62
252
70
192
10
1.200000
20
30.294287
30
-36.203040
0
VERTEX
8
0
6
CONTINUOUS
62
252
70
192
10
1.200000
20
30.491035
30
-35.087229
0
VERTEX
8
0
6
CONTINUOUS
62
252
70
192
10
1.200000
20
30.878552
30
-34.022534
0
VERTEX
8
0
6
CONTINUOUS
62
252
70
192
10
1.200000
20
31.445064
30
-33.041306
0
VERTEX
8
0
6
CONTINUOUS
62
252
70
192
10
1.200000
20
32.173359
30
-32.173359
0
VERTEX
8
0
6
CONTINUOUS
62
252
70
192
10
1.200000
20
33.041306
30
-31.445064
0
VERTEX
8
0
6
CONTINUOUS
62
252
70
192
10
1.200000
20
34.022534
30
-30.878552
0
VERTEX
8
0
6
CONTINUOUS
62
252
70
192
10
1.200000
20
35.087229
30
-30.491035
0
VERTEX
8
0
6
CONTINUOUS
62
252
70
192
10
1.200000
20
36.203040
30
-30.294287
0
VERTEX
8
0
6
CONTINUOUS
62
252
70
192
10
1.200000
20
37.336065
30
-30.294287
0
VERTEX
8
0
6
CONTINUOUS
62
252
70
192
10
1.200000
20
38.451876
30
-30.491035
0
VERTEX
8
0
6
CONTINUOUS
62
252
70
192
10
1.200000
20
39.516571
30
-30.878552
0
VERTEX
8
0
6
CONTINUOUS
62
252
70
192
10
1.200000
20
40.497799
30
-31.445064
0
VERTEX
8
0
6
CONTINUOUS
62
252
70
192
10
1.200000
20
41.365747
30
-32.173359
0
VERTEX
8
0
6
CONTINUOUS
62
252
70
192
10
6.000000
20
41.365747
30
-32.173359
0
VERTEX
8
0
6
CONTINUOUS
62
252
70
192
10
6.000000
20
40.497799
30
-31.445064
0
VERTEX
8
0
6
CONTINUOUS
62
252
70
192
10
6.000000
20
39.516571
30
-30.878552
0
VERTEX
8
0
6
CONTINUOUS
62
252
70
192
10
6.000000
20
38.451876
30
-30.491035
0
VERTEX
8
0
6
CONTINUOUS
62
252
70
192
10
6.000000
20
37.336065
30
-30.294287
0
VERTEX
8
0
6
CONTINUOUS
62
252
70
192
10
6.000000
20
36.203040
30
-30.294287
0
VERTEX
8
0
6
CONTINUOUS
62
252
70
192
10
6.000000
20
35.087229
30
-30.491035
0
VERTEX
8
0
6
CONTINUOUS
62
252
70
192
10
6.000000
20
34.022534
30
-30.878552
0
VERTEX
8
0
6
CONTINUOUS
62
252
70
192
10
6.000000
20
33.041306
30
-31.445064
0
VERTEX
8
0
6
CONTINUOUS
62
252
70
192
10
6.000000
20
32.173359
30
-32.173359
0
VERTEX
8
0
6
CONTINUOUS
62
252
70
192
10
6.000000
20
31.445064
30
-33.041306
0
VERTEX
8
0
6
CONTINUOUS
62
252
70
192
10
6.000000
20
30.878552
30
-34.022534
0
VERTEX
8
0
6
CONTINUOUS
62
252
70
192
10
6.000000
20
30.491035
30
-35.087229
0
VERTEX
8
0
6
CONTINUOUS
62
252
70
192
10
6.000000
20
30.294287
30
-36.203040
0
VERTEX
8
0
6
CONTINUOUS
62
252
70
192
10
6.000000
20
30.294287
30
-37.336065
0
VERTEX
8
0
6
CONTINUOUS
62
252
70
192
10
6.000000
20
30.491035
30
-38.451876
0
VERTEX
8
0
6
CONTINUOUS
62
252
70
192
10
6.000000
20
30.878552
30
-39.516571
0
VERTEX
8
0
6
CONTINUOUS
62
252
70
192
10
6.000000
20
31.445064
30
-40.497799
0
VERTEX
8
0
6
CONTINUOUS
62
252
70
192
10
6.000000
20
32.173359
30
-41.365747
0
VERTEX
8
0
6
CONTINUOUS
62
252
70
128
10
0.000000
20
0.000000
30
0.000000
71
38
72
1
73
37
0
VERTEX
8
0
6
CONTINUOUS
62
252
70
128
10
0.000000
20
0.000000
30
0.000000
71
37
72
1
73
2
0
VERTEX
8
0
6
CONTINUOUS
62
252
70
128
10
0.000000
20
0.000000
30
0.000000
71
37
72
2
73
36
0
VERTEX
8
0
6
CONTINUOUS
62
252
70
128
10
0.000000
20
0.000000
30
0.000000
71
36
72
2
73
3
0
VERTEX
8
0
6
CONTINUOUS
62
252
70
128
10
0.000000
20
0.000000
30
0.000000
71
36
72
3
73
35
0
VERTEX
8
0
6
CONTINUOUS
62
252
70
128
10
0.000000
20
0.000000
30
0.000000
71
35
72
3
73
4
0
VERTEX
8
0
6
CONTINUOUS
62
252
70
128
10
0.000000
20
0.000000
30
0.000000
71
35
72
4
73
34
0
VERTEX
8
0
6
CONTINUOUS
62
252
70
128
10
0.000000
20
0.000000
30
0.000000
71
34
72
4
73
5
0
VERTEX
8
0
6
CONTINUOUS
62
252
70
128
10
0.000000
20
0.000000
30
0.000000
71
34
72
5
73
33
0
VERTEX
8
0
6
CONTINUOUS
62
252
70
128
10
0.000000
20
0.000000
30
0.000000
71
33
72
5
73
6
0
VERTEX
8
0
6
CONTINUOUS
62
252
70
128
10
0.000000
20
0.000000
30
0.000000
71
33
72
6
73
32
0
VERTEX
8
0
6
CONTINUOUS
62
252
70
128
10
0.000000
20
0.000000
30
0.000000
71
32
72
6
73
7
0
VERTEX
8
0
6
CONTINUOUS
62
252
70
128
10
0.000000
20
0.000000
30
0.000000
71
32
72
7
73
31
0
VERTEX
8
0
6
CONTINUOUS
62
252
70
128
10
0.000000
20
0.000000
30
0.000000
71
31
72
7
73
8
0
VERTEX
8
0
6
CONTINUOUS
62
252
70
128
10
0.000000
20
0.000000
30
0.000000
71
31
72
8
73
30
0
VERTEX
8
0
6
CONTINUOUS
62
252
70
128
10
0.000000
20
0.000000
30
0.000000
71
30
72
8
73
9
0
VERTEX
8
0
6
CONTINUOUS
62
252
70
128
10
0.000000
20
0.000000
30
0.000000
71
30
72
9
73
29
0
VERTEX
8
0
6
CONTINUOUS
62
252
70
128
10
0.000000
20
0.000000
30
0.000000
71
29
72
9
73
10
0
VERTEX
8
0
6
CONTINUOUS
62
252
70
128
10
0.000000
20
0.000000
30
0.000000
71
29
72
10
73
28
0
VERTEX
8
0
6
CONTINUOUS
62
252
70
128
10
0.000000
20
0.000000
30
0.000000
71
28
72
10
73
11
0
VERTEX
8
0
6
CONTINUOUS
62
252
70
128
10
0.000000
20
0.000000
30
0.000000
71
28
72
11
73
27
0
VERTEX
8
0
6
CONTINUOUS
62
252
70
128
10
0.000000
20
0.000000
30
0.000000
71
27
72
11
73
12
0
VERTEX
8
0
6
CONTINUOUS
62
252
70
128
10
0.000000
20
0.000000
30
0.000000
71
27
72
12
73
13
0
VERTEX
8
0
6
CONTINUOUS
62
252
70
128
10
0.000000
20
0.000000
30
0.000000
71
27
72
13
73
26
0
VERTEX
8
0
6
CONTINUOUS
62
252
70
128
10
0.000000
20
0.000000
30
0.000000
71
26
72
13
73
14
0
VERTEX
8
0
6
CONTINUOUS
62
252
70
128
10
0.000000
20
0.000000
30
0.000000
71
26
72
14
73
25
0
VERTEX
8
0
6
CONTINUOUS
62
252
70
128
10
0.000000
20
0.000000
30
0.000000
71
25
72
14
73
24
0
VERTEX
8
0
6
CONTINUOUS
62
252
70
128
10
0.000000
20
0.000000
30
0.000000
71
24
72
14
73
15
0
VERTEX
8
0
6
CONTINUOUS
62
252
70
128
10
0.000000
20
0.000000
30
0.000000
71
24
72
15
73
23
0
VERTEX
8
0
6
CONTINUOUS
62
252
70
128
10
0.000000
20
0.000000
30
0.000000
71
23
72
15
73
16
0
VERTEX
8
0
6
CONTINUOUS
62
252
70
128
10
0.000000
20
0.000000
30
0.000000
71
23
72
16
73
22
0
VERTEX
8
0
6
CONTINUOUS
62
252
70
128
10
0.000000
20
0.000000
30
0.000000
71
22
72
16
73
17
0
VERTEX
8
0
6
CONTINUOUS
62
252
70
128
10
0.000000
20
0.000000
30
0.000000
71
22
72
17
73
21
0
VERTEX
8
0
6
CONTINUOUS
62
252
70
128
10
0.000000
20
0.000000
30
0.000000
71
21
72
17
73
18
0
VERTEX
8
0
6
CONTINUOUS
62
252
70
128
10
0.000000
20
0.000000
30
0.000000
71
21
72
18
73
19
0
VERTEX
8
0
6
CONTINUOUS
62
252
70
128
10
0.000000
20
0.000000
30
0.000000
71
19
72
20
73
21
0
SEQEND
0
POLYLINE
66
1
8
0
6
CONTINUOUS
62
252
70
64
75
0
10
0.000000
20
0.000000
30
0.000000
0
VERTEX
8
0
6
CONTINUOUS
62
252
70
192
10
1.200000
20
40.092954
30
-40.092954
0
VERTEX
8
0
6
CONTINUOUS
62
252
70
192
10
1.200000
20
39.465362
30
-40.619567
0
VERTEX
8
0
6
CONTINUOUS
62
252
70
192
10
1.200000
20
38.755858
30
-41.029199
0
VERTEX
8
0
6
CONTINUOUS
62
252
70
192
10
1.200000
20
37.986002
30
-41.309404
0
VERTEX
8
0
6
CONTINUOUS
62
252
70
192
10
1.200000
20
37.179185
30
-41.451668
0
VERTEX
8
0
6
CONTINUOUS
62
252
70
192
10
1.200000
20
36.359921
30
-41.451668
0
VERTEX
8
0
6
CONTINUOUS
62
252
70
192
10
1.200000
20
35.553103
30
-41.309404
0
VERTEX
8
0
6
CONTINUOUS
62
252
70
192
10
1.200000
20
34.783247
30
-41.029199
0
VERTEX
8
0
6
CONTINUOUS
62
252
70
192
10
1.200000
20
34.073743
30
-40.619567
0
VERTEX
8
0
6
CONTINUOUS
62
252
70
192
10
1.200000
20
33.446151
30
-40.092954
0
VERTEX
8
0
6
CONTINUOUS
62
252
70
192
10
1.200000
20
32.919538
30
-39.465362
0
VERTEX
8
0
6
CONTINUOUS
62
252
70
192
10
1.200000
20
32.509906
30
-38.755858
0
VERTEX
8
0
6
CONTINUOUS
62
252
70
192
10
1.200000
20
32.229701
30
-37.986002
0
VERTEX
8
0
6
CONTINUOUS
62
252
70
192
10
1.200000
20
32.087438
30
-37.179185
0
VERTEX
8
0
6
CONTINUOUS
62
252
70
192
10
1.200000
20
32.087438
30
-36.359921
0
VERTEX
8
0
6
CONTINUOUS
62
252
70
192
10
1.200000
20
32.229701
30
-35.553103
0
VERTEX
8
0
6
CONTINUOUS
62
252
70
192
10
1.200000
20
32.509906
30
-34.783247
0
VERTEX
8
0
6
CONTINUOUS
62
252
70
192
10
1.200000
20
32.919538
30
-34.073743
0
VERTEX
8
0
6
CONTINUOUS
62
252
70
192
10
1.200000
20
33.446151
30
-33.446151
0
VERTEX
8
0
6
CONTINUOUS
62
252
70
192
10
1.200000
20
34.073743
30
-32.919538
0
VERTEX
8
0
6
CONTINUOUS
62
252
70
192
10
1.200000
20
34.783247
30
-32.509906
0
VERTEX
8
0
6
CONTINUOUS
62
252
70
192
10
1.200000
20
35.553103
30
-32.229701
0
VERTEX
8
0
6
CONTINUOUS
62
252
70
192
10
1.200000
20
36.359921
30
-32.087438
0
VERTEX
8
0
6
CONTINUOUS
62
252
70
192
10
1.200000
20
37.179185
30
-32.087438
0
VERTEX
8
0
6
CONTINUOUS
62
252
70
192
10
1.200000
20
37.986002
30
-32.229701
0
VERTEX
8
0
6
CONTINUOUS
62
252
70
192
10
1.200000
20
38.755858
30
-32.509906
0
VERTEX
8
0
6
CONTINUOUS
62
252
70
192
10
1.200000
20
39.465362
30
-32.919538
0
VERTEX
8
0
6
CONTINUOUS
62
252
70
192
10
1.200000
20
40.092954
30
-33.446151
0
VERTEX
8
0
6
CONTINUOUS
62
252
70
192
10
1.200000
20
40.619567
30
-34.073743
0
VERTEX
8
0
6
CONTINUOUS
62
252
70
192
10
1.200000
20
41.029199
30
-34.783247
0
VERTEX
8
0
6
CONTINUOUS
62
252
70
192
10
1.200000
20
41.309404
30
-35.553103
0
VERTEX
8
0
6
CONTINUOUS
62
252
70
192
10
1.200000
20
41.451668
30
-36.359921
0
VERTEX
8
0
6
CONTINUOUS
62
252
70
192
10
1.200000
20
41.451668
30
-37.179185
0
VERTEX
8
0
6
CONTINUOUS
62
252
70
192
10
1.200000
20
41.309404
30
-37.986002
0
VERTEX
8
0
6
CONTINUOUS
62
252
70
192
10
1.200000
20
41.029199
30
-38.755858
0
VERTEX
8
0
6
CONTINUOUS
62
252
70
192
10
1.200000
20
40.619567
30
-39.465362
0
VERTEX
8
0
6
CONTINUOUS
62
252
70
192
10
1.200000
20
35.407612
30
-44.600000
0
VERTEX
8
0
6
CONTINUOUS
62
252
70
192
10
1.200000
20
37.600000
30
-44.600000
0
VERTEX
8
0
6
CONTINUOUS
62
252
70
192
10
1.200000
20
38.815537
30
-44.493654
0
VERTEX
8
0
6
CONTINUOUS
62
252
70
192
10
1.200000
20
39.994141
30
-44.177848
0
VERTEX
8
0
6
CONTINUOUS
62
252
70
192
10
1.200000
20
41.100000
30
-43.662178
0
VERTEX
8
0
6
CONTINUOUS
62
252
70
192
10
1.200000
20
42.099513
30
-42.962311
0
VERTEX
8
0
6
CONTINUOUS
62
252
70
192
10
1.200000
20
42.962311
30
-42.099513
0
VERTEX
8
0
6
CONTINUOUS
62
252
70
192
10
1.200000
20
43.662178
30
-41.100000
0
VERTEX
8
0
6
CONTINUOUS
62
252
70
192
10
1.200000
20
44.177848
30
-39.994141
0
VERTEX
8
0
6
CONTINUOUS
62
252
70
192
10
1.200000
20
44.493654
30
-38.815537
0
VERTEX
8
0
6
CONTINUOUS
62
252
70
192
10
1.200000
20
44.600000
30
-37.600000
0
VERTEX
8
0
6
CONTINUOUS
62
252
70
192
10
1.200000
20
44.600000
30
-35.407612
0
VERTEX
8
0
6
CONTINUOUS
62
252
70
192
10
1.200000
20
41.365747
30
-32.173359
0
VERTEX
8
0
6
CONTINUOUS
62
252
70
192
10
1.200000
20
40.497799
30
-31.445064
0
VERTEX
8
0
6
CONTINUOUS
62
252
70
192
10
1.200000
20
39.516571
30
-30.878552
0
VERTEX
8
0
6
CONTINUOUS
62
252
70
192
10
1.200000
20
38.451876
30
-30.491035
0
VERTEX
8
0
6
CONTINUOUS
62
252
70
192
10
1.200000
20
37.336065
30
-30.294287
0
VERTEX
8
0
6
CONTINUOUS
62
252
70
192
10
1.200000
20
36.203040
30
-30.294287
0
VERTEX
8
0
6
CONTINUOUS
62
252
70
192
10
1.200000
20
35.087229
30
-30.491035
0
VERTEX
8
0
6
CONTINUOUS
62
252
70
192
10
1.200000
20
34.022534
30
-30.878552
0
VERTEX
8
0
6
CONTINUOUS
62
252
70
192
10
1.200000
20
33.041306
30
-31.445064
0
VERTEX
8
0
6
CONTINUOUS
62
252
70
192
10
1.200000
20
32.173359
30
-32.173359
0
VERTEX
8
0
6
CONTINUOUS
62
252
70
192
10
1.200000
20
31.445064
30
-33.041306
0
VERTEX
8
0
6
CONTINUOUS
62
252
70
192
10
1.200000
20
30.878552
30
-34.022534
0
VERTEX
8
0
6
CONTINUOUS
62
252
70
192
10
1.200000
20
30.491035
30
-35.087229
0
VERTEX
8
0
6
CONTINUOUS
62
252
70
192
10
1.200000
20
30.294287
30
-36.203040
0
VERTEX
8
0
6
CONTINUOUS
62
252
70
192
10
1.200000
20
30.294287
30
-37.336065
0
VERTEX
8
0
6
CONTINUOUS
62
252
70
192
10
1.200000
20
30.491035
30
-38.451876
0
VERTEX
8
0
6
CONTINUOUS
62
252
70
192
10
1.200000
20
30.878552
30
-39.516571
0
VERTEX
8
0
6
CONTINUOUS
62
252
70
192
10
1.200000
20
31.445064
30
-40.497799
0
VERTEX
8
0
6
CONTINUOUS
62
252
70
192
10
1.200000
20
32.173359
30
-41.365747
0
VERTEX
8
0
6
CONTINUOUS
62
252
70
128
10
0.000000
20
0.000000
30
0.000000
71
2
72
42
73
1
0
VERTEX
8
0
6
CONTINUOUS
62
252
70
128
10
0.000000
20
0.000000
30
0.000000
71
1
72
42
73
43
0
VERTEX
8
0
6
CONTINUOUS
62
252
70
128
10
0.000000
20
0.000000
30
0.000000
71
1
72
43
73
36
0
VERTEX
8
0
6
CONTINUOUS
62
252
70
128
10
0.000000
20
0.000000
30
0.000000
71
36
72
43
73
44
0
VERTEX
8
0
6
CONTINUOUS
62
252
70
128
10
0.000000
20
0.000000
30
0.000000
71
36
72
44
73
35
0
VERTEX
8
0
6
CONTINUOUS
62
252
70
128
10
0.000000
20
0.000000
30
0.000000
71
35
72
44
73
45
0
VERTEX
8
0
6
CONTINUOUS
62
252
70
128
10
0.000000
20
0.000000
30
0.000000
71
35
72
45
73
34
0
VERTEX
8
0
6
CONTINUOUS
62
252
70
128
10
0.000000
20
0.000000
30
0.000000
71
34
72
45
73
46
0
VERTEX
8
0
6
CONTINUOUS
62
252
70
128
10
0.000000
20
0.000000
30
0.000000
71
34
72
46
73
33
0
VERTEX
8
0
6
CONTINUOUS
62
252
70
128
10
0.000000
20
0.000000
30
0.000000
71
33
72
46
73
47
0
VERTEX
8
0
6
CONTINUOUS
62
252
70
128
10
0.000000
20
0.000000
30
0.000000
71
33
72
47
73
32
0
VERTEX
8
0
6
CONTINUOUS
62
252
70
128
10
0.000000
20
0.000000
30
0.000000
71
32
72
47
73
48
0
VERTEX
8
0
6
CONTINUOUS
62
252
70
128
10
0.000000
20
0.000000
30
0.000000
71
32
72
48
73
31
0
VERTEX
8
0
6
CONTINUOUS
62
252
70
128
10
0.000000
20
0.000000
30
0.000000
71
31
72
48
73
30
0
VERTEX
8
0
6
CONTINUOUS
62
252
70
128
10
0.000000
20
0.000000
30
0.000000
71
30
72
48
73
49
0
VERTEX
8
0
6
CONTINUOUS
62
252
70
128
10
0.000000
20
0.000000
30
0.000000
71
30
72
49
73
29
0
VERTEX
8
0
6
CONTINUOUS
62
252
70
128
10
0.000000
20
0.000000
30
0.000000
71
29
72
49
73
28
0
VERTEX
8
0
6
CONTINUOUS
62
252
70
128
10
0.000000
20
0.000000
30
0.000000
71
28
72
49
73
50
0
VERTEX
8
0
6
CONTINUOUS
62
252
70
128
10
0.000000
20
0.000000
30
0.000000
71
28
72
50
73
27
0
VERTEX
8
0
6
CONTINUOUS
62
252
70
128
10
0.000000
20
0.000000
30
0.000000
71
27
72
50
73
51
0
VERTEX
8
0
6
CONTINUOUS
62
252
70
128
10
0.000000
20
0.000000
30
0.000000
71
27
72
51
73
26
0
VERTEX
8
0
6
CONTINUOUS
62
252
70
128
10
0.000000
20
0.000000
30
0.000000
71
26
72
51
73
52
0
VERTEX
8
0
6
CONTINUOUS
62
252
70
128
10
0.000000
20
0.000000
30
0.000000
71
26
72
52
73
25
0
VERTEX
8
0
6
CONTINUOUS
62
252
70
128
10
0.000000
20
0.000000
30
0.000000
71
25
72
52
73
53
0
VERTEX
8
0
6
CONTINUOUS
62
252
70
128
10
0.000000
20
0.000000
30
0.000000
71
25
72
53
73
24
0
VERTEX
8
0
6
CONTINUOUS
62
252
70
128
10
0.000000
20
0.000000
30
0.000000
71
24
72
53
73
54
0
VERTEX
8
0
6
CONTINUOUS
62
252
70
128
10
0.000000
20
0.000000
30
0.000000
71
24
72
54
73
23
0
VERTEX
8
0
6
CONTINUOUS
62
252
70
128
10
0.000000
20
0.000000
30
0.000000
71
23
72
54
73
55
0
VERTEX
8
0
6
CONTINUOUS
62
252
70
128
10
0.000000
20
0.000000
30
0.000000
71
23
72
55
73
22
0
VERTEX
8
0
6
CONTINUOUS
62
252
70
128
10
0.000000
20
0.000000
30
0.000000
71
22
72
55
73
56
0
VERTEX
8
0
6
CONTINUOUS
62
252
70
128
10
0.000000
20
0.000000
30
0.000000
71
22
72
56
73
21
0
VERTEX
8
0
6
CONTINUOUS
62
252
70
128
10
0.000000
20
0.000000
30
0.000000
71
21
72
56
73
57
0
VERTEX
8
0
6
CONTINUOUS
62
252
70
128
10
0.000000
20
0.000000
30
0.000000
71
21
72
57
73
20
0
VERTEX
8
0
6
CONTINUOUS
62
252
70
128
10
0.000000
20
0.000000
30
0.000000
71
20
72
57
73
58
0
VERTEX
8
0
6
CONTINUOUS
62
252
70
128
10
0.000000
20
0.000000
30
0.000000
71
20
72
58
73
19
0
VERTEX
8
0
6
CONTINUOUS
62
252
70
128
10
0.000000
20
0.000000
30
0.000000
71
19
72
58
73
18
0
VERTEX
8
0
6
CONTINUOUS
62
252
70
128
10
0.000000
20
0.000000
30
0.000000
71
18
72
58
73
59
0
VERTEX
8
0
6
CONTINUOUS
62
252
70
128
10
0.000000
20
0.000000
30
0.000000
71
18
72
59
73
17
0
VERTEX
8
0
6
CONTINUOUS
62
252
70
128
10
0.000000
20
0.000000
30
0.000000
71
17
72
59
73
60
0
VERTEX
8
0
6
CONTINUOUS
62
252
70
128
10
0.000000
20
0.000000
30
0.000000
71
17
72
60
73
16
0
VERTEX
8
0
6
CONTINUOUS
62
252
70
128
10
0.000000
20
0.000000
30
0.000000
71
16
72
60
73
61
0
VERTEX
8
0
6
CONTINUOUS
62
252
70
128
10
0.000000
20
0.000000
30
0.000000
71
16
72
61
73
15
0
VERTEX
8
0
6
CONTINUOUS
62
252
70
128
10
0.000000
20
0.000000
30
0.000000
71
15
72
61
73
62
0
VERTEX
8
0
6
CONTINUOUS
62
252
70
128
10
0.000000
20
0.000000
30
0.000000
71
15
72
62
73
14
0
VERTEX
8
0
6
CONTINUOUS
62
252
70
128
10
0.000000
20
0.000000
30
0.000000
71
14
72
62
73
63
0
VERTEX
8
0
6
CONTINUOUS
62
252
70
128
10
0.000000
20
0.000000
30
0.000000
71
14
72
63
73
13
0
VERTEX
8
0
6
CONTINUOUS
62
252
70
128
10
0.000000
20
0.000000
30
0.000000
71
13
72
63
73
64
0
VERTEX
8
0
6
CONTINUOUS
62
252
70
128
10
0.000000
20
0.000000
30
0.000000
71
13
72
64
73
12
0
VERTEX
8
0
6
CONTINUOUS
62
252
70
128
10
0.000000
20
0.000000
30
0.000000
71
12
72
64
73
65
0
VERTEX
8
0
6
CONTINUOUS
62
252
70
128
10
0.000000
20
0.000000
30
0.000000
71
12
72
65
73
11
0
VERTEX
8
0
6
CONTINUOUS
62
252
70
128
10
0.000000
20
0.000000
30
0.000000
71
11
72
65
73
66
0
VERTEX
8
0
6
CONTINUOUS
62
252
70
128
10
0.000000
20
0.000000
30
0.000000
71
11
72
66
73
10
0
VERTEX
8
0
6
CONTINUOUS
62
252
70
128
10
0.000000
20
0.000000
30
0.000000
71
10
72
66
73
67
0
VERTEX
8
0
6
CONTINUOUS
62
252
70
128
10
0.000000
20
0.000000
30
0.000000
71
10
72
67
73
9
0
VERTEX
8
0
6
CONTINUOUS
62
252
70
128
10
0.000000
20
0.000000
30
0.000000
71
9
72
67
73
8
0
VERTEX
8
0
6
CONTINUOUS
62
252
70
128
10
0.000000
20
0.000000
30
0.000000
71
8
72
67
73
37
0
VERTEX
8
0
6
CONTINUOUS
62
252
70
128
10
0.000000
20
0.000000
30
0.000000
71
8
72
37
73
7
0
VERTEX
8
0
6
CONTINUOUS
62
252
70
128
10
0.000000
20
0.000000
30
0.000000
71
7
72
37
73
6
0
VERTEX
8
0
6
CONTINUOUS
62
252
70
128
10
0.000000
20
0.000000
30
0.000000
71
6
72
37
73
38
0
VERTEX
8
0
6
CONTINUOUS
62
252
70
128
10
0.000000
20
0.000000
30
0.000000
71
6
72
38
73
5
0
VERTEX
8
0
6
CONTINUOUS
62
252
70
128
10
0.000000
20
0.000000
30
0.000000
71
5
72
38
73
39
0
VERTEX
8
0
6
CONTINUOUS
62
252
70
128
10
0.000000
20
0.000000
30
0.000000
71
5
72
39
73
4
0
VERTEX
8
0
6
CONTINUOUS
62
252
70
128
10
0.000000
20
0.000000
30
0.000000
71
4
72
39
73
40
0
VERTEX
8
0
6
CONTINUOUS
62
252
70
128
10
0.000000
20
0.000000
30
0.000000
71
4
72
40
73
3
0
VERTEX
8
0
6
CONTINUOUS
62
252
70
128
10
0.000000
20
0.000000
30
0.000000
71
3
72
40
73
41
0
VERTEX
8
0
6
CONTINUOUS
62
252
70
128
10
0.000000
20
0.000000
30
0.000000
71
3
72
41
73
2
0
VERTEX
8
0
6
CONTINUOUS
62
252
70
128
10
0.000000
20
0.000000
30
0.000000
71
2
72
41
73
42
0
SEQEND
0
POLYLINE
66
1
8
0
6
CONTINUOUS
62
252
70
64
75
0
10
0.000000
20
0.000000
30
0.000000
0
VERTEX
8
0
6
CONTINUOUS
62
252
70
192
10
4.000000
20
-30.000000
30
-44.600000
0
VERTEX
8
0
6
CONTINUOUS
62
252
70
192
10
6.000000
20
-30.000000
30
-44.600000
0
VERTEX
8
0
6
CONTINUOUS
62
252
70
192
10
6.000000
20
-35.407612
30
-44.600000
0
VERTEX
8
0
6
CONTINUOUS
62
252
70
192
10
1.200000
20
-35.407612
30
-44.600000
0
VERTEX
8
0
6
CONTINUOUS
62
252
70
192
10
1.200000
20
-37.600000
30
-44.600000
0
VERTEX
8
0
6
CONTINUOUS
62
252
70
192
10
0.000000
20
-37.600000
30
-44.600000
0
VERTEX
8
0
6
CONTINUOUS
62
252
70
192
10
0.000000
20
37.600000
30
-44.600000
0
VERTEX
8
0
6
CONTINUOUS
62
252
70
192
10
1.200000
20
37.600000
30
-44.600000
0
VERTEX
8
0
6
CONTINUOUS
62
252
70
192
10
1.200000
20
35.407612
30
-44.600000
0
VERTEX
8
0
6
CONTINUOUS
62
252
70
192
10
6.000000
20
35.407612
30
-44.600000
0
VERTEX
8
0
6
CONTINUOUS
62
252
70
192
10
6.000000
20
30.000000
30
-44.600000
0
VERTEX
8
0
6
CONTINUOUS
62
252
70
192
10
4.000000
20
30.000000
30
-44.600000
0
VERTEX
8
0
6
CONTINUOUS
62
252
70
128
10
0.000000
20
0.000000
30
0.000000
71
2
72
3
73
1
0
VERTEX
8
0
6
CONTINUOUS
62
252
70
128
10
0.000000
20
0.000000
30
0.000000
71
1
72
3
73
4
0
VERTEX
8
0
6
CONTINUOUS
62
252
70
128
10
0.000000
20
0.000000
30
0.000000
71
1
72
4
73
9
0
VERTEX
8
0
6
CONTINUOUS
62
252
70
128
10
0.000000
20
0.000000
30
0.000000
71
9
72
4
73
6
0
VERTEX
8
0
6
CONTINUOUS
62
252
70
128
10
0.000000
20
0.000000
30
0.000000
71
9
72
6
73
7
0
VERTEX
8
0
6
CONTINUOUS
62
252
70
128
10
0.000000
20
0.000000
30
0.000000
71
4
72
5
73
6
0
VERTEX
8
0
6
CONTINUOUS
62
252
70
128
10
0.000000
20
0.000000
30
0.000000
71
7
72
8
73
9
0
VERTEX
8
0
6
CONTINUOUS
62
252
70
128
10
0.000000
20
0.000000
30
0.000000
71
1
72
9
73
12
0
VERTEX
8
0
6
CONTINUOUS
62
252
70
128
10
0.000000
20
0.000000
30
0.000000
71
12
72
9
73
10
0
VERTEX
8
0
6
CONTINUOUS
62
252
70
128
10
0.000000
20
0.000000
30
0.000000
71
12
72
10
73
11
0
SEQEND
0
POLYLINE
66
1
8
0
6
CONTINUOUS
62
252
70
64
75
0
10
0.000000
20
0.000000
30
0.000000
0
VERTEX
8
0
6
CONTINUOUS
62
252
70
192
10
6.000000
20
-44.600000
30
-35.407612
0
VERTEX
8
0
6
CONTINUOUS
62
252
70
192
10
1.200000
20
-44.600000
30
-35.407612
0
VERTEX
8
0
6
CONTINUOUS
62
252
70
192
10
1.200000
20
-41.365747
30
-32.173359
0
VERTEX
8
0
6
CONTINUOUS
62
252
70
192
10
6.000000
20
-41.365747
30
-32.173359
0
VERTEX
8
0
6
CONTINUOUS
62
252
70
128
10
0.000000
20
0.000000
30
0.000000
71
1
72
2
73
4
0
VERTEX
8
0
6
CONTINUOUS
62
252
70
128
10
0.000000
20
0.000000
30
0.000000
71
4
72
2
73
3
0
SEQEND
0
POLYLINE
66
1
8
0
6
CONTINUOUS
62
252
70
64
75
0
10
0.000000
20
0.000000
30
0.000000
0
VERTEX
8
0
6
CONTINUOUS
62
252
70
192
10
1.200000
20
-35.407612
30
-44.600000
0
VERTEX
8
0
6
CONTINUOUS
62
252
70
192
10
6.000000
20
-35.407612
30
-44.600000
0
VERTEX
8
0
6
CONTINUOUS
62
252
70
192
10
6.000000
20
-32.173359
30
-41.365747
0
VERTEX
8
0
6
CONTINUOUS
62
252
70
192
10
1.200000
20
-32.173359
30
-41.365747
0
VERTEX
8
0
6
CONTINUOUS
62
252
70
128
10
0.000000
20
0.000000
30
0.000000
71
1
72
2
73
4
0
VERTEX
8
0
6
CONTINUOUS
62
252
70
128
10
0.000000
20
0.000000
30
0.000000
71
4
72
2
73
3
0
SEQEND
0
POLYLINE
66
1
8
0
6
CONTINUOUS
62
252
70
64
75
0
10
0.000000
20
0.000000
30
0.000000
0
VERTEX
8
0
6
CONTINUOUS
62
252
70
192
10
1.200000
20
-41.365747
30
-32.173359
0
VERTEX
8
0
6
CONTINUOUS
62
252
70
192
10
1.200000
20
-40.497799
30
-31.445064
0
VERTEX
8
0
6
CONTINUOUS
62
252
70
192
10
1.200000
20
-39.516571
30
-30.878552
0
VERTEX
8
0
6
CONTINUOUS
62
252
70
192
10
1.200000
20
-38.451876
30
-30.491035
0
VERTEX
8
0
6
CONTINUOUS
62
252
70
192
10
1.200000
20
-37.336065
30
-30.294287
0
VERTEX
8
0
6
CONTINUOUS
62
252
70
192
10
1.200000
20
-36.203040
30
-30.294287
0
VERTEX
8
0
6
CONTINUOUS
62
252
70
192
10
1.200000
20
-35.087229
30
-30.491035
0
VERTEX
8
0
6
CONTINUOUS
62
252
70
192
10
1.200000
20
-34.022534
30
-30.878552
0
VERTEX
8
0
6
CONTINUOUS
62
252
70
192
10
1.200000
20
-33.041306
30
-31.445064
0
VERTEX
8
0
6
CONTINUOUS
62
252
70
192
10
1.200000
20
-32.173359
30
-32.173359
0
VERTEX
8
0
6
CONTINUOUS
62
252
70
192
10
1.200000
20
-31.445064
30
-33.041306
0
VERTEX
8
0
6
CONTINUOUS
62
252
70
192
10
1.200000
20
-30.878552
30
-34.022534
0
VERTEX
8
0
6
CONTINUOUS
62
252
70
192
10
1.200000
20
-30.491035
30
-35.087229
0
VERTEX
8
0
6
CONTINUOUS
62
252
70
192
10
1.200000
20
-30.294287
30
-36.203040
0
VERTEX
8
0
6
CONTINUOUS
62
252
70
192
10
1.200000
20
-30.294287
30
-37.336065
0
VERTEX
8
0
6
CONTINUOUS
62
252
70
192
10
1.200000
20
-30.491035
30
-38.451876
0
VERTEX
8
0
6
CONTINUOUS
62
252
70
192
10
1.200000
20
-30.878552
30
-39.516571
0
VERTEX
8
0
6
CONTINUOUS
62
252
70
192
10
1.200000
20
-31.445064
30
-40.497799
0
VERTEX
8
0
6
CONTINUOUS
62
252
70
192
10
1.200000
20
-32.173359
30
-41.365747
0
VERTEX
8
0
6
CONTINUOUS
62
252
70
192
10
6.000000
20
-32.173359
30
-41.365747
0
VERTEX
8
0
6
CONTINUOUS
62
252
70
192
10
6.000000
20
-31.445064
30
-40.497799
0
VERTEX
8
0
6
CONTINUOUS
62
252
70
192
10
6.000000
20
-30.878552
30
-39.516571
0
VERTEX
8
0
6
CONTINUOUS
62
252
70
192
10
6.000000
20
-30.491035
30
-38.451876
0
VERTEX
8
0
6
CONTINUOUS
62
252
70
192
10
6.000000
20
-30.294287
30
-37.336065
0
VERTEX
8
0
6
CONTINUOUS
62
252
70
192
10
6.000000
20
-30.294287
30
-36.203040
0
VERTEX
8
0
6
CONTINUOUS
62
252
70
192
10
6.000000
20
-30.491035
30
-35.087229
0
VERTEX
8
0
6
CONTINUOUS
62
252
70
192
10
6.000000
20
-30.878552
30
-34.022534
0
VERTEX
8
0
6
CONTINUOUS
62
252
70
192
10
6.000000
20
-31.445064
30
-33.041306
0
VERTEX
8
0
6
CONTINUOUS
62
252
70
192
10
6.000000
20
-32.173359
30
-32.173359
0
VERTEX
8
0
6
CONTINUOUS
62
252
70
192
10
6.000000
20
-33.041306
30
-31.445064
0
VERTEX
8
0
6
CONTINUOUS
62
252
70
192
10
6.000000
20
-34.022534
30
-30.878552
0
VERTEX
8
0
6
CONTINUOUS
62
252
70
192
10
6.000000
20
-35.087229
30
-30.491035
0
VERTEX
8
0
6
CONTINUOUS
62
252
70
192
10
6.000000
20
-36.203040
30
-30.294287
0
VERTEX
8
0
6
CONTINUOUS
62
252
70
192
10
6.000000
20
-37.336065
30
-30.294287
0
VERTEX
8
0
6
CONTINUOUS
62
252
70
192
10
6.000000
20
-38.451876
30
-30.491035
0
VERTEX
8
0
6
CONTINUOUS
62
252
70
192
10
6.000000
20
-39.516571
30
-30.878552
0
VERTEX
8
0
6
CONTINUOUS
62
252
70
192
10
6.000000
20
-40.497799
30
-31.445064
0
VERTEX
8
0
6
CONTINUOUS
62
252
70
192
10
6.000000
20
-41.365747
30
-32.173359
0
VERTEX
8
0
6
CONTINUOUS
62
252
70
128
10
0.000000
20
0.000000
30
0.000000
71
38
72
1
73
37
0
VERTEX
8
0
6
CONTINUOUS
62
252
70
128
10
0.000000
20
0.000000
30
0.000000
71
37
72
1
73
2
0
VERTEX
8
0
6
CONTINUOUS
62
252
70
128
10
0.000000
20
0.000000
30
0.000000
71
37
72
2
73
36
0
VERTEX
8
0
6
CONTINUOUS
62
252
70
128
10
0.000000
20
0.000000
30
0.000000
71
36
72
2
73
3
0
VERTEX
8
0
6
CONTINUOUS
62
252
70
128
10
0.000000
20
0.000000
30
0.000000
71
36
72
3
73
35
0
VERTEX
8
0
6
CONTINUOUS
62
252
70
128
10
0.000000
20
0.000000
30
0.000000
71
35
72
3
73
4
0
VERTEX
8
0
6
CONTINUOUS
62
252
70
128
10
0.000000
20
0.000000
30
0.000000
71
35
72
4
73
34
0
VERTEX
8
0
6
CONTINUOUS
62
252
70
128
10
0.000000
20
0.000000
30
0.000000
71
34
72
4
73
5
0
VERTEX
8
0
6
CONTINUOUS
62
252
70
128
10
0.000000
20
0.000000
30
0.000000
71
34
72
5
73
33
0
VERTEX
8
0
6
CONTINUOUS
62
252
70
128
10
0.000000
20
0.000000
30
0.000000
71
33
72
5
73
6
0
VERTEX
8
0
6
CONTINUOUS
62
252
70
128
10
0.000000
20
0.000000
30
0.000000
71
33
72
6
73
32
0
VERTEX
8
0
6
CONTINUOUS
62
252
70
128
10
0.000000
20
0.000000
30
0.000000
71
32
72
6
73
7
0
VERTEX
8
0
6
CONTINUOUS
62
252
70
128
10
0.000000
20
0.000000
30
0.000000
71
32
72
7
73
31
0
VERTEX
8
0
6
CONTINUOUS
62
252
70
128
10
0.000000
20
0.000000
30
0.000000
71
31
72
7
73
8
0
VERTEX
8
0
6
CONTINUOUS
62
252
70
128
10
0.000000
20
0.000000
30
0.000000
71
31
72
8
73
30
0
VERTEX
8
0
6
CONTINUOUS
62
252
70
128
10
0.000000
20
0.000000
30
0.000000
71
30
72
8
73
9
0
VERTEX
8
0
6
CONTINUOUS
62
252
70
128
10
0.000000
20
0.000000
30
0.000000
71
30
72
9
73
29
0
VERTEX
8
0
6
CONTINUOUS
62
252
70
128
10
0.000000
20
0.000000
30
0.000000
71
29
72
9
73
10
0
VERTEX
8
0
6
CONTINUOUS
62
252
70
128
10
0.000000
20
0.000000
30
0.000000
71
29
72
10
73
28
0
VERTEX
8
0
6
CONTINUOUS
62
252
70
128
10
0.000000
20
0.000000
30
0.000000
71
28
72
10
73
11
0
VERTEX
8
0
6
CONTINUOUS
62
252
70
128
10
0.000000
20
0.000000
30
0.000000
71
28
72
11
73
27
0
VERTEX
8
0
6
CONTINUOUS
62
252
70
128
10
0.000000
20
0.000000
30
0.000000
71
27
72
11
73
12
0
VERTEX
8
0
6
CONTINUOUS
62
252
70
128
10
0.000000
20
0.000000
30
0.000000
71
27
72
12
73
13
0
VERTEX
8
0
6
CONTINUOUS
62
252
70
128
10
0.000000
20
0.000000
30
0.000000
71
27
72
13
73
26
0
VERTEX
8
0
6
CONTINUOUS
62
252
70
128
10
0.000000
20
0.000000
30
0.000000
71
26
72
13
73
14
0
VERTEX
8
0
6
CONTINUOUS
62
252
70
128
10
0.000000
20
0.000000
30
0.000000
71
26
72
14
73
25
0
VERTEX
8
0
6
CONTINUOUS
62
252
70
128
10
0.000000
20
0.000000
30
0.000000
71
25
72
14
73
24
0
VERTEX
8
0
6
CONTINUOUS
62
252
70
128
10
0.000000
20
0.000000
30
0.000000
71
24
72
14
73
15
0
VERTEX
8
0
6
CONTINUOUS
62
252
70
128
10
0.000000
20
0.000000
30
0.000000
71
24
72
15
73
23
0
VERTEX
8
0
6
CONTINUOUS
62
252
70
128
10
0.000000
20
0.000000
30
0.000000
71
23
72
15
73
16
0
VERTEX
8
0
6
CONTINUOUS
62
252
70
128
10
0.000000
20
0.000000
30
0.000000
71
23
72
16
73
22
0
VERTEX
8
0
6
CONTINUOUS
62
252
70
128
10
0.000000
20
0.000000
30
0.000000
71
22
72
16
73
17
0
VERTEX
8
0
6
CONTINUOUS
62
252
70
128
10
0.000000
20
0.000000
30
0.000000
71
22
72
17
73
21
0
VERTEX
8
0
6
CONTINUOUS
62
252
70
128
10
0.000000
20
0.000000
30
0.000000
71
21
72
17
73
18
0
VERTEX
8
0
6
CONTINUOUS
62
252
70
128
10
0.000000
20
0.000000
30
0.000000
71
21
72
18
73
19
0
VERTEX
8
0
6
CONTINUOUS
62
252
70
128
10
0.000000
20
0.000000
30
0.000000
71
19
72
20
73
21
0
SEQEND
0
POLYLINE
66
1
8
0
6
CONTINUOUS
62
252
70
64
75
0
10
0.000000
20
0.000000
30
0.000000
0
VERTEX
8
0
6
CONTINUOUS
62
252
70
192
10
1.200000
20
-40.092954
30
-40.092954
0
VERTEX
8
0
6
CONTINUOUS
62
252
70
192
10
1.200000
20
-40.619567
30
-39.465362
0
VERTEX
8
0
6
CONTINUOUS
62
252
70
192
10
1.200000
20
-41.029199
30
-38.755858
0
VERTEX
8
0
6
CONTINUOUS
62
252
70
192
10
1.200000
20
-41.309404
30
-37.986002
0
VERTEX
8
0
6
CONTINUOUS
62
252
70
192
10
1.200000
20
-41.451668
30
-37.179185
0
VERTEX
8
0
6
CONTINUOUS
62
252
70
192
10
1.200000
20
-41.451668
30
-36.359921
0
VERTEX
8
0
6
CONTINUOUS
62
252
70
192
10
1.200000
20
-41.309404
30
-35.553103
0
VERTEX
8
0
6
CONTINUOUS
62
252
70
192
10
1.200000
20
-41.029199
30
-34.783247
0
VERTEX
8
0
6
CONTINUOUS
62
252
70
192
10
1.200000
20
-40.619567
30
-34.073743
0
VERTEX
8
0
6
CONTINUOUS
62
252
70
192
10
1.200000
20
-40.092954
30
-33.446151
0
VERTEX
8
0
6
CONTINUOUS
62
252
70
192
10
1.200000
20
-39.465362
30
-32.919538
0
VERTEX
8
0
6
CONTINUOUS
62
252
70
192
10
1.200000
20
-38.755858
30
-32.509906
0
VERTEX
8
0
6
CONTINUOUS
62
252
70
192
10
1.200000
20
-37.986002
30
-32.229701
0
VERTEX
8
0
6
CONTINUOUS
62
252
70
192
10
1.200000
20
-37.179185
30
-32.087438
0
VERTEX
8
0
6
CONTINUOUS
62
252
70
192
10
1.200000
20
-36.359921
30
-32.087438
0
VERTEX
8
0
6
CONTINUOUS
62
252
70
192
10
1.200000
20
-35.553103
30
-32.229701
0
VERTEX
8
0
6
CONTINUOUS
62
252
70
192
10
1.200000
20
-34.783247
30
-32.509906
0
VERTEX
8
0
6
CONTINUOUS
62
252
70
192
10
1.200000
20
-34.073743
30
-32.919538
0
VERTEX
8
0
6
CONTINUOUS
62
252
70
192
10
1.200000
20
-33.446151
30
-33.446151
0
VERTEX
8
0
6
CONTINUOUS
62
252
70
192
10
1.200000
20
-32.919538
30
-34.073743
0
VERTEX
8
0
6
CONTINUOUS
62
252
70
192
10
1.200000
20
-32.509906
30
-34.783247
0
VERTEX
8
0
6
CONTINUOUS
62
252
70
192
10
1.200000
20
-32.229701
30
-35.553103
0
VERTEX
8
0
6
CONTINUOUS
62
252
70
192
10
1.200000
20
-32.087438
30
-36.359921
0
VERTEX
8
0
6
CONTINUOUS
62
252
70
192
10
1.200000
20
-32.087438
30
-37.179185
0
VERTEX
8
0
6
CONTINUOUS
62
252
70
192
10
1.200000
20
-32.229701
30
-37.986002
0
VERTEX
8
0
6
CONTINUOUS
62
252
70
192
10
1.200000
20
-32.509906
30
-38.755858
0
VERTEX
8
0
6
CONTINUOUS
62
252
70
192
10
1.200000
20
-32.919538
30
-39.465362
0
VERTEX
8
0
6
CONTINUOUS
62
252
70
192
10
1.200000
20
-33.446151
30
-40.092954
0
VERTEX
8
0
6
CONTINUOUS
62
252
70
192
10
1.200000
20
-34.073743
30
-40.619567
0
VERTEX
8
0
6
CONTINUOUS
62
252
70
192
10
1.200000
20
-34.783247
30
-41.029199
0
VERTEX
8
0
6
CONTINUOUS
62
252
70
192
10
1.200000
20
-35.553103
30
-41.309404
0
VERTEX
8
0
6
CONTINUOUS
62
252
70
192
10
1.200000
20
-36.359921
30
-41.451668
0
VERTEX
8
0
6
CONTINUOUS
62
252
70
192
10
1.200000
20
-37.179185
30
-41.451668
0
VERTEX
8
0
6
CONTINUOUS
62
252
70
192
10
1.200000
20
-37.986002
30
-41.309404
0
VERTEX
8
0
6
CONTINUOUS
62
252
70
192
10
1.200000
20
-38.755858
30
-41.029199
0
VERTEX
8
0
6
CONTINUOUS
62
252
70
192
10
1.200000
20
-39.465362
30
-40.619567
0
VERTEX
8
0
6
CONTINUOUS
62
252
70
192
10
1.200000
20
-44.600000
30
-35.407612
0
VERTEX
8
0
6
CONTINUOUS
62
252
70
192
10
1.200000
20
-44.600000
30
-37.600000
0
VERTEX
8
0
6
CONTINUOUS
62
252
70
192
10
1.200000
20
-44.493654
30
-38.815537
0
VERTEX
8
0
6
CONTINUOUS
62
252
70
192
10
1.200000
20
-44.177848
30
-39.994141
0
VERTEX
8
0
6
CONTINUOUS
62
252
70
192
10
1.200000
20
-43.662178
30
-41.100000
0
VERTEX
8
0
6
CONTINUOUS
62
252
70
192
10
1.200000
20
-42.962311
30
-42.099513
0
VERTEX
8
0
6
CONTINUOUS
62
252
70
192
10
1.200000
20
-42.099513
30
-42.962311
0
VERTEX
8
0
6
CONTINUOUS
62
252
70
192
10
1.200000
20
-41.100000
30
-43.662178
0
VERTEX
8
0
6
CONTINUOUS
62
252
70
192
10
1.200000
20
-39.994141
30
-44.177848
0
VERTEX
8
0
6
CONTINUOUS
62
252
70
192
10
1.200000
20
-38.815537
30
-44.493654
0
VERTEX
8
0
6
CONTINUOUS
62
252
70
192
10
1.200000
20
-37.600000
30
-44.600000
0
VERTEX
8
0
6
CONTINUOUS
62
252
70
192
10
1.200000
20
-35.407612
30
-44.600000
0
VERTEX
8
0
6
CONTINUOUS
62
252
70
192
10
1.200000
20
-32.173359
30
-41.365747
0
VERTEX
8
0
6
CONTINUOUS
62
252
70
192
10
1.200000
20
-31.445064
30
-40.497799
0
VERTEX
8
0
6
CONTINUOUS
62
252
70
192
10
1.200000
20
-30.878552
30
-39.516571
0
VERTEX
8
0
6
CONTINUOUS
62
252
70
192
10
1.200000
20
-30.491035
30
-38.451876
0
VERTEX
8
0
6
CONTINUOUS
62
252
70
192
10
1.200000
20
-30.294287
30
-37.336065
0
VERTEX
8
0
6
CONTINUOUS
62
252
70
192
10
1.200000
20
-30.294287
30
-36.203040
0
VERTEX
8
0
6
CONTINUOUS
62
252
70
192
10
1.200000
20
-30.491035
30
-35.087229
0
VERTEX
8
0
6
CONTINUOUS
62
252
70
192
10
1.200000
20
-30.878552
30
-34.022534
0
VERTEX
8
0
6
CONTINUOUS
62
252
70
192
10
1.200000
20
-31.445064
30
-33.041306
0
VERTEX
8
0
6
CONTINUOUS
62
252
70
192
10
1.200000
20
-32.173359
30
-32.173359
0
VERTEX
8
0
6
CONTINUOUS
62
252
70
192
10
1.200000
20
-33.041306
30
-31.445064
0
VERTEX
8
0
6
CONTINUOUS
62
252
70
192
10
1.200000
20
-34.022534
30
-30.878552
0
VERTEX
8
0
6
CONTINUOUS
62
252
70
192
10
1.200000
20
-35.087229
30
-30.491035
0
VERTEX
8
0
6
CONTINUOUS
62
252
70
192
10
1.200000
20
-36.203040
30
-30.294287
0
VERTEX
8
0
6
CONTINUOUS
62
252
70
192
10
1.200000
20
-37.336065
30
-30.294287
0
VERTEX
8
0
6
CONTINUOUS
62
252
70
192
10
1.200000
20
-38.451876
30
-30.491035
0
VERTEX
8
0
6
CONTINUOUS
62
252
70
192
10
1.200000
20
-39.516571
30
-30.878552
0
VERTEX
8
0
6
CONTINUOUS
62
252
70
192
10
1.200000
20
-40.497799
30
-31.445064
0
VERTEX
8
0
6
CONTINUOUS
62
252
70
192
10
1.200000
20
-41.365747
30
-32.173359
0
VERTEX
8
0
6
CONTINUOUS
62
252
70
128
10
0.000000
20
0.000000
30
0.000000
71
2
72
42
73
1
0
VERTEX
8
0
6
CONTINUOUS
62
252
70
128
10
0.000000
20
0.000000
30
0.000000
71
1
72
42
73
43
0
VERTEX
8
0
6
CONTINUOUS
62
252
70
128
10
0.000000
20
0.000000
30
0.000000
71
1
72
43
73
36
0
VERTEX
8
0
6
CONTINUOUS
62
252
70
128
10
0.000000
20
0.000000
30
0.000000
71
36
72
43
73
44
0
VERTEX
8
0
6
CONTINUOUS
62
252
70
128
10
0.000000
20
0.000000
30
0.000000
71
36
72
44
73
35
0
VERTEX
8
0
6
CONTINUOUS
62
252
70
128
10
0.000000
20
0.000000
30
0.000000
71
35
72
44
73
45
0
VERTEX
8
0
6
CONTINUOUS
62
252
70
128
10
0.000000
20
0.000000
30
0.000000
71
35
72
45
73
34
0
VERTEX
8
0
6
CONTINUOUS
62
252
70
128
10
0.000000
20
0.000000
30
0.000000
71
34
72
45
73
46
0
VERTEX
8
0
6
CONTINUOUS
62
252
70
128
10
0.000000
20
0.000000
30
0.000000
71
34
72
46
73
33
0
VERTEX
8
0
6
CONTINUOUS
62
252
70
128
10
0.000000
20
0.000000
30
0.000000
71
33
72
46
73
47
0
VERTEX
8
0
6
CONTINUOUS
62
252
70
128
10
0.000000
20
0.000000
30
0.000000
71
33
72
47
73
32
0
VERTEX
8
0
6
CONTINUOUS
62
252
70
128
10
0.000000
20
0.000000
30
0.000000
71
32
72
47
73
48
0
VERTEX
8
0
6
CONTINUOUS
62
252
70
128
10
0.000000
20
0.000000
30
0.000000
71
32
72
48
73
31
0
VERTEX
8
0
6
CONTINUOUS
62
252
70
128
10
0.000000
20
0.000000
30
0.000000
71
31
72
48
73
30
0
VERTEX
8
0
6
CONTINUOUS
62
252
70
128
10
0.000000
20
0.000000
30
0.000000
71
30
72
48
73
49
0
VERTEX
8
0
6
CONTINUOUS
62
252
70
128
10
0.000000
20
0.000000
30
0.000000
71
30
72
49
73
29
0
VERTEX
8
0
6
CONTINUOUS
62
252
70
128
10
0.000000
20
0.000000
30
0.000000
71
29
72
49
73
28
0
VERTEX
8
0
6
CONTINUOUS
62
252
70
128
10
0.000000
20
0.000000
30
0.000000
71
28
72
49
73
50
0
VERTEX
8
0
6
CONTINUOUS
62
252
70
128
10
0.000000
20
0.000000
30
0.000000
71
28
72
50
73
27
0
VERTEX
8
0
6
CONTINUOUS
62
252
70
128
10
0.000000
20
0.000000
30
0.000000
71
27
72
50
73
51
0
VERTEX
8
0
6
CONTINUOUS
62
252
70
128
10
0.000000
20
0.000000
30
0.000000
71
27
72
51
73
26
0
VERTEX
8
0
6
CONTINUOUS
62
252
70
128
10
0.000000
20
0.000000
30
0.000000
71
26
72
51
73
52
0
VERTEX
8
0
6
CONTINUOUS
62
252
70
128
10
0.000000
20
0.000000
30
0.000000
71
26
72
52
73
25
0
VERTEX
8
0
6
CONTINUOUS
62
252
70
128
10
0.000000
20
0.000000
30
0.000000
71
25
72
52
73
53
0
VERTEX
8
0
6
CONTINUOUS
62
252
70
128
10
0.000000
20
0.000000
30
0.000000
71
25
72
53
73
24
0
VERTEX
8
0
6
CONTINUOUS
62
252
70
128
10
0.000000
20
0.000000
30
0.000000
71
24
72
53
73
54
0
VERTEX
8
0
6
CONTINUOUS
62
252
70
128
10
0.000000
20
0.000000
30
0.000000
71
24
72
54
73
23
0
VERTEX
8
0
6
CONTINUOUS
62
252
70
128
10
0.000000
20
0.000000
30
0.000000
71
23
72
54
73
55
0
VERTEX
8
0
6
CONTINUOUS
62
252
70
128
10
0.000000
20
0.000000
30
0.000000
71
23
72
55
73
22
0
VERTEX
8
0
6
CONTINUOUS
62
252
70
128
10
0.000000
20
0.000000
30
0.000000
71
22
72
55
73
56
0
VERTEX
8
0
6
CONTINUOUS
62
252
70
128
10
0.000000
20
0.000000
30
0.000000
71
22
72
56
73
21
0
VERTEX
8
0
6
CONTINUOUS
62
252
70
128
10
0.000000
20
0.000000
30
0.000000
71
21
72
56
73
57
0
VERTEX
8
0
6
CONTINUOUS
62
252
70
128
10
0.000000
20
0.000000
30
0.000000
71
21
72
57
73
20
0
VERTEX
8
0
6
CONTINUOUS
62
252
70
128
10
0.000000
20
0.000000
30
0.000000
71
20
72
57
73
58
0
VERTEX
8
0
6
CONTINUOUS
62
252
70
128
10
0.000000
20
0.000000
30
0.000000
71
20
72
58
73
19
0
VERTEX
8
0
6
CONTINUOUS
62
252
70
128
10
0.000000
20
0.000000
30
0.000000
71
19
72
58
73
18
0
VERTEX
8
0
6
CONTINUOUS
62
252
70
128
10
0.000000
20
0.000000
30
0.000000
71
18
72
58
73
59
0
VERTEX
8
0
6
CONTINUOUS
62
252
70
128
10
0.000000
20
0.000000
30
0.000000
71
18
72
59
73
17
0
VERTEX
8
0
6
CONTINUOUS
62
252
70
128
10
0.000000
20
0.000000
30
0.000000
71
17
72
59
73
60
0
VERTEX
8
0
6
CONTINUOUS
62
252
70
128
10
0.000000
20
0.000000
30
0.000000
71
17
72
60
73
16
0
VERTEX
8
0
6
CONTINUOUS
62
252
70
128
10
0.000000
20
0.000000
30
0.000000
71
16
72
60
73
61
0
VERTEX
8
0
6
CONTINUOUS
62
252
70
128
10
0.000000
20
0.000000
30
0.000000
71
16
72
61
73
15
0
VERTEX
8
0
6
CONTINUOUS
62
252
70
128
10
0.000000
20
0.000000
30
0.000000
71
15
72
61
73
62
0
VERTEX
8
0
6
CONTINUOUS
62
252
70
128
10
0.000000
20
0.000000
30
0.000000
71
15
72
62
73
14
0
VERTEX
8
0
6
CONTINUOUS
62
252
70
128
10
0.000000
20
0.000000
30
0.000000
71
14
72
62
73
63
0
VERTEX
8
0
6
CONTINUOUS
62
252
70
128
10
0.000000
20
0.000000
30
0.000000
71
14
72
63
73
13
0
VERTEX
8
0
6
CONTINUOUS
62
252
70
128
10
0.000000
20
0.000000
30
0.000000
71
13
72
63
73
64
0
VERTEX
8
0
6
CONTINUOUS
62
252
70
128
10
0.000000
20
0.000000
30
0.000000
71
13
72
64
73
12
0
VERTEX
8
0
6
CONTINUOUS
62
252
70
128
10
0.000000
20
0.000000
30
0.000000
71
12
72
64
73
65
0
VERTEX
8
0
6
CONTINUOUS
62
252
70
128
10
0.000000
20
0.000000
30
0.000000
71
12
72
65
73
11
0
VERTEX
8
0
6
CONTINUOUS
62
252
70
128
10
0.000000
20
0.000000
30
0.000000
71
11
72
65
73
66
0
VERTEX
8
0
6
CONTINUOUS
62
252
70
128
10
0.000000
20
0.000000
30
0.000000
71
11
72
66
73
10
0
VERTEX
8
0
6
CONTINUOUS
62
252
70
128
10
0.000000
20
0.000000
30
0.000000
71
10
72
66
73
67
0
VERTEX
8
0
6
CONTINUOUS
62
252
70
128
10
0.000000
20
0.000000
30
0.000000
71
10
72
67
73
9
0
VERTEX
8
0
6
CONTINUOUS
62
252
70
128
10
0.000000
20
0.000000
30
0.000000
71
9
72
67
73
8
0
VERTEX
8
0
6
CONTINUOUS
62
252
70
128
10
0.000000
20
0.000000
30
0.000000
71
8
72
67
73
37
0
VERTEX
8
0
6
CONTINUOUS
62
252
70
128
10
0.000000
20
0.000000
30
0.000000
71
8
72
37
73
7
0
VERTEX
8
0
6
CONTINUOUS
62
252
70
128
10
0.000000
20
0.000000
30
0.000000
71
7
72
37
73
6
0
VERTEX
8
0
6
CONTINUOUS
62
252
70
128
10
0.000000
20
0.000000
30
0.000000
71
6
72
37
73
38
0
VERTEX
8
0
6
CONTINUOUS
62
252
70
128
10
0.000000
20
0.000000
30
0.000000
71
6
72
38
73
5
0
VERTEX
8
0
6
CONTINUOUS
62
252
70
128
10
0.000000
20
0.000000
30
0.000000
71
5
72
38
73
39
0
VERTEX
8
0
6
CONTINUOUS
62
252
70
128
10
0.000000
20
0.000000
30
0.000000
71
5
72
39
73
4
0
VERTEX
8
0
6
CONTINUOUS
62
252
70
128
10
0.000000
20
0.000000
30
0.000000
71
4
72
39
73
40
0
VERTEX
8
0
6
CONTINUOUS
62
252
70
128
10
0.000000
20
0.000000
30
0.000000
71
4
72
40
73
3
0
VERTEX
8
0
6
CONTINUOUS
62
252
70
128
10
0.000000
20
0.000000
30
0.000000
71
3
72
40
73
41
0
VERTEX
8
0
6
CONTINUOUS
62
252
70
128
10
0.000000
20
0.000000
30
0.000000
71
3
72
41
73
2
0
VERTEX
8
0
6
CONTINUOUS
62
252
70
128
10
0.000000
20
0.000000
30
0.000000
71
2
72
41
73
42
0
SEQEND
0
POLYLINE
66
1
8
0
6
CONTINUOUS
62
252
70
64
75
0
10
0.000000
20
0.000000
30
0.000000
0
VERTEX
8
0
6
CONTINUOUS
62
252
70
192
10
1.200000
20
-44.600000
30
35.407612
0
VERTEX
8
0
6
CONTINUOUS
62
252
70
192
10
1.200000
20
-44.600000
30
37.600000
0
VERTEX
8
0
6
CONTINUOUS
62
252
70
192
10
-0.000000
20
-44.600000
30
37.600000
0
VERTEX
8
0
6
CONTINUOUS
62
252
70
192
10
0.000000
20
-44.600000
30
-37.600000
0
VERTEX
8
0
6
CONTINUOUS
62
252
70
192
10
1.200000
20
-44.600000
30
-37.600000
0
VERTEX
8
0
6
CONTINUOUS
62
252
70
192
10
1.200000
20
-44.600000
30
-35.407612
0
VERTEX
8
0
6
CONTINUOUS
62
252
70
192
10
6.000000
20
-44.600000
30
-35.407612
0
VERTEX
8
0
6
CONTINUOUS
62
252
70
192
10
6.000000
20
-44.600000
30
-18.473950
0
VERTEX
8
0
6
CONTINUOUS
62
252
70
192
10
6.000000
20
-44.600000
30
18.473950
0
VERTEX
8
0
6
CONTINUOUS
62
252
70
192
10
6.000000
20
-44.600000
30
35.407612
0
VERTEX
8
0
6
CONTINUOUS
62
252
70
128
10
0.000000
20
0.000000
30
0.000000
71
2
72
3
73
1
0
VERTEX
8
0
6
CONTINUOUS
62
252
70
128
10
0.000000
20
0.000000
30
0.000000
71
1
72
3
73
4
0
VERTEX
8
0
6
CONTINUOUS
62
252
70
128
10
0.000000
20
0.000000
30
0.000000
71
1
72
4
73
6
0
VERTEX
8
0
6
CONTINUOUS
62
252
70
128
10
0.000000
20
0.000000
30
0.000000
71
6
72
4
73
5
0
VERTEX
8
0
6
CONTINUOUS
62
252
70
128
10
0.000000
20
0.000000
30
0.000000
71
7
72
8
73
6
0
VERTEX
8
0
6
CONTINUOUS
62
252
70
128
10
0.000000
20
0.000000
30
0.000000
71
6
72
8
73
9
0
VERTEX
8
0
6
CONTINUOUS
62
252
70
128
10
0.000000
20
0.000000
30
0.000000
71
6
72
9
73
1
0
VERTEX
8
0
6
CONTINUOUS
62
252
70
128
10
0.000000
20
0.000000
30
0.000000
71
1
72
9
73
10
0
SEQEND
0
POLYLINE
66
1
8
0
6
CONTINUOUS
62
252
70
64
75
0
10
0.000000
20
0.000000
30
0.000000
0
VERTEX
8
0
6
CONTINUOUS
62
252
70
192
10
6.000000
20
-28.000000
30
-44.600000
0
VERTEX
8
0
6
CONTINUOUS
62
252
70
192
10
6.000000
20
-28.000000
30
-35.073950
0
VERTEX
8
0
6
CONTINUOUS
62
252
70
192
10
6.000000
20
-44.600000
30
-18.473950
0
VERTEX
8
0
6
CONTINUOUS
62
252
70
192
10
6.000000
20
-44.600000
30
-35.407612
0
VERTEX
8
0
6
CONTINUOUS
62
252
70
192
10
6.000000
20
-41.365747
30
-32.173359
0
VERTEX
8
0
6
CONTINUOUS
62
252
70
192
10
6.000000
20
-40.497799
30
-31.445064
0
VERTEX
8
0
6
CONTINUOUS
62
252
70
192
10
6.000000
20
-39.516571
30
-30.878552
0
VERTEX
8
0
6
CONTINUOUS
62
252
70
192
10
6.000000
20
-38.451876
30
-30.491035
0
VERTEX
8
0
6
CONTINUOUS
62
252
70
192
10
6.000000
20
-37.336065
30
-30.294287
0
VERTEX
8
0
6
CONTINUOUS
62
252
70
192
10
6.000000
20
-36.203040
30
-30.294287
0
VERTEX
8
0
6
CONTINUOUS
62
252
70
192
10
6.000000
20
-35.087229
30
-30.491035
0
VERTEX
8
0
6
CONTINUOUS
62
252
70
192
10
6.000000
20
-34.022534
30
-30.878552
0
VERTEX
8
0
6
CONTINUOUS
62
252
70
192
10
6.000000
20
-33.041306
30
-31.445064
0
VERTEX
8
0
6
CONTINUOUS
62
252
70
192
10
6.000000
20
-32.173359
30
-32.173359
0
VERTEX
8
0
6
CONTINUOUS
62
252
70
192
10
6.000000
20
-31.445064
30
-33.041306
0
VERTEX
8
0
6
CONTINUOUS
62
252
70
192
10
6.000000
20
-30.878552
30
-34.022534
0
VERTEX
8
0
6
CONTINUOUS
62
252
70
192
10
6.000000
20
-30.491035
30
-35.087229
0
VERTEX
8
0
6
CONTINUOUS
62
252
70
192
10
6.000000
20
-30.294287
30
-36.203040
0
VERTEX
8
0
6
CONTINUOUS
62
252
70
192
10
6.000000
20
-30.294287
30
-37.336065
0
VERTEX
8
0
6
CONTINUOUS
62
252
70
192
10
6.000000
20
-30.491035
30
-38.451876
0
VERTEX
8
0
6
CONTINUOUS
62
252
70
192
10
6.000000
20
-30.878552
30
-39.516571
0
VERTEX
8
0
6
CONTINUOUS
62
252
70
192
10
6.000000
20
-31.445064
30
-40.497799
0
VERTEX
8
0
6
CONTINUOUS
62
252
70
192
10
6.000000
20
-32.173359
30
-41.365747
0
VERTEX
8
0
6
CONTINUOUS
62
252
70
192
10
6.000000
20
-35.407612
30
-44.600000
0
VERTEX
8
0
6
CONTINUOUS
62
252
70
192
10
6.000000
20
-30.000000
30
-44.600000
0
VERTEX
8
0
6
CONTINUOUS
62
252
70
128
10
0.000000
20
0.000000
30
0.000000
71
2
72
20
73
1
0
VERTEX
8
0
6
CONTINUOUS
62
252
70
128
10
0.000000
20
0.000000
30
0.000000
71
1
72
20
73
21
0
VERTEX
8
0
6
CONTINUOUS
62
252
70
128
10
0.000000
20
0.000000
30
0.000000
71
1
72
21
73
22
0
VERTEX
8
0
6
CONTINUOUS
62
252
70
128
10
0.000000
20
0.000000
30
0.000000
71
3
72
13
73
2
0
VERTEX
8
0
6
CONTINUOUS
62
252
70
128
10
0.000000
20
0.000000
30
0.000000
71
2
72
13
73
14
0
VERTEX
8
0
6
CONTINUOUS
62
252
70
128
10
0.000000
20
0.000000
30
0.000000
71
2
72
14
73
15
0
VERTEX
8
0
6
CONTINUOUS
62
252
70
128
10
0.000000
20
0.000000
30
0.000000
71
4
72
5
73
3
0
VERTEX
8
0
6
CONTINUOUS
62
252
70
128
10
0.000000
20
0.000000
30
0.000000
71
3
72
5
73
6
0
VERTEX
8
0
6
CONTINUOUS
62
252
70
128
10
0.000000
20
0.000000
30
0.000000
71
3
72
6
73
7
0
VERTEX
8
0
6
CONTINUOUS
62
252
70
128
10
0.000000
20
0.000000
30
0.000000
71
7
72
8
73
3
0
VERTEX
8
0
6
CONTINUOUS
62
252
70
128
10
0.000000
20
0.000000
30
0.000000
71
3
72
8
73
9
0
VERTEX
8
0
6
CONTINUOUS
62
252
70
128
10
0.000000
20
0.000000
30
0.000000
71
3
72
9
73
10
0
VERTEX
8
0
6
CONTINUOUS
62
252
70
128
10
0.000000
20
0.000000
30
0.000000
71
10
72
11
73
3
0
VERTEX
8
0
6
CONTINUOUS
62
252
70
128
10
0.000000
20
0.000000
30
0.000000
71
3
72
11
73
12
0
VERTEX
8
0
6
CONTINUOUS
62
252
70
128
10
0.000000
20
0.000000
30
0.000000
71
3
72
12
73
13
0
VERTEX
8
0
6
CONTINUOUS
62
252
70
128
10
0.000000
20
0.000000
30
0.000000
71
15
72
16
73
2
0
VERTEX
8
0
6
CONTINUOUS
62
252
70
128
10
0.000000
20
0.000000
30
0.000000
71
2
72
16
73
17
0
VERTEX
8
0
6
CONTINUOUS
62
252
70
128
10
0.000000
20
0.000000
30
0.000000
71
2
72
17
73
18
0
VERTEX
8
0
6
CONTINUOUS
62
252
70
128
10
0.000000
20
0.000000
30
0.000000
71
18
72
19
73
2
0
VERTEX
8
0
6
CONTINUOUS
62
252
70
128
10
0.000000
20
0.000000
30
0.000000
71
2
72
19
73
20
0
VERTEX
8
0
6
CONTINUOUS
62
252
70
128
10
0.000000
20
0.000000
30
0.000000
71
1
72
22
73
25
0
VERTEX
8
0
6
CONTINUOUS
62
252
70
128
10
0.000000
20
0.000000
30
0.000000
71
25
72
22
73
23
0
VERTEX
8
0
6
CONTINUOUS
62
252
70
128
10
0.000000
20
0.000000
30
0.000000
71
25
72
23
73
24
0
SEQEND
0
POLYLINE
66
1
8
0
6
CONTINUOUS
62
252
70
64
75
0
10
0.000000
20
0.000000
30
0.000000
0
VERTEX
8
0
6
CONTINUOUS
62
252
70
192
10
61.000000
20
17.678394
30
42.679358
0
VERTEX
8
0
6
CONTINUOUS
62
252
70
192
10
61.000000
20
42.679358
30
17.678394
0
VERTEX
8
0
6
CONTINUOUS
62
252
70
192
10
6.000000
20
44.600000
30
18.473950
0
VERTEX
8
0
6
CONTINUOUS
62
252
70
192
10
6.000000
20
18.473950
30
44.600000
0
VERTEX
8
0
6
CONTINUOUS
62
252
70
128
10
0.000000
20
0.000000
30
0.000000
71
1
72
2
73
4
0
VERTEX
8
0
6
CONTINUOUS
62
252
70
128
10
0.000000
20
0.000000
30
0.000000
71
4
72
2
73
3
0
SEQEND
0
POLYLINE
66
1
8
0
6
CONTINUOUS
62
252
70
64
75
0
10
0.000000
20
0.000000
30
0.000000
0
VERTEX
8
0
6
CONTINUOUS
62
252
70
192
10
61.000000
20
42.679358
30
17.678394
0
VERTEX
8
0
6
CONTINUOUS
62
252
70
192
10
61.000000
20
42.679358
30
-17.678394
0
VERTEX
8
0
6
CONTINUOUS
62
252
70
192
10
6.000000
20
44.600000
30
-18.473950
0
VERTEX
8
0
6
CONTINUOUS
62
252
70
192
10
6.000000
20
44.600000
30
18.473950
0
VERTEX
8
0
6
CONTINUOUS
62
252
70
128
10
0.000000
20
0.000000
30
0.000000
71
1
72
2
73
4
0
VERTEX
8
0
6
CONTINUOUS
62
252
70
128
10
0.000000
20
0.000000
30
0.000000
71
4
72
2
73
3
0
SEQEND
0
POLYLINE
66
1
8
0
6
CONTINUOUS
62
252
70
64
75
0
10
0.000000
20
0.000000
30
0.000000
0
VERTEX
8
0
6
CONTINUOUS
62
252
70
192
10
14.000000
20
-28.000000
30
-34.678867
0
VERTEX
8
0
6
CONTINUOUS
62
252
70
192
10
14.000000
20
-18.358233
30
-44.320634
0
VERTEX
8
0
6
CONTINUOUS
62
252
70
192
10
61.000000
20
-17.678394
30
-42.679358
0
VERTEX
8
0
6
CONTINUOUS
62
252
70
192
10
61.000000
20
-42.679358
30
-17.678394
0
VERTEX
8
0
6
CONTINUOUS
62
252
70
192
10
6.000000
20
-44.600000
30
-18.473950
0
VERTEX
8
0
6
CONTINUOUS
62
252
70
192
10
6.000000
20
-28.000000
30
-35.073950
0
VERTEX
8
0
6
CONTINUOUS
62
252
70
128
10
0.000000
20
0.000000
30
0.000000
71
2
72
3
73
1
0
VERTEX
8
0
6
CONTINUOUS
62
252
70
128
10
0.000000
20
0.000000
30
0.000000
71
1
72
3
73
4
0
VERTEX
8
0
6
CONTINUOUS
62
252
70
128
10
0.000000
20
0.000000
30
0.000000
71
1
72
4
73
5
0
VERTEX
8
0
6
CONTINUOUS
62
252
70
128
10
0.000000
20
0.000000
30
0.000000
71
5
72
6
73
1
0
SEQEND
0
POLYLINE
66
1
8
0
6
CONTINUOUS
62
252
70
64
75
0
10
0.000000
20
0.000000
30
0.000000
0
VERTEX
8
0
6
CONTINUOUS
62
252
70
192
10
61.000000
20
-42.679358
30
-17.678394
0
VERTEX
8
0
6
CONTINUOUS
62
252
70
192
10
61.000000
20
-42.679358
30
17.678394
0
VERTEX
8
0
6
CONTINUOUS
62
252
70
192
10
6.000000
20
-44.600000
30
18.473950
0
VERTEX
8
0
6
CONTINUOUS
62
252
70
192
10
6.000000
20
-44.600000
30
-18.473950
0
VERTEX
8
0
6
CONTINUOUS
62
252
70
128
10
0.000000
20
0.000000
30
0.000000
71
1
72
2
73
4
0
VERTEX
8
0
6
CONTINUOUS
62
252
70
128
10
0.000000
20
0.000000
30
0.000000
71
4
72
2
73
3
0
SEQEND
0
POLYLINE
66
1
8
0
6
CONTINUOUS
62
252
70
64
75
0
10
0.000000
20
0.000000
30
0.000000
0
VERTEX
8
0
6
CONTINUOUS
62
252
70
192
10
61.000000
20
-42.679358
30
17.678394
0
VERTEX
8
0
6
CONTINUOUS
62
252
70
192
10
61.000000
20
-17.678394
30
42.679358
0
VERTEX
8
0
6
CONTINUOUS
62
252
70
192
10
6.000000
20
-18.473950
30
44.600000
0
VERTEX
8
0
6
CONTINUOUS
62
252
70
192
10
6.000000
20
-44.600000
30
18.473950
0
VERTEX
8
0
6
CONTINUOUS
62
252
70
128
10
0.000000
20
0.000000
30
0.000000
71
1
72
2
73
4
0
VERTEX
8
0
6
CONTINUOUS
62
252
70
128
10
0.000000
20
0.000000
30
0.000000
71
4
72
2
73
3
0
SEQEND
0
POLYLINE
66
1
8
0
6
CONTINUOUS
62
252
70
64
75
0
10
0.000000
20
0.000000
30
0.000000
0
VERTEX
8
0
6
CONTINUOUS
62
252
70
192
10
61.000000
20
-17.678394
30
42.679358
0
VERTEX
8
0
6
CONTINUOUS
62
252
70
192
10
61.000000
20
17.678394
30
42.679358
0
VERTEX
8
0
6
CONTINUOUS
62
252
70
192
10
6.000000
20
18.473950
30
44.600000
0
VERTEX
8
0
6
CONTINUOUS
62
252
70
192
10
6.000000
20
-18.473950
30
44.600000
0
VERTEX
8
0
6
CONTINUOUS
62
252
70
128
10
0.000000
20
0.000000
30
0.000000
71
1
72
2
73
4
0
VERTEX
8
0
6
CONTINUOUS
62
252
70
128
10
0.000000
20
0.000000
30
0.000000
71
4
72
2
73
3
0
SEQEND
0
POLYLINE
66
1
8
0
6
CONTINUOUS
62
252
70
64
75
0
10
0.000000
20
0.000000
30
0.000000
0
VERTEX
8
0
6
CONTINUOUS
62
252
70
192
10
61.000000
20
0.000000
30
-4.500000
0
VERTEX
8
0
6
CONTINUOUS
62
252
70
192
10
61.000000
20
-0.781417
30
-4.431635
0
VERTEX
8
0
6
CONTINUOUS
62
252
70
192
10
61.000000
20
-1.539091
30
-4.228617
0
VERTEX
8
0
6
CONTINUOUS
62
252
70
192
10
61.000000
20
-2.250000
30
-3.897114
0
VERTEX
8
0
6
CONTINUOUS
62
252
70
192
10
61.000000
20
-2.892544
30
-3.447200
0
VERTEX
8
0
6
CONTINUOUS
62
252
70
192
10
61.000000
20
-3.447200
30
-2.892544
0
VERTEX
8
0
6
CONTINUOUS
62
252
70
192
10
61.000000
20
-3.897114
30
-2.250000
0
VERTEX
8
0
6
CONTINUOUS
62
252
70
192
10
61.000000
20
-4.228617
30
-1.539091
0
VERTEX
8
0
6
CONTINUOUS
62
252
70
192
10
61.000000
20
-4.431635
30
-0.781417
0
VERTEX
8
0
6
CONTINUOUS
62
252
70
192
10
61.000000
20
-4.500000
30
0.000000
0
VERTEX
8
0
6
CONTINUOUS
62
252
70
192
10
61.000000
20
-4.431635
30
0.781417
0
VERTEX
8
0
6
CONTINUOUS
62
252
70
192
10
61.000000
20
-4.228617
30
1.539091
0
VERTEX
8
0
6
CONTINUOUS
62
252
70
192
10
61.000000
20
-3.897114
30
2.250000
0
VERTEX
8
0
6
CONTINUOUS
62
252
70
192
10
61.000000
20
-3.447200
30
2.892544
0
VERTEX
8
0
6
CONTINUOUS
62
252
70
192
10
61.000000
20
-2.892544
30
3.447200
0
VERTEX
8
0
6
CONTINUOUS
62
252
70
192
10
61.000000
20
-2.250000
30
3.897114
0
VERTEX
8
0
6
CONTINUOUS
62
252
70
192
10
61.000000
20
-1.539091
30
4.228617
0
VERTEX
8
0
6
CONTINUOUS
62
252
70
192
10
61.000000
20
-0.781417
30
4.431635
0
VERTEX
8
0
6
CONTINUOUS
62
252
70
192
10
61.000000
20
-0.000000
30
4.500000
0
VERTEX
8
0
6
CONTINUOUS
62
252
70
192
10
61.000000
20
0.781417
30
4.431635
0
VERTEX
8
0
6
CONTINUOUS
62
252
70
192
10
61.000000
20
1.539091
30
4.228617
0
VERTEX
8
0
6
CONTINUOUS
62
252
70
192
10
61.000000
20
2.250000
30
3.897114
0
VERTEX
8
0
6
CONTINUOUS
62
252
70
192
10
61.000000
20
2.892544
30
3.447200
0
VERTEX
8
0
6
CONTINUOUS
62
252
70
192
10
61.000000
20
3.447200
30
2.892544
0
VERTEX
8
0
6
CONTINUOUS
62
252
70
192
10
61.000000
20
3.897114
30
2.250000
0
VERTEX
8
0
6
CONTINUOUS
62
252
70
192
10
61.000000
20
4.228617
30
1.539091
0
VERTEX
8
0
6
CONTINUOUS
62
252
70
192
10
61.000000
20
4.431635
30
0.781417
0
VERTEX
8
0
6
CONTINUOUS
62
252
70
192
10
61.000000
20
4.500000
30
0.000000
0
VERTEX
8
0
6
CONTINUOUS
62
252
70
192
10
61.000000
20
4.431635
30
-0.781417
0
VERTEX
8
0
6
CONTINUOUS
62
252
70
192
10
61.000000
20
4.228617
30
-1.539091
0
VERTEX
8
0
6
CONTINUOUS
62
252
70
192
10
61.000000
20
3.897114
30
-2.250000
0
VERTEX
8
0
6
CONTINUOUS
62
252
70
192
10
61.000000
20
3.447200
30
-2.892544
0
VERTEX
8
0
6
CONTINUOUS
62
252
70
192
10
61.000000
20
2.892544
30
-3.447200
0
VERTEX
8
0
6
CONTINUOUS
62
252
70
192
10
61.000000
20
2.250000
30
-3.897114
0
VERTEX
8
0
6
CONTINUOUS
62
252
70
192
10
61.000000
20
1.539091
30
-4.228617
0
VERTEX
8
0
6
CONTINUOUS
62
252
70
192
10
61.000000
20
0.781417
30
-4.431635
0
VERTEX
8
0
6
CONTINUOUS
62
252
70
192
10
61.000000
20
42.679358
30
17.678394
0
VERTEX
8
0
6
CONTINUOUS
62
252
70
192
10
61.000000
20
17.678394
30
42.679358
0
VERTEX
8
0
6
CONTINUOUS
62
252
70
192
10
61.000000
20
-17.678394
30
42.679358
0
VERTEX
8
0
6
CONTINUOUS
62
252
70
192
10
61.000000
20
-42.679358
30
17.678394
0
VERTEX
8
0
6
CONTINUOUS
62
252
70
192
10
61.000000
20
-42.679358
30
-17.678394
0
VERTEX
8
0
6
CONTINUOUS
62
252
70
192
10
61.000000
20
-17.678394
30
-42.679358
0
VERTEX
8
0
6
CONTINUOUS
62
252
70
192
10
61.000000
20
17.678394
30
-42.679358
0
VERTEX
8
0
6
CONTINUOUS
62
252
70
192
10
61.000000
20
42.679358
30
-17.678394
0
VERTEX
8
0
6
CONTINUOUS
62
252
70
128
10
0.000000
20
0.000000
30
0.000000
71
2
72
42
73
1
0
VERTEX
8
0
6
CONTINUOUS
62
252
70
128
10
0.000000
20
0.000000
30
0.000000
71
1
72
42
73
43
0
VERTEX
8
0
6
CONTINUOUS
62
252
70
128
10
0.000000
20
0.000000
30
0.000000
71
1
72
43
73
36
0
VERTEX
8
0
6
CONTINUOUS
62
252
70
128
10
0.000000
20
0.000000
30
0.000000
71
36
72
43
73
35
0
VERTEX
8
0
6
CONTINUOUS
62
252
70
128
10
0.000000
20
0.000000
30
0.000000
71
35
72
43
73
34
0
VERTEX
8
0
6
CONTINUOUS
62
252
70
128
10
0.000000
20
0.000000
30
0.000000
71
34
72
43
73
33
0
VERTEX
8
0
6
CONTINUOUS
62
252
70
128
10
0.000000
20
0.000000
30
0.000000
71
33
72
43
73
44
0
VERTEX
8
0
6
CONTINUOUS
62
252
70
128
10
0.000000
20
0.000000
30
0.000000
71
33
72
44
73
32
0
VERTEX
8
0
6
CONTINUOUS
62
252
70
128
10
0.000000
20
0.000000
30
0.000000
71
32
72
44
73
31
0
VERTEX
8
0
6
CONTINUOUS
62
252
70
128
10
0.000000
20
0.000000
30
0.000000
71
31
72
44
73
30
0
VERTEX
8
0
6
CONTINUOUS
62
252
70
128
10
0.000000
20
0.000000
30
0.000000
71
30
72
44
73
29
0
VERTEX
8
0
6
CONTINUOUS
62
252
70
128
10
0.000000
20
0.000000
30
0.000000
71
29
72
44
73
28
0
VERTEX
8
0
6
CONTINUOUS
62
252
70
128
10
0.000000
20
0.000000
30
0.000000
71
28
72
44
73
37
0
VERTEX
8
0
6
CONTINUOUS
62
252
70
128
10
0.000000
20
0.000000
30
0.000000
71
28
72
37
73
27
0
VERTEX
8
0
6
CONTINUOUS
62
252
70
128
10
0.000000
20
0.000000
30
0.000000
71
27
72
37
73
26
0
VERTEX
8
0
6
CONTINUOUS
62
252
70
128
10
0.000000
20
0.000000
30
0.000000
71
26
72
37
73
25
0
VERTEX
8
0
6
CONTINUOUS
62
252
70
128
10
0.000000
20
0.000000
30
0.000000
71
25
72
37
73
24
0
VERTEX
8
0
6
CONTINUOUS
62
252
70
128
10
0.000000
20
0.000000
30
0.000000
71
24
72
37
73
38
0
VERTEX
8
0
6
CONTINUOUS
62
252
70
128
10
0.000000
20
0.000000
30
0.000000
71
24
72
38
73
23
0
VERTEX
8
0
6
CONTINUOUS
62
252
70
128
10
0.000000
20
0.000000
30
0.000000
71
23
72
38
73
22
0
VERTEX
8
0
6
CONTINUOUS
62
252
70
128
10
0.000000
20
0.000000
30
0.000000
71
22
72
38
73
21
0
VERTEX
8
0
6
CONTINUOUS
62
252
70
128
10
0.000000
20
0.000000
30
0.000000
71
21
72
38
73
20
0
VERTEX
8
0
6
CONTINUOUS
62
252
70
128
10
0.000000
20
0.000000
30
0.000000
71
20
72
38
73
19
0
VERTEX
8
0
6
CONTINUOUS
62
252
70
128
10
0.000000
20
0.000000
30
0.000000
71
19
72
38
73
39
0
VERTEX
8
0
6
CONTINUOUS
62
252
70
128
10
0.000000
20
0.000000
30
0.000000
71
19
72
39
73
18
0
VERTEX
8
0
6
CONTINUOUS
62
252
70
128
10
0.000000
20
0.000000
30
0.000000
71
18
72
39
73
17
0
VERTEX
8
0
6
CONTINUOUS
62
252
70
128
10
0.000000
20
0.000000
30
0.000000
71
17
72
39
73
16
0
VERTEX
8
0
6
CONTINUOUS
62
252
70
128
10
0.000000
20
0.000000
30
0.000000
71
16
72
39
73
15
0
VERTEX
8
0
6
CONTINUOUS
62
252
70
128
10
0.000000
20
0.000000
30
0.000000
71
15
72
39
73
40
0
VERTEX
8
0
6
CONTINUOUS
62
252
70
128
10
0.000000
20
0.000000
30
0.000000
71
15
72
40
73
14
0
VERTEX
8
0
6
CONTINUOUS
62
252
70
128
10
0.000000
20
0.000000
30
0.000000
71
14
72
40
73
13
0
VERTEX
8
0
6
CONTINUOUS
62
252
70
128
10
0.000000
20
0.000000
30
0.000000
71
13
72
40
73
12
0
VERTEX
8
0
6
CONTINUOUS
62
252
70
128
10
0.000000
20
0.000000
30
0.000000
71
12
72
40
73
11
0
VERTEX
8
0
6
CONTINUOUS
62
252
70
128
10
0.000000
20
0.000000
30
0.000000
71
11
72
40
73
10
0
VERTEX
8
0
6
CONTINUOUS
62
252
70
128
10
0.000000
20
0.000000
30
0.000000
71
10
72
40
73
41
0
VERTEX
8
0
6
CONTINUOUS
62
252
70
128
10
0.000000
20
0.000000
30
0.000000
71
10
72
41
73
9
0
VERTEX
8
0
6
CONTINUOUS
62
252
70
128
10
0.000000
20
0.000000
30
0.000000
71
9
72
41
73
8
0
VERTEX
8
0
6
CONTINUOUS
62
252
70
128
10
0.000000
20
0.000000
30
0.000000
71
8
72
41
73
7
0
VERTEX
8
0
6
CONTINUOUS
62
252
70
128
10
0.000000
20
0.000000
30
0.000000
71
7
72
41
73
6
0
VERTEX
8
0
6
CONTINUOUS
62
252
70
128
10
0.000000
20
0.000000
30
0.000000
71
6
72
41
73
42
0
VERTEX
8
0
6
CONTINUOUS
62
252
70
128
10
0.000000
20
0.000000
30
0.000000
71
6
72
42
73
5
0
VERTEX
8
0
6
CONTINUOUS
62
252
70
128
10
0.000000
20
0.000000
30
0.000000
71
5
72
42
73
4
0
VERTEX
8
0
6
CONTINUOUS
62
252
70
128
10
0.000000
20
0.000000
30
0.000000
71
4
72
42
73
3
0
VERTEX
8
0
6
CONTINUOUS
62
252
70
128
10
0.000000
20
0.000000
30
0.000000
71
3
72
42
73
2
0
SEQEND
0
POLYLINE
66
1
8
0
6
CONTINUOUS
62
252
70
64
75
0
10
0.000000
20
0.000000
30
0.000000
0
VERTEX
8
0
6
CONTINUOUS
62
252
70
192
10
1.200000
20
-44.600000
30
37.600000
0
VERTEX
8
0
6
CONTINUOUS
62
252
70
192
10
1.200000
20
-44.493654
30
38.815537
0
VERTEX
8
0
6
CONTINUOUS
62
252
70
192
10
1.200000
20
-44.177848
30
39.994141
0
VERTEX
8
0
6
CONTINUOUS
62
252
70
192
10
1.200000
20
-43.662178
30
41.100000
0
VERTEX
8
0
6
CONTINUOUS
62
252
70
192
10
1.200000
20
-42.962311
30
42.099513
0
VERTEX
8
0
6
CONTINUOUS
62
252
70
192
10
1.200000
20
-42.099513
30
42.962311
0
VERTEX
8
0
6
CONTINUOUS
62
252
70
192
10
1.200000
20
-41.100000
30
43.662178
0
VERTEX
8
0
6
CONTINUOUS
62
252
70
192
10
1.200000
20
-39.994141
30
44.177848
0
VERTEX
8
0
6
CONTINUOUS
62
252
70
192
10
1.200000
20
-38.815537
30
44.493654
0
VERTEX
8
0
6
CONTINUOUS
62
252
70
192
10
1.200000
20
-37.600000
30
44.600000
0
VERTEX
8
0
6
CONTINUOUS
62
252
70
192
10
-0.000000
20
-37.600000
30
44.600000
0
VERTEX
8
0
6
CONTINUOUS
62
252
70
192
10
-0.000000
20
-38.815537
30
44.493654
0
VERTEX
8
0
6
CONTINUOUS
62
252
70
192
10
-0.000000
20
-39.994141
30
44.177848
0
VERTEX
8
0
6
CONTINUOUS
62
252
70
192
10
-0.000000
20
-41.100000
30
43.662178
0
VERTEX
8
0
6
CONTINUOUS
62
252
70
192
10
-0.000000
20
-42.099513
30
42.962311
0
VERTEX
8
0
6
CONTINUOUS
62
252
70
192
10
-0.000000
20
-42.962311
30
42.099513
0
VERTEX
8
0
6
CONTINUOUS
62
252
70
192
10
-0.000000
20
-43.662178
30
41.100000
0
VERTEX
8
0
6
CONTINUOUS
62
252
70
192
10
-0.000000
20
-44.177848
30
39.994141
0
VERTEX
8
0
6
CONTINUOUS
62
252
70
192
10
-0.000000
20
-44.493654
30
38.815537
0
VERTEX
8
0
6
CONTINUOUS
62
252
70
192
10
-0.000000
20
-44.600000
30
37.600000
0
VERTEX
8
0
6
CONTINUOUS
62
252
70
128
10
0.000000
20
0.000000
30
0.000000
71
20
72
1
73
19
0
VERTEX
8
0
6
CONTINUOUS
62
252
70
128
10
0.000000
20
0.000000
30
0.000000
71
19
72
1
73
2
0
VERTEX
8
0
6
CONTINUOUS
62
252
70
128
10
0.000000
20
0.000000
30
0.000000
71
19
72
2
73
18
0
VERTEX
8
0
6
CONTINUOUS
62
252
70
128
10
0.000000
20
0.000000
30
0.000000
71
18
72
2
73
3
0
VERTEX
8
0
6
CONTINUOUS
62
252
70
128
10
0.000000
20
0.000000
30
0.000000
71
18
72
3
73
17
0
VERTEX
8
0
6
CONTINUOUS
62
252
70
128
10
0.000000
20
0.000000
30
0.000000
71
17
72
3
73
4
0
VERTEX
8
0
6
CONTINUOUS
62
252
70
128
10
0.000000
20
0.000000
30
0.000000
71
17
72
4
73
16
0
VERTEX
8
0
6
CONTINUOUS
62
252
70
128
10
0.000000
20
0.000000
30
0.000000
71
16
72
4
73
5
0
VERTEX
8
0
6
CONTINUOUS
62
252
70
128
10
0.000000
20
0.000000
30
0.000000
71
16
72
5
73
15
0
VERTEX
8
0
6
CONTINUOUS
62
252
70
128
10
0.000000
20
0.000000
30
0.000000
71
15
72
5
73
6
0
VERTEX
8
0
6
CONTINUOUS
62
252
70
128
10
0.000000
20
0.000000
30
0.000000
71
15
72
6
73
14
0
VERTEX
8
0
6
CONTINUOUS
62
252
70
128
10
0.000000
20
0.000000
30
0.000000
71
14
72
6
73
7
0
VERTEX
8
0
6
CONTINUOUS
62
252
70
128
10
0.000000
20
0.000000
30
0.000000
71
14
72
7
73
13
0
VERTEX
8
0
6
CONTINUOUS
62
252
70
128
10
0.000000
20
0.000000
30
0.000000
71
13
72
7
73
8
0
VERTEX
8
0
6
CONTINUOUS
62
252
70
128
10
0.000000
20
0.000000
30
0.000000
71
13
72
8
73
12
0
VERTEX
8
0
6
CONTINUOUS
62
252
70
128
10
0.000000
20
0.000000
30
0.000000
71
12
72
8
73
9
0
VERTEX
8
0
6
CONTINUOUS
62
252
70
128
10
0.000000
20
0.000000
30
0.000000
71
12
72
9
73
11
0
VERTEX
8
0
6
CONTINUOUS
62
252
70
128
10
0.000000
20
0.000000
30
0.000000
71
11
72
9
73
10
0
SEQEND
0
POLYLINE
66
1
8
0
6
CONTINUOUS
62
252
70
64
75
0
10
0.000000
20
0.000000
30
0.000000
0
VERTEX
8
0
6
CONTINUOUS
62
252
70
192
10
1.200000
20
-35.407612
30
44.600000
0
VERTEX
8
0
6
CONTINUOUS
62
252
70
192
10
6.000000
20
-35.407612
30
44.600000
0
VERTEX
8
0
6
CONTINUOUS
62
252
70
192
10
6.000000
20
-18.473950
30
44.600000
0
VERTEX
8
0
6
CONTINUOUS
62
252
70
192
10
6.000000
20
18.473950
30
44.600000
0
VERTEX
8
0
6
CONTINUOUS
62
252
70
192
10
6.000000
20
35.407612
30
44.600000
0
VERTEX
8
0
6
CONTINUOUS
62
252
70
192
10
1.200000
20
35.407612
30
44.600000
0
VERTEX
8
0
6
CONTINUOUS
62
252
70
192
10
1.200000
20
37.600000
30
44.600000
0
VERTEX
8
0
6
CONTINUOUS
62
252
70
192
10
-0.000000
20
37.600000
30
44.600000
0
VERTEX
8
0
6
CONTINUOUS
62
252
70
192
10
-0.000000
20
-37.600000
30
44.600000
0
VERTEX
8
0
6
CONTINUOUS
62
252
70
192
10
1.200000
20
-37.600000
30
44.600000
0
VERTEX
8
0
6
CONTINUOUS
62
252
70
128
10
0.000000
20
0.000000
30
0.000000
71
2
72
3
73
1
0
VERTEX
8
0
6
CONTINUOUS
62
252
70
128
10
0.000000
20
0.000000
30
0.000000
71
1
72
3
73
4
0
VERTEX
8
0
6
CONTINUOUS
62
252
70
128
10
0.000000
20
0.000000
30
0.000000
71
1
72
4
73
6
0
VERTEX
8
0
6
CONTINUOUS
62
252
70
128
10
0.000000
20
0.000000
30
0.000000
71
6
72
4
73
5
0
VERTEX
8
0
6
CONTINUOUS
62
252
70
128
10
0.000000
20
0.000000
30
0.000000
71
7
72
8
73
6
0
VERTEX
8
0
6
CONTINUOUS
62
252
70
128
10
0.000000
20
0.000000
30
0.000000
71
6
72
8
73
1
0
VERTEX
8
0
6
CONTINUOUS
62
252
70
128
10
0.000000
20
0.000000
30
0.000000
71
8
72
9
73
1
0
VERTEX
8
0
6
CONTINUOUS
62
252
70
128
10
0.000000
20
0.000000
30
0.000000
71
1
72
9
73
10
0
SEQEND
0
POLYLINE
66
1
8
0
6
CONTINUOUS
62
252
70
64
75
0
10
0.000000
20
0.000000
30
0.000000
0
VERTEX
8
0
6
CONTINUOUS
62
252
70
192
10
1.200000
20
37.600000
30
44.600000
0
VERTEX
8
0
6
CONTINUOUS
62
252
70
192
10
1.200000
20
38.815537
30
44.493654
0
VERTEX
8
0
6
CONTINUOUS
62
252
70
192
10
1.200000
20
39.994141
30
44.177848
0
VERTEX
8
0
6
CONTINUOUS
62
252
70
192
10
1.200000
20
41.100000
30
43.662178
0
VERTEX
8
0
6
CONTINUOUS
62
252
70
192
10
1.200000
20
42.099513
30
42.962311
0
VERTEX
8
0
6
CONTINUOUS
62
252
70
192
10
1.200000
20
42.962311
30
42.099513
0
VERTEX
8
0
6
CONTINUOUS
62
252
70
192
10
1.200000
20
43.662178
30
41.100000
0
VERTEX
8
0
6
CONTINUOUS
62
252
70
192
10
1.200000
20
44.177848
30
39.994141
0
VERTEX
8
0
6
CONTINUOUS
62
252
70
192
10
1.200000
20
44.493654
30
38.815537
0
VERTEX
8
0
6
CONTINUOUS
62
252
70
192
10
1.200000
20
44.600000
30
37.600000
0
VERTEX
8
0
6
CONTINUOUS
62
252
70
192
10
-0.000000
20
44.600000
30
37.600000
0
VERTEX
8
0
6
CONTINUOUS
62
252
70
192
10
-0.000000
20
44.493654
30
38.815537
0
VERTEX
8
0
6
CONTINUOUS
62
252
70
192
10
-0.000000
20
44.177848
30
39.994141
0
VERTEX
8
0
6
CONTINUOUS
62
252
70
192
10
-0.000000
20
43.662178
30
41.100000
0
VERTEX
8
0
6
CONTINUOUS
62
252
70
192
10
-0.000000
20
42.962311
30
42.099513
0
VERTEX
8
0
6
CONTINUOUS
62
252
70
192
10
-0.000000
20
42.099513
30
42.962311
0
VERTEX
8
0
6
CONTINUOUS
62
252
70
192
10
-0.000000
20
41.100000
30
43.662178
0
VERTEX
8
0
6
CONTINUOUS
62
252
70
192
10
-0.000000
20
39.994141
30
44.177848
0
VERTEX
8
0
6
CONTINUOUS
62
252
70
192
10
-0.000000
20
38.815537
30
44.493654
0
VERTEX
8
0
6
CONTINUOUS
62
252
70
192
10
-0.000000
20
37.600000
30
44.600000
0
VERTEX
8
0
6
CONTINUOUS
62
252
70
128
10
0.000000
20
0.000000
30
0.000000
71
20
72
1
73
19
0
VERTEX
8
0
6
CONTINUOUS
62
252
70
128
10
0.000000
20
0.000000
30
0.000000
71
19
72
1
73
2
0
VERTEX
8
0
6
CONTINUOUS
62
252
70
128
10
0.000000
20
0.000000
30
0.000000
71
19
72
2
73
18
0
VERTEX
8
0
6
CONTINUOUS
62
252
70
128
10
0.000000
20
0.000000
30
0.000000
71
18
72
2
73
3
0
VERTEX
8
0
6
CONTINUOUS
62
252
70
128
10
0.000000
20
0.000000
30
0.000000
71
18
72
3
73
17
0
VERTEX
8
0
6
CONTINUOUS
62
252
70
128
10
0.000000
20
0.000000
30
0.000000
71
17
72
3
73
4
0
VERTEX
8
0
6
CONTINUOUS
62
252
70
128
10
0.000000
20
0.000000
30
0.000000
71
17
72
4
73
16
0
VERTEX
8
0
6
CONTINUOUS
62
252
70
128
10
0.000000
20
0.000000
30
0.000000
71
16
72
4
73
5
0
VERTEX
8
0
6
CONTINUOUS
62
252
70
128
10
0.000000
20
0.000000
30
0.000000
71
16
72
5
73
15
0
VERTEX
8
0
6
CONTINUOUS
62
252
70
128
10
0.000000
20
0.000000
30
0.000000
71
15
72
5
73
6
0
VERTEX
8
0
6
CONTINUOUS
62
252
70
128
10
0.000000
20
0.000000
30
0.000000
71
15
72
6
73
14
0
VERTEX
8
0
6
CONTINUOUS
62
252
70
128
10
0.000000
20
0.000000
30
0.000000
71
14
72
6
73
7
0
VERTEX
8
0
6
CONTINUOUS
62
252
70
128
10
0.000000
20
0.000000
30
0.000000
71
14
72
7
73
13
0
VERTEX
8
0
6
CONTINUOUS
62
252
70
128
10
0.000000
20
0.000000
30
0.000000
71
13
72
7
73
8
0
VERTEX
8
0
6
CONTINUOUS
62
252
70
128
10
0.000000
20
0.000000
30
0.000000
71
13
72
8
73
12
0
VERTEX
8
0
6
CONTINUOUS
62
252
70
128
10
0.000000
20
0.000000
30
0.000000
71
12
72
8
73
9
0
VERTEX
8
0
6
CONTINUOUS
62
252
70
128
10
0.000000
20
0.000000
30
0.000000
71
12
72
9
73
11
0
VERTEX
8
0
6
CONTINUOUS
62
252
70
128
10
0.000000
20
0.000000
30
0.000000
71
11
72
9
73
10
0
SEQEND
0
POLYLINE
66
1
8
0
6
CONTINUOUS
62
252
70
64
75
0
10
0.000000
20
0.000000
30
0.000000
0
VERTEX
8
0
6
CONTINUOUS
62
252
70
192
10
1.200000
20
44.600000
30
-37.600000
0
VERTEX
8
0
6
CONTINUOUS
62
252
70
192
10
1.200000
20
44.493654
30
-38.815537
0
VERTEX
8
0
6
CONTINUOUS
62
252
70
192
10
1.200000
20
44.177848
30
-39.994141
0
VERTEX
8
0
6
CONTINUOUS
62
252
70
192
10
1.200000
20
43.662178
30
-41.100000
0
VERTEX
8
0
6
CONTINUOUS
62
252
70
192
10
1.200000
20
42.962311
30
-42.099513
0
VERTEX
8
0
6
CONTINUOUS
62
252
70
192
10
1.200000
20
42.099513
30
-42.962311
0
VERTEX
8
0
6
CONTINUOUS
62
252
70
192
10
1.200000
20
41.100000
30
-43.662178
0
VERTEX
8
0
6
CONTINUOUS
62
252
70
192
10
1.200000
20
39.994141
30
-44.177848
0
VERTEX
8
0
6
CONTINUOUS
62
252
70
192
10
1.200000
20
38.815537
30
-44.493654
0
VERTEX
8
0
6
CONTINUOUS
62
252
70
192
10
1.200000
20
37.600000
30
-44.600000
0
VERTEX
8
0
6
CONTINUOUS
62
252
70
192
10
0.000000
20
37.600000
30
-44.600000
0
VERTEX
8
0
6
CONTINUOUS
62
252
70
192
10
0.000000
20
38.815537
30
-44.493654
0
VERTEX
8
0
6
CONTINUOUS
62
252
70
192
10
0.000000
20
39.994141
30
-44.177848
0
VERTEX
8
0
6
CONTINUOUS
62
252
70
192
10
0.000000
20
41.100000
30
-43.662178
0
VERTEX
8
0
6
CONTINUOUS
62
252
70
192
10
0.000000
20
42.099513
30
-42.962311
0
VERTEX
8
0
6
CONTINUOUS
62
252
70
192
10
0.000000
20
42.962311
30
-42.099513
0
VERTEX
8
0
6
CONTINUOUS
62
252
70
192
10
0.000000
20
43.662178
30
-41.100000
0
VERTEX
8
0
6
CONTINUOUS
62
252
70
192
10
0.000000
20
44.177848
30
-39.994141
0
VERTEX
8
0
6
CONTINUOUS
62
252
70
192
10
0.000000
20
44.493654
30
-38.815537
0
VERTEX
8
0
6
CONTINUOUS
62
252
70
192
10
0.000000
20
44.600000
30
-37.600000
0
VERTEX
8
0
6
CONTINUOUS
62
252
70
128
10
0.000000
20
0.000000
30
0.000000
71
20
72
1
73
19
0
VERTEX
8
0
6
CONTINUOUS
62
252
70
128
10
0.000000
20
0.000000
30
0.000000
71
19
72
1
73
2
0
VERTEX
8
0
6
CONTINUOUS
62
252
70
128
10
0.000000
20
0.000000
30
0.000000
71
19
72
2
73
18
0
VERTEX
8
0
6
CONTINUOUS
62
252
70
128
10
0.000000
20
0.000000
30
0.000000
71
18
72
2
73
3
0
VERTEX
8
0
6
CONTINUOUS
62
252
70
128
10
0.000000
20
0.000000
30
0.000000
71
18
72
3
73
17
0
VERTEX
8
0
6
CONTINUOUS
62
252
70
128
10
0.000000
20
0.000000
30
0.000000
71
17
72
3
73
4
0
VERTEX
8
0
6
CONTINUOUS
62
252
70
128
10
0.000000
20
0.000000
30
0.000000
71
17
72
4
73
16
0
VERTEX
8
0
6
CONTINUOUS
62
252
70
128
10
0.000000
20
0.000000
30
0.000000
71
16
72
4
73
5
0
VERTEX
8
0
6
CONTINUOUS
62
252
70
128
10
0.000000
20
0.000000
30
0.000000
71
16
72
5
73
15
0
VERTEX
8
0
6
CONTINUOUS
62
252
70
128
10
0.000000
20
0.000000
30
0.000000
71
15
72
5
73
6
0
VERTEX
8
0
6
CONTINUOUS
62
252
70
128
10
0.000000
20
0.000000
30
0.000000
71
15
72
6
73
14
0
VERTEX
8
0
6
CONTINUOUS
62
252
70
128
10
0.000000
20
0.000000
30
0.000000
71
14
72
6
73
7
0
VERTEX
8
0
6
CONTINUOUS
62
252
70
128
10
0.000000
20
0.000000
30
0.000000
71
14
72
7
73
13
0
VERTEX
8
0
6
CONTINUOUS
62
252
70
128
10
0.000000
20
0.000000
30
0.000000
71
13
72
7
73
8
0
VERTEX
8
0
6
CONTINUOUS
62
252
70
128
10
0.000000
20
0.000000
30
0.000000
71
13
72
8
73
12
0
VERTEX
8
0
6
CONTINUOUS
62
252
70
128
10
0.000000
20
0.000000
30
0.000000
71
12
72
8
73
9
0
VERTEX
8
0
6
CONTINUOUS
62
252
70
128
10
0.000000
20
0.000000
30
0.000000
71
12
72
9
73
11
0
VERTEX
8
0
6
CONTINUOUS
62
252
70
128
10
0.000000
20
0.000000
30
0.000000
71
11
72
9
73
10
0
SEQEND
0
POLYLINE
66
1
8
0
6
CONTINUOUS
62
252
70
64
75
0
10
0.000000
20
0.000000
30
0.000000
0
VERTEX
8
0
6
CONTINUOUS
62
252
70
192
10
1.200000
20
-37.600000
30
-44.600000
0
VERTEX
8
0
6
CONTINUOUS
62
252
70
192
10
1.200000
20
-38.815537
30
-44.493654
0
VERTEX
8
0
6
CONTINUOUS
62
252
70
192
10
1.200000
20
-39.994141
30
-44.177848
0
VERTEX
8
0
6
CONTINUOUS
62
252
70
192
10
1.200000
20
-41.100000
30
-43.662178
0
VERTEX
8
0
6
CONTINUOUS
62
252
70
192
10
1.200000
20
-42.099513
30
-42.962311
0
VERTEX
8
0
6
CONTINUOUS
62
252
70
192
10
1.200000
20
-42.962311
30
-42.099513
0
VERTEX
8
0
6
CONTINUOUS
62
252
70
192
10
1.200000
20
-43.662178
30
-41.100000
0
VERTEX
8
0
6
CONTINUOUS
62
252
70
192
10
1.200000
20
-44.177848
30
-39.994141
0
VERTEX
8
0
6
CONTINUOUS
62
252
70
192
10
1.200000
20
-44.493654
30
-38.815537
0
VERTEX
8
0
6
CONTINUOUS
62
252
70
192
10
1.200000
20
-44.600000
30
-37.600000
0
VERTEX
8
0
6
CONTINUOUS
62
252
70
192
10
0.000000
20
-44.600000
30
-37.600000
0
VERTEX
8
0
6
CONTINUOUS
62
252
70
192
10
0.000000
20
-44.493654
30
-38.815537
0
VERTEX
8
0
6
CONTINUOUS
62
252
70
192
10
0.000000
20
-44.177848
30
-39.994141
0
VERTEX
8
0
6
CONTINUOUS
62
252
70
192
10
0.000000
20
-43.662178
30
-41.100000
0
VERTEX
8
0
6
CONTINUOUS
62
252
70
192
10
0.000000
20
-42.962311
30
-42.099513
0
VERTEX
8
0
6
CONTINUOUS
62
252
70
192
10
0.000000
20
-42.099513
30
-42.962311
0
VERTEX
8
0
6
CONTINUOUS
62
252
70
192
10
0.000000
20
-41.100000
30
-43.662178
0
VERTEX
8
0
6
CONTINUOUS
62
252
70
192
10
0.000000
20
-39.994141
30
-44.177848
0
VERTEX
8
0
6
CONTINUOUS
62
252
70
192
10
0.000000
20
-38.815537
30
-44.493654
0
VERTEX
8
0
6
CONTINUOUS
62
252
70
192
10
0.000000
20
-37.600000
30
-44.600000
0
VERTEX
8
0
6
CONTINUOUS
62
252
70
128
10
0.000000
20
0.000000
30
0.000000
71
20
72
1
73
19
0
VERTEX
8
0
6
CONTINUOUS
62
252
70
128
10
0.000000
20
0.000000
30
0.000000
71
19
72
1
73
2
0
VERTEX
8
0
6
CONTINUOUS
62
252
70
128
10
0.000000
20
0.000000
30
0.000000
71
19
72
2
73
18
0
VERTEX
8
0
6
CONTINUOUS
62
252
70
128
10
0.000000
20
0.000000
30
0.000000
71
18
72
2
73
3
0
VERTEX
8
0
6
CONTINUOUS
62
252
70
128
10
0.000000
20
0.000000
30
0.000000
71
18
72
3
73
17
0
VERTEX
8
0
6
CONTINUOUS
62
252
70
128
10
0.000000
20
0.000000
30
0.000000
71
17
72
3
73
4
0
VERTEX
8
0
6
CONTINUOUS
62
252
70
128
10
0.000000
20
0.000000
30
0.000000
71
17
72
4
73
16
0
VERTEX
8
0
6
CONTINUOUS
62
252
70
128
10
0.000000
20
0.000000
30
0.000000
71
16
72
4
73
5
0
VERTEX
8
0
6
CONTINUOUS
62
252
70
128
10
0.000000
20
0.000000
30
0.000000
71
16
72
5
73
15
0
VERTEX
8
0
6
CONTINUOUS
62
252
70
128
10
0.000000
20
0.000000
30
0.000000
71
15
72
5
73
6
0
VERTEX
8
0
6
CONTINUOUS
62
252
70
128
10
0.000000
20
0.000000
30
0.000000
71
15
72
6
73
14
0
VERTEX
8
0
6
CONTINUOUS
62
252
70
128
10
0.000000
20
0.000000
30
0.000000
71
14
72
6
73
7
0
VERTEX
8
0
6
CONTINUOUS
62
252
70
128
10
0.000000
20
0.000000
30
0.000000
71
14
72
7
73
13
0
VERTEX
8
0
6
CONTINUOUS
62
252
70
128
10
0.000000
20
0.000000
30
0.000000
71
13
72
7
73
8
0
VERTEX
8
0
6
CONTINUOUS
62
252
70
128
10
0.000000
20
0.000000
30
0.000000
71
13
72
8
73
12
0
VERTEX
8
0
6
CONTINUOUS
62
252
70
128
10
0.000000
20
0.000000
30
0.000000
71
12
72
8
73
9
0
VERTEX
8
0
6
CONTINUOUS
62
252
70
128
10
0.000000
20
0.000000
30
0.000000
71
12
72
9
73
11
0
VERTEX
8
0
6
CONTINUOUS
62
252
70
128
10
0.000000
20
0.000000
30
0.000000
71
11
72
9
73
10
0
SEQEND
0
POLYLINE
66
1
8
0
6
CONTINUOUS
62
252
70
64
75
0
10
0.000000
20
0.000000
30
0.000000
0
VERTEX
8
0
6
CONTINUOUS
62
252
70
192
10
0.000000
20
-11.618492
30
-42.800000
0
VERTEX
8
0
6
CONTINUOUS
62
252
70
192
10
0.000000
20
11.618492
30
-42.800000
0
VERTEX
8
0
6
CONTINUOUS
62
252
70
192
10
0.000000
20
18.830330
30
-40.152809
0
VERTEX
8
0
6
CONTINUOUS
62
252
70
192
10
0.000000
20
25.477130
30
-36.300760
0
VERTEX
8
0
6
CONTINUOUS
62
252
70
192
10
0.000000
20
31.359443
30
-31.359443
0
VERTEX
8
0
6
CONTINUOUS
62
252
70
192
10
0.000000
20
36.300760
30
-25.477130
0
VERTEX
8
0
6
CONTINUOUS
62
252
70
192
10
0.000000
20
40.152809
30
-18.830330
0
VERTEX
8
0
6
CONTINUOUS
62
252
70
192
10
0.000000
20
42.800000
30
-11.618492
0
VERTEX
8
0
6
CONTINUOUS
62
252
70
192
10
-0.000000
20
42.800000
30
11.618492
0
VERTEX
8
0
6
CONTINUOUS
62
252
70
192
10
-0.000000
20
40.152809
30
18.830330
0
VERTEX
8
0
6
CONTINUOUS
62
252
70
192
10
-0.000000
20
36.300760
30
25.477130
0
VERTEX
8
0
6
CONTINUOUS
62
252
70
192
10
-0.000000
20
31.359443
30
31.359443
0
VERTEX
8
0
6
CONTINUOUS
62
252
70
192
10
-0.000000
20
25.477130
30
36.300760
0
VERTEX
8
0
6
CONTINUOUS
62
252
70
192
10
-0.000000
20
18.830330
30
40.152809
0
VERTEX
8
0
6
CONTINUOUS
62
252
70
192
10
-0.000000
20
11.618492
30
42.800000
0
VERTEX
8
0
6
CONTINUOUS
62
252
70
192
10
-0.000000
20
-11.618492
30
42.800000
0
VERTEX
8
0
6
CONTINUOUS
62
252
70
192
10
-0.000000
20
-18.830330
30
40.152809
0
VERTEX
8
0
6
CONTINUOUS
62
252
70
192
10
-0.000000
20
-25.477130
30
36.300760
0
VERTEX
8
0
6
CONTINUOUS
62
252
70
192
10
-0.000000
20
-31.359443
30
31.359443
0
VERTEX
8
0
6
CONTINUOUS
62
252
70
192
10
-0.000000
20
-36.300760
30
25.477130
0
VERTEX
8
0
6
CONTINUOUS
62
252
70
192
10
-0.000000
20
-40.152809
30
18.830330
0
VERTEX
8
0
6
CONTINUOUS
62
252
70
192
10
-0.000000
20
-42.800000
30
11.618492
0
VERTEX
8
0
6
CONTINUOUS
62
252
70
192
10
0.000000
20
-42.800000
30
-11.618492
0
VERTEX
8
0
6
CONTINUOUS
62
252
70
192
10
0.000000
20
-40.152809
30
-18.830330
0
VERTEX
8
0
6
CONTINUOUS
62
252
70
192
10
0.000000
20
-36.300760
30
-25.477130
0
VERTEX
8
0
6
CONTINUOUS
62
252
70
192
10
0.000000
20
-31.359443
30
-31.359443
0
VERTEX
8
0
6
CONTINUOUS
62
252
70
192
10
0.000000
20
-25.477130
30
-36.300760
0
VERTEX
8
0
6
CONTINUOUS
62
252
70
192
10
0.000000
20
-18.830330
30
-40.152809
0
VERTEX
8
0
6
CONTINUOUS
62
252
70
192
10
-0.000000
20
33.446151
30
33.446151
0
VERTEX
8
0
6
CONTINUOUS
62
252
70
192
10
-0.000000
20
34.073743
30
32.919538
0
VERTEX
8
0
6
CONTINUOUS
62
252
70
192
10
-0.000000
20
34.783247
30
32.509906
0
VERTEX
8
0
6
CONTINUOUS
62
252
70
192
10
-0.000000
20
35.553103
30
32.229701
0
VERTEX
8
0
6
CONTINUOUS
62
252
70
192
10
-0.000000
20
36.359921
30
32.087438
0
VERTEX
8
0
6
CONTINUOUS
62
252
70
192
10
-0.000000
20
37.179185
30
32.087438
0
VERTEX
8
0
6
CONTINUOUS
62
252
70
192
10
-0.000000
20
37.986002
30
32.229701
0
VERTEX
8
0
6
CONTINUOUS
62
252
70
192
10
-0.000000
20
38.755858
30
32.509906
0
VERTEX
8
0
6
CONTINUOUS
62
252
70
192
10
-0.000000
20
39.465362
30
32.919538
0
VERTEX
8
0
6
CONTINUOUS
62
252
70
192
10
-0.000000
20
40.092954
30
33.446151
0
VERTEX
8
0
6
CONTINUOUS
62
252
70
192
10
-0.000000
20
40.619567
30
34.073743
0
VERTEX
8
0
6
CONTINUOUS
62
252
70
192
10
-0.000000
20
41.029199
30
34.783247
0
VERTEX
8
0
6
CONTINUOUS
62
252
70
192
10
-0.000000
20
41.309404
30
35.553103
0
VERTEX
8
0
6
CONTINUOUS
62
252
70
192
10
-0.000000
20
41.451668
30
36.359921
0
VERTEX
8
0
6
CONTINUOUS
62
252
70
192
10
-0.000000
20
41.451668
30
37.179185
0
VERTEX
8
0
6
CONTINUOUS
62
252
70
192
10
-0.000000
20
41.309404
30
37.986002
0
VERTEX
8
0
6
CONTINUOUS
62
252
70
192
10
-0.000000
20
41.029199
30
38.755858
0
VERTEX
8
0
6
CONTINUOUS
62
252
70
192
10
-0.000000
20
40.619567
30
39.465362
0
VERTEX
8
0
6
CONTINUOUS
62
252
70
192
10
-0.000000
20
40.092954
30
40.092954
0
VERTEX
8
0
6
CONTINUOUS
62
252
70
192
10
-0.000000
20
39.465362
30
40.619567
0
VERTEX
8
0
6
CONTINUOUS
62
252
70
192
10
-0.000000
20
38.755858
30
41.029199
0
VERTEX
8
0
6
CONTINUOUS
62
252
70
192
10
-0.000000
20
37.986002
30
41.309404
0
VERTEX
8
0
6
CONTINUOUS
62
252
70
192
10
-0.000000
20
37.179185
30
41.451668
0
VERTEX
8
0
6
CONTINUOUS
62
252
70
192
10
-0.000000
20
36.359921
30
41.451668
0
VERTEX
8
0
6
CONTINUOUS
62
252
70
192
10
-0.000000
20
35.553103
30
41.309404
0
VERTEX
8
0
6
CONTINUOUS
62
252
70
192
10
-0.000000
20
34.783247
30
41.029199
0
VERTEX
8
0
6
CONTINUOUS
62
252
70
192
10
-0.000000
20
34.073743
30
40.619567
0
VERTEX
8
0
6
CONTINUOUS
62
252
70
192
10
-0.000000
20
33.446151
30
40.092954
0
VERTEX
8
0
6
CONTINUOUS
62
252
70
192
10
-0.000000
20
32.919538
30
39.465362
0
VERTEX
8
0
6
CONTINUOUS
62
252
70
192
10
-0.000000
20
32.509906
30
38.755858
0
VERTEX
8
0
6
CONTINUOUS
62
252
70
192
10
-0.000000
20
32.229701
30
37.986002
0
VERTEX
8
0
6
CONTINUOUS
62
252
70
192
10
-0.000000
20
32.087438
30
37.179185
0
VERTEX
8
0
6
CONTINUOUS
62
252
70
192
10
-0.000000
20
32.087438
30
36.359921
0
VERTEX
8
0
6
CONTINUOUS
62
252
70
192
10
-0.000000
20
32.229701
30
35.553103
0
VERTEX
8
0
6
CONTINUOUS
62
252
70
192
10
-0.000000
20
32.509906
30
34.783247
0
VERTEX
8
0
6
CONTINUOUS
62
252
70
192
10
-0.000000
20
32.919538
30
34.073743
0
VERTEX
8
0
6
CONTINUOUS
62
252
70
192
10
0.000000
20
33.446151
30
-33.446151
0
VERTEX
8
0
6
CONTINUOUS
62
252
70
192
10
0.000000
20
32.919538
30
-34.073743
0
VERTEX
8
0
6
CONTINUOUS
62
252
70
192
10
0.000000
20
32.509906
30
-34.783247
0
VERTEX
8
0
6
CONTINUOUS
62
252
70
192
10
0.000000
20
32.229701
30
-35.553103
0
VERTEX
8
0
6
CONTINUOUS
62
252
70
192
10
0.000000
20
32.087438
30
-36.359921
0
VERTEX
8
0
6
CONTINUOUS
62
252
70
192
10
0.000000
20
32.087438
30
-37.179185
0
VERTEX
8
0
6
CONTINUOUS
62
252
70
192
10
0.000000
20
32.229701
30
-37.986002
0
VERTEX
8
0
6
CONTINUOUS
62
252
70
192
10
0.000000
20
32.509906
30
-38.755858
0
VERTEX
8
0
6
CONTINUOUS
62
252
70
192
10
0.000000
20
32.919538
30
-39.465362
0
VERTEX
8
0
6
CONTINUOUS
62
252
70
192
10
0.000000
20
33.446151
30
-40.092954
0
VERTEX
8
0
6
CONTINUOUS
62
252
70
192
10
0.000000
20
34.073743
30
-40.619567
0
VERTEX
8
0
6
CONTINUOUS
62
252
70
192
10
0.000000
20
34.783247
30
-41.029199
0
VERTEX
8
0
6
CONTINUOUS
62
252
70
192
10
0.000000
20
35.553103
30
-41.309404
0
VERTEX
8
0
6
CONTINUOUS
62
252
70
192
10
0.000000
20
36.359921
30
-41.451668
0
VERTEX
8
0
6
CONTINUOUS
62
252
70
192
10
0.000000
20
37.179185
30
-41.451668
0
VERTEX
8
0
6
CONTINUOUS
62
252
70
192
10
0.000000
20
37.986002
30
-41.309404
0
VERTEX
8
0
6
CONTINUOUS
62
252
70
192
10
0.000000
20
38.755858
30
-41.029199
0
VERTEX
8
0
6
CONTINUOUS
62
252
70
192
10
0.000000
20
39.465362
30
-40.619567
0
VERTEX
8
0
6
CONTINUOUS
62
252
70
192
10
0.000000
20
40.092954
30
-40.092954
0
VERTEX
8
0
6
CONTINUOUS
62
252
70
192
10
0.000000
20
40.619567
30
-39.465362
0
VERTEX
8
0
6
CONTINUOUS
62
252
70
192
10
0.000000
20
41.029199
30
-38.755858
0
VERTEX
8
0
6
CONTINUOUS
62
252
70
192
10
0.000000
20
41.309404
30
-37.986002
0
VERTEX
8
0
6
CONTINUOUS
62
252
70
192
10
0.000000
20
41.451668
30
-37.179185
0
VERTEX
8
0
6
CONTINUOUS
62
252
70
192
10
0.000000
20
41.451668
30
-36.359921
0
VERTEX
8
0
6
CONTINUOUS
62
252
70
192
10
0.000000
20
41.309404
30
-35.553103
0
VERTEX
8
0
6
CONTINUOUS
62
252
70
192
10
0.000000
20
41.029199
30
-34.783247
0
VERTEX
8
0
6
CONTINUOUS
62
252
70
192
10
0.000000
20
40.619567
30
-34.073743
0
VERTEX
8
0
6
CONTINUOUS
62
252
70
192
10
0.000000
20
40.092954
30
-33.446151
0
VERTEX
8
0
6
CONTINUOUS
62
252
70
192
10
0.000000
20
39.465362
30
-32.919538
0
VERTEX
8
0
6
CONTINUOUS
62
252
70
192
10
0.000000
20
38.755858
30
-32.509906
0
VERTEX
8
0
6
CONTINUOUS
62
252
70
192
10
0.000000
20
37.986002
30
-32.229701
0
VERTEX
8
0
6
CONTINUOUS
62
252
70
192
10
0.000000
20
37.179185
30
-32.087438
0
VERTEX
8
0
6
CONTINUOUS
62
252
70
192
10
0.000000
20
36.359921
30
-32.087438
0
VERTEX
8
0
6
CONTINUOUS
62
252
70
192
10
0.000000
20
35.553103
30
-32.229701
0
VERTEX
8
0
6
CONTINUOUS
62
252
70
192
10
0.000000
20
34.783247
30
-32.509906
0
VERTEX
8
0
6
CONTINUOUS
62
252
70
192
10
0.000000
20
34.073743
30
-32.919538
0
VERTEX
8
0
6
CONTINUOUS
62
252
70
192
10
0.000000
20
-33.446151
30
-33.446151
0
VERTEX
8
0
6
CONTINUOUS
62
252
70
192
10
0.000000
20
-34.073743
30
-32.919538
0
VERTEX
8
0
6
CONTINUOUS
62
252
70
192
10
0.000000
20
-34.783247
30
-32.509906
0
VERTEX
8
0
6
CONTINUOUS
62
252
70
192
10
0.000000
20
-35.553103
30
-32.229701
0
VERTEX
8
0
6
CONTINUOUS
62
252
70
192
10
0.000000
20
-36.359921
30
-32.087438
0
VERTEX
8
0
6
CONTINUOUS
62
252
70
192
10
0.000000
20
-37.179185
30
-32.087438
0
VERTEX
8
0
6
CONTINUOUS
62
252
70
192
10
0.000000
20
-37.986002
30
-32.229701
0
VERTEX
8
0
6
CONTINUOUS
62
252
70
192
10
0.000000
20
-38.755858
30
-32.509906
0
VERTEX
8
0
6
CONTINUOUS
62
252
70
192
10
0.000000
20
-39.465362
30
-32.919538
0
VERTEX
8
0
6
CONTINUOUS
62
252
70
192
10
0.000000
20
-40.092954
30
-33.446151
0
VERTEX
8
0
6
CONTINUOUS
62
252
70
192
10
0.000000
20
-40.619567
30
-34.073743
0
VERTEX
8
0
6
CONTINUOUS
62
252
70
192
10
0.000000
20
-41.029199
30
-34.783247
0
VERTEX
8
0
6
CONTINUOUS
62
252
70
192
10
0.000000
20
-41.309404
30
-35.553103
0
VERTEX
8
0
6
CONTINUOUS
62
252
70
192
10
0.000000
20
-41.451668
30
-36.359921
0
VERTEX
8
0
6
CONTINUOUS
62
252
70
192
10
0.000000
20
-41.451668
30
-37.179185
0
VERTEX
8
0
6
CONTINUOUS
62
252
70
192
10
0.000000
20
-41.309404
30
-37.986002
0
VERTEX
8
0
6
CONTINUOUS
62
252
70
192
10
0.000000
20
-41.029199
30
-38.755858
0
VERTEX
8
0
6
CONTINUOUS
62
252
70
192
10
0.000000
20
-40.619567
30
-39.465362
0
VERTEX
8
0
6
CONTINUOUS
62
252
70
192
10
0.000000
20
-40.092954
30
-40.092954
0
VERTEX
8
0
6
CONTINUOUS
62
252
70
192
10
0.000000
20
-39.465362
30
-40.619567
0
VERTEX
8
0
6
CONTINUOUS
62
252
70
192
10
0.000000
20
-38.755858
30
-41.029199
0
VERTEX
8
0
6
CONTINUOUS
62
252
70
192
10
0.000000
20
-37.986002
30
-41.309404
0
VERTEX
8
0
6
CONTINUOUS
62
252
70
192
10
0.000000
20
-37.179185
30
-41.451668
0
VERTEX
8
0
6
CONTINUOUS
62
252
70
192
10
0.000000
20
-36.359921
30
-41.451668
0
VERTEX
8
0
6
CONTINUOUS
62
252
70
192
10
0.000000
20
-35.553103
30
-41.309404
0
VERTEX
8
0
6
CONTINUOUS
62
252
70
192
10
0.000000
20
-34.783247
30
-41.029199
0
VERTEX
8
0
6
CONTINUOUS
62
252
70
192
10
0.000000
20
-34.073743
30
-40.619567
0
VERTEX
8
0
6
CONTINUOUS
62
252
70
192
10
0.000000
20
-33.446151
30
-40.092954
0
VERTEX
8
0
6
CONTINUOUS
62
252
70
192
10
0.000000
20
-32.919538
30
-39.465362
0
VERTEX
8
0
6
CONTINUOUS
62
252
70
192
10
0.000000
20
-32.509906
30
-38.755858
0
VERTEX
8
0
6
CONTINUOUS
62
252
70
192
10
0.000000
20
-32.229701
30
-37.986002
0
VERTEX
8
0
6
CONTINUOUS
62
252
70
192
10
0.000000
20
-32.087438
30
-37.179185
0
VERTEX
8
0
6
CONTINUOUS
62
252
70
192
10
0.000000
20
-32.087438
30
-36.359921
0
VERTEX
8
0
6
CONTINUOUS
62
252
70
192
10
0.000000
20
-32.229701
30
-35.553103
0
VERTEX
8
0
6
CONTINUOUS
62
252
70
192
10
0.000000
20
-32.509906
30
-34.783247
0
VERTEX
8
0
6
CONTINUOUS
62
252
70
192
10
0.000000
20
-32.919538
30
-34.073743
0
VERTEX
8
0
6
CONTINUOUS
62
252
70
192
10
-0.000000
20
-33.446151
30
33.446151
0
VERTEX
8
0
6
CONTINUOUS
62
252
70
192
10
-0.000000
20
-32.919538
30
34.073743
0
VERTEX
8
0
6
CONTINUOUS
62
252
70
192
10
-0.000000
20
-32.509906
30
34.783247
0
VERTEX
8
0
6
CONTINUOUS
62
252
70
192
10
-0.000000
20
-32.229701
30
35.553103
0
VERTEX
8
0
6
CONTINUOUS
62
252
70
192
10
-0.000000
20
-32.087438
30
36.359921
0
VERTEX
8
0
6
CONTINUOUS
62
252
70
192
10
-0.000000
20
-32.087438
30
37.179185
0
VERTEX
8
0
6
CONTINUOUS
62
252
70
192
10
-0.000000
20
-32.229701
30
37.986002
0
VERTEX
8
0
6
CONTINUOUS
62
252
70
192
10
-0.000000
20
-32.509906
30
38.755858
0
VERTEX
8
0
6
CONTINUOUS
62
252
70
192
10
-0.000000
20
-32.919538
30
39.465362
0
VERTEX
8
0
6
CONTINUOUS
62
252
70
192
10
-0.000000
20
-33.446151
30
40.092954
0
VERTEX
8
0
6
CONTINUOUS
62
252
70
192
10
-0.000000
20
-34.073743
30
40.619567
0
VERTEX
8
0
6
CONTINUOUS
62
252
70
192
10
-0.000000
20
-34.783247
30
41.029199
0
VERTEX
8
0
6
CONTINUOUS
62
252
70
192
10
-0.000000
20
-35.553103
30
41.309404
0
VERTEX
8
0
6
CONTINUOUS
62
252
70
192
10
-0.000000
20
-36.359921
30
41.451668
0
VERTEX
8
0
6
CONTINUOUS
62
252
70
192
10
-0.000000
20
-37.179185
30
41.451668
0
VERTEX
8
0
6
CONTINUOUS
62
252
70
192
10
-0.000000
20
-37.986002
30
41.309404
0
VERTEX
8
0
6
CONTINUOUS
62
252
70
192
10
-0.000000
20
-38.755858
30
41.029199
0
VERTEX
8
0
6
CONTINUOUS
62
252
70
192
10
-0.000000
20
-39.465362
30
40.619567
0
VERTEX
8
0
6
CONTINUOUS
62
252
70
192
10
-0.000000
20
-40.092954
30
40.092954
0
VERTEX
8
0
6
CONTINUOUS
62
252
70
192
10
-0.000000
20
-40.619567
30
39.465362
0
VERTEX
8
0
6
CONTINUOUS
62
252
70
192
10
-0.000000
20
-41.029199
30
38.755858
0
VERTEX
8
0
6
CONTINUOUS
62
252
70
192
10
-0.000000
20
-41.309404
30
37.986002
0
VERTEX
8
0
6
CONTINUOUS
62
252
70
192
10
-0.000000
20
-41.451668
30
37.179185
0
VERTEX
8
0
6
CONTINUOUS
62
252
70
192
10
-0.000000
20
-41.451668
30
36.359921
0
VERTEX
8
0
6
CONTINUOUS
62
252
70
192
10
-0.000000
20
-41.309404
30
35.553103
0
VERTEX
8
0
6
CONTINUOUS
62
252
70
192
10
-0.000000
20
-41.029199
30
34.783247
0
VERTEX
8
0
6
CONTINUOUS
62
252
70
192
10
-0.000000
20
-40.619567
30
34.073743
0
VERTEX
8
0
6
CONTINUOUS
62
252
70
192
10
-0.000000
20
-40.092954
30
33.446151
0
VERTEX
8
0
6
CONTINUOUS
62
252
70
192
10
-0.000000
20
-39.465362
30
32.919538
0
VERTEX
8
0
6
CONTINUOUS
62
252
70
192
10
-0.000000
20
-38.755858
30
32.509906
0
VERTEX
8
0
6
CONTINUOUS
62
252
70
192
10
-0.000000
20
-37.986002
30
32.229701
0
VERTEX
8
0
6
CONTINUOUS
62
252
70
192
10
-0.000000
20
-37.179185
30
32.087438
0
VERTEX
8
0
6
CONTINUOUS
62
252
70
192
10
-0.000000
20
-36.359921
30
32.087438
0
VERTEX
8
0
6
CONTINUOUS
62
252
70
192
10
-0.000000
20
-35.553103
30
32.229701
0
VERTEX
8
0
6
CONTINUOUS
62
252
70
192
10
-0.000000
20
-34.783247
30
32.509906
0
VERTEX
8
0
6
CONTINUOUS
62
252
70
192
10
-0.000000
20
-34.073743
30
32.919538
0
VERTEX
8
0
6
CONTINUOUS
62
252
70
192
10
0.000000
20
-44.600000
30
-37.600000
0
VERTEX
8
0
6
CONTINUOUS
62
252
70
192
10
-0.000000
20
-44.600000
30
37.600000
0
VERTEX
8
0
6
CONTINUOUS
62
252
70
192
10
-0.000000
20
-44.493654
30
38.815537
0
VERTEX
8
0
6
CONTINUOUS
62
252
70
192
10
-0.000000
20
-44.177848
30
39.994141
0
VERTEX
8
0
6
CONTINUOUS
62
252
70
192
10
-0.000000
20
-43.662178
30
41.100000
0
VERTEX
8
0
6
CONTINUOUS
62
252
70
192
10
-0.000000
20
-42.962311
30
42.099513
0
VERTEX
8
0
6
CONTINUOUS
62
252
70
192
10
-0.000000
20
-42.099513
30
42.962311
0
VERTEX
8
0
6
CONTINUOUS
62
252
70
192
10
-0.000000
20
-41.100000
30
43.662178
0
VERTEX
8
0
6
CONTINUOUS
62
252
70
192
10
-0.000000
20
-39.994141
30
44.177848
0
VERTEX
8
0
6
CONTINUOUS
62
252
70
192
10
-0.000000
20
-38.815537
30
44.493654
0
VERTEX
8
0
6
CONTINUOUS
62
252
70
192
10
-0.000000
20
-37.600000
30
44.600000
0
VERTEX
8
0
6
CONTINUOUS
62
252
70
192
10
-0.000000
20
37.600000
30
44.600000
0
VERTEX
8
0
6
CONTINUOUS
62
252
70
192
10
-0.000000
20
38.815537
30
44.493654
0
VERTEX
8
0
6
CONTINUOUS
62
252
70
192
10
-0.000000
20
39.994141
30
44.177848
0
VERTEX
8
0
6
CONTINUOUS
62
252
70
192
10
-0.000000
20
41.100000
30
43.662178
0
VERTEX
8
0
6
CONTINUOUS
62
252
70
192
10
-0.000000
20
42.099513
30
42.962311
0
VERTEX
8
0
6
CONTINUOUS
62
252
70
192
10
-0.000000
20
42.962311
30
42.099513
0
VERTEX
8
0
6
CONTINUOUS
62
252
70
192
10
-0.000000
20
43.662178
30
41.100000
0
VERTEX
8
0
6
CONTINUOUS
62
252
70
192
10
-0.000000
20
44.177848
30
39.994141
0
VERTEX
8
0
6
CONTINUOUS
62
252
70
192
10
-0.000000
20
44.493654
30
38.815537
0
VERTEX
8
0
6
CONTINUOUS
62
252
70
192
10
-0.000000
20
44.600000
30
37.600000
0
VERTEX
8
0
6
CONTINUOUS
62
252
70
192
10
0.000000
20
44.600000
30
-37.600000
0
VERTEX
8
0
6
CONTINUOUS
62
252
70
192
10
0.000000
20
44.493654
30
-38.815537
0
VERTEX
8
0
6
CONTINUOUS
62
252
70
192
10
0.000000
20
44.177848
30
-39.994141
0
VERTEX
8
0
6
CONTINUOUS
62
252
70
192
10
0.000000
20
43.662178
30
-41.100000
0
VERTEX
8
0
6
CONTINUOUS
62
252
70
192
10
0.000000
20
42.962311
30
-42.099513
0
VERTEX
8
0
6
CONTINUOUS
62
252
70
192
10
0.000000
20
42.099513
30
-42.962311
0
VERTEX
8
0
6
CONTINUOUS
62
252
70
192
10
0.000000
20
41.100000
30
-43.662178
0
VERTEX
8
0
6
CONTINUOUS
62
252
70
192
10
0.000000
20
39.994141
30
-44.177848
0
VERTEX
8
0
6
CONTINUOUS
62
252
70
192
10
0.000000
20
38.815537
30
-44.493654
0
VERTEX
8
0
6
CONTINUOUS
62
252
70
192
10
0.000000
20
37.600000
30
-44.600000
0
VERTEX
8
0
6
CONTINUOUS
62
252
70
192
10
0.000000
20
-37.600000
30
-44.600000
0
VERTEX
8
0
6
CONTINUOUS
62
252
70
192
10
0.000000
20
-38.815537
30
-44.493654
0
VERTEX
8
0
6
CONTINUOUS
62
252
70
192
10
0.000000
20
-39.994141
30
-44.177848
0
VERTEX
8
0
6
CONTINUOUS
62
252
70
192
10
0.000000
20
-41.100000
30
-43.662178
0
VERTEX
8
0
6
CONTINUOUS
62
252
70
192
10
0.000000
20
-42.099513
30
-42.962311
0
VERTEX
8
0
6
CONTINUOUS
62
252
70
192
10
0.000000
20
-42.962311
30
-42.099513
0
VERTEX
8
0
6
CONTINUOUS
62
252
70
192
10
0.000000
20
-43.662178
30
-41.100000
0
VERTEX
8
0
6
CONTINUOUS
62
252
70
192
10
0.000000
20
-44.177848
30
-39.994141
0
VERTEX
8
0
6
CONTINUOUS
62
252
70
192
10
0.000000
20
-44.493654
30
-38.815537
0
VERTEX
8
0
6
CONTINUOUS
62
252
70
128
10
0.000000
20
0.000000
30
0.000000
71
2
72
203
73
1
0
VERTEX
8
0
6
CONTINUOUS
62
252
70
128
10
0.000000
20
0.000000
30
0.000000
71
1
72
203
73
204
0
VERTEX
8
0
6
CONTINUOUS
62
252
70
128
10
0.000000
20
0.000000
30
0.000000
71
1
72
204
73
28
0
VERTEX
8
0
6
CONTINUOUS
62
252
70
128
10
0.000000
20
0.000000
30
0.000000
71
28
72
204
73
127
0
VERTEX
8
0
6
CONTINUOUS
62
252
70
128
10
0.000000
20
0.000000
30
0.000000
71
28
72
127
73
128
0
VERTEX
8
0
6
CONTINUOUS
62
252
70
128
10
0.000000
20
0.000000
30
0.000000
71
2
72
3
73
203
0
VERTEX
8
0
6
CONTINUOUS
62
252
70
128
10
0.000000
20
0.000000
30
0.000000
71
203
72
3
73
75
0
VERTEX
8
0
6
CONTINUOUS
62
252
70
128
10
0.000000
20
0.000000
30
0.000000
71
203
72
75
73
76
0
VERTEX
8
0
6
CONTINUOUS
62
252
70
128
10
0.000000
20
0.000000
30
0.000000
71
4
72
73
73
3
0
VERTEX
8
0
6
CONTINUOUS
62
252
70
128
10
0.000000
20
0.000000
30
0.000000
71
3
72
73
73
74
0
VERTEX
8
0
6
CONTINUOUS
62
252
70
128
10
0.000000
20
0.000000
30
0.000000
71
3
72
74
73
75
0
VERTEX
8
0
6
CONTINUOUS
62
252
70
128
10
0.000000
20
0.000000
30
0.000000
71
5
72
68
73
4
0
VERTEX
8
0
6
CONTINUOUS
62
252
70
128
10
0.000000
20
0.000000
30
0.000000
71
4
72
68
73
69
0
VERTEX
8
0
6
CONTINUOUS
62
252
70
128
10
0.000000
20
0.000000
30
0.000000
71
4
72
69
73
70
0
VERTEX
8
0
6
CONTINUOUS
62
252
70
128
10
0.000000
20
0.000000
30
0.000000
71
6
72
98
73
5
0
VERTEX
8
0
6
CONTINUOUS
62
252
70
128
10
0.000000
20
0.000000
30
0.000000
71
5
72
98
73
99
0
VERTEX
8
0
6
CONTINUOUS
62
252
70
128
10
0.000000
20
0.000000
30
0.000000
71
5
72
99
73
100
0
VERTEX
8
0
6
CONTINUOUS
62
252
70
128
10
0.000000
20
0.000000
30
0.000000
71
7
72
93
73
6
0
VERTEX
8
0
6
CONTINUOUS
62
252
70
128
10
0.000000
20
0.000000
30
0.000000
71
6
72
93
73
94
0
VERTEX
8
0
6
CONTINUOUS
62
252
70
128
10
0.000000
20
0.000000
30
0.000000
71
6
72
94
73
95
0
VERTEX
8
0
6
CONTINUOUS
62
252
70
128
10
0.000000
20
0.000000
30
0.000000
71
8
72
194
73
7
0
VERTEX
8
0
6
CONTINUOUS
62
252
70
128
10
0.000000
20
0.000000
30
0.000000
71
7
72
194
73
91
0
VERTEX
8
0
6
CONTINUOUS
62
252
70
128
10
0.000000
20
0.000000
30
0.000000
71
7
72
91
73
92
0
VERTEX
8
0
6
CONTINUOUS
62
252
70
128
10
0.000000
20
0.000000
30
0.000000
71
8
72
9
73
194
0
VERTEX
8
0
6
CONTINUOUS
62
252
70
128
10
0.000000
20
0.000000
30
0.000000
71
194
72
9
73
193
0
VERTEX
8
0
6
CONTINUOUS
62
252
70
128
10
0.000000
20
0.000000
30
0.000000
71
193
72
9
73
10
0
VERTEX
8
0
6
CONTINUOUS
62
252
70
128
10
0.000000
20
0.000000
30
0.000000
71
193
72
10
73
39
0
VERTEX
8
0
6
CONTINUOUS
62
252
70
128
10
0.000000
20
0.000000
30
0.000000
71
39
72
10
73
38
0
VERTEX
8
0
6
CONTINUOUS
62
252
70
128
10
0.000000
20
0.000000
30
0.000000
71
38
72
10
73
37
0
VERTEX
8
0
6
CONTINUOUS
62
252
70
128
10
0.000000
20
0.000000
30
0.000000
71
37
72
10
73
11
0
VERTEX
8
0
6
CONTINUOUS
62
252
70
128
10
0.000000
20
0.000000
30
0.000000
71
37
72
11
73
36
0
VERTEX
8
0
6
CONTINUOUS
62
252
70
128
10
0.000000
20
0.000000
30
0.000000
71
36
72
11
73
35
0
VERTEX
8
0
6
CONTINUOUS
62
252
70
128
10
0.000000
20
0.000000
30
0.000000
71
35
72
11
73
34
0
VERTEX
8
0
6
CONTINUOUS
62
252
70
128
10
0.000000
20
0.000000
30
0.000000
71
34
72
11
73
33
0
VERTEX
8
0
6
CONTINUOUS
62
252
70
128
10
0.000000
20
0.000000
30
0.000000
71
33
72
11
73
32
0
VERTEX
8
0
6
CONTINUOUS
62
252
70
128
10
0.000000
20
0.000000
30
0.000000
71
32
72
11
73
12
0
VERTEX
8
0
6
CONTINUOUS
62
252
70
128
10
0.000000
20
0.000000
30
0.000000
71
32
72
12
73
31
0
VERTEX
8
0
6
CONTINUOUS
62
252
70
128
10
0.000000
20
0.000000
30
0.000000
71
31
72
12
73
30
0
VERTEX
8
0
6
CONTINUOUS
62
252
70
128
10
0.000000
20
0.000000
30
0.000000
71
30
72
12
73
29
0
VERTEX
8
0
6
CONTINUOUS
62
252
70
128
10
0.000000
20
0.000000
30
0.000000
71
29
72
12
73
64
0
VERTEX
8
0
6
CONTINUOUS
62
252
70
128
10
0.000000
20
0.000000
30
0.000000
71
64
72
12
73
63
0
VERTEX
8
0
6
CONTINUOUS
62
252
70
128
10
0.000000
20
0.000000
30
0.000000
71
63
72
12
73
62
0
VERTEX
8
0
6
CONTINUOUS
62
252
70
128
10
0.000000
20
0.000000
30
0.000000
71
62
72
12
73
13
0
VERTEX
8
0
6
CONTINUOUS
62
252
70
128
10
0.000000
20
0.000000
30
0.000000
71
62
72
13
73
61
0
VERTEX
8
0
6
CONTINUOUS
62
252
70
128
10
0.000000
20
0.000000
30
0.000000
71
61
72
13
73
60
0
VERTEX
8
0
6
CONTINUOUS
62
252
70
128
10
0.000000
20
0.000000
30
0.000000
71
60
72
13
73
59
0
VERTEX
8
0
6
CONTINUOUS
62
252
70
128
10
0.000000
20
0.000000
30
0.000000
71
59
72
13
73
58
0
VERTEX
8
0
6
CONTINUOUS
62
252
70
128
10
0.000000
20
0.000000
30
0.000000
71
58
72
13
73
57
0
VERTEX
8
0
6
CONTINUOUS
62
252
70
128
10
0.000000
20
0.000000
30
0.000000
71
57
72
13
73
14
0
VERTEX
8
0
6
CONTINUOUS
62
252
70
128
10
0.000000
20
0.000000
30
0.000000
71
57
72
14
73
56
0
VERTEX
8
0
6
CONTINUOUS
62
252
70
128
10
0.000000
20
0.000000
30
0.000000
71
56
72
14
73
55
0
VERTEX
8
0
6
CONTINUOUS
62
252
70
128
10
0.000000
20
0.000000
30
0.000000
71
55
72
14
73
184
0
VERTEX
8
0
6
CONTINUOUS
62
252
70
128
10
0.000000
20
0.000000
30
0.000000
71
55
72
184
73
54
0
VERTEX
8
0
6
CONTINUOUS
62
252
70
128
10
0.000000
20
0.000000
30
0.000000
71
54
72
184
73
53
0
VERTEX
8
0
6
CONTINUOUS
62
252
70
128
10
0.000000
20
0.000000
30
0.000000
71
53
72
184
73
52
0
VERTEX
8
0
6
CONTINUOUS
62
252
70
128
10
0.000000
20
0.000000
30
0.000000
71
52
72
184
73
51
0
VERTEX
8
0
6
CONTINUOUS
62
252
70
128
10
0.000000
20
0.000000
30
0.000000
71
51
72
184
73
50
0
VERTEX
8
0
6
CONTINUOUS
62
252
70
128
10
0.000000
20
0.000000
30
0.000000
71
50
72
184
73
185
0
VERTEX
8
0
6
CONTINUOUS
62
252
70
128
10
0.000000
20
0.000000
30
0.000000
71
50
72
185
73
49
0
VERTEX
8
0
6
CONTINUOUS
62
252
70
128
10
0.000000
20
0.000000
30
0.000000
71
49
72
185
73
186
0
VERTEX
8
0
6
CONTINUOUS
62
252
70
128
10
0.000000
20
0.000000
30
0.000000
71
49
72
186
73
187
0
VERTEX
8
0
6
CONTINUOUS
62
252
70
128
10
0.000000
20
0.000000
30
0.000000
71
14
72
15
73
184
0
VERTEX
8
0
6
CONTINUOUS
62
252
70
128
10
0.000000
20
0.000000
30
0.000000
71
184
72
15
73
183
0
VERTEX
8
0
6
CONTINUOUS
62
252
70
128
10
0.000000
20
0.000000
30
0.000000
71
183
72
15
73
16
0
VERTEX
8
0
6
CONTINUOUS
62
252
70
128
10
0.000000
20
0.000000
30
0.000000
71
183
72
16
73
17
0
VERTEX
8
0
6
CONTINUOUS
62
252
70
128
10
0.000000
20
0.000000
30
0.000000
71
18
72
145
73
17
0
VERTEX
8
0
6
CONTINUOUS
62
252
70
128
10
0.000000
20
0.000000
30
0.000000
71
17
72
145
73
146
0
VERTEX
8
0
6
CONTINUOUS
62
252
70
128
10
0.000000
20
0.000000
30
0.000000
71
17
72
146
73
147
0
VERTEX
8
0
6
CONTINUOUS
62
252
70
128
10
0.000000
20
0.000000
30
0.000000
71
19
72
140
73
18
0
VERTEX
8
0
6
CONTINUOUS
62
252
70
128
10
0.000000
20
0.000000
30
0.000000
71
18
72
140
73
141
0
VERTEX
8
0
6
CONTINUOUS
62
252
70
128
10
0.000000
20
0.000000
30
0.000000
71
18
72
141
73
142
0
VERTEX
8
0
6
CONTINUOUS
62
252
70
128
10
0.000000
20
0.000000
30
0.000000
71
20
72
170
73
19
0
VERTEX
8
0
6
CONTINUOUS
62
252
70
128
10
0.000000
20
0.000000
30
0.000000
71
19
72
170
73
171
0
VERTEX
8
0
6
CONTINUOUS
62
252
70
128
10
0.000000
20
0.000000
30
0.000000
71
19
72
171
73
172
0
VERTEX
8
0
6
CONTINUOUS
62
252
70
128
10
0.000000
20
0.000000
30
0.000000
71
21
72
165
73
20
0
VERTEX
8
0
6
CONTINUOUS
62
252
70
128
10
0.000000
20
0.000000
30
0.000000
71
20
72
165
73
166
0
VERTEX
8
0
6
CONTINUOUS
62
252
70
128
10
0.000000
20
0.000000
30
0.000000
71
20
72
166
73
167
0
VERTEX
8
0
6
CONTINUOUS
62
252
70
128
10
0.000000
20
0.000000
30
0.000000
71
22
72
174
73
21
0
VERTEX
8
0
6
CONTINUOUS
62
252
70
128
10
0.000000
20
0.000000
30
0.000000
71
21
72
174
73
163
0
VERTEX
8
0
6
CONTINUOUS
62
252
70
128
10
0.000000
20
0.000000
30
0.000000
71
21
72
163
73
164
0
VERTEX
8
0
6
CONTINUOUS
62
252
70
128
10
0.000000
20
0.000000
30
0.000000
71
174
72
22
73
173
0
VERTEX
8
0
6
CONTINUOUS
62
252
70
128
10
0.000000
20
0.000000
30
0.000000
71
173
72
22
73
23
0
VERTEX
8
0
6
CONTINUOUS
62
252
70
128
10
0.000000
20
0.000000
30
0.000000
71
173
72
23
73
24
0
VERTEX
8
0
6
CONTINUOUS
62
252
70
128
10
0.000000
20
0.000000
30
0.000000
71
25
72
109
73
24
0
VERTEX
8
0
6
CONTINUOUS
62
252
70
128
10
0.000000
20
0.000000
30
0.000000
71
24
72
109
73
110
0
VERTEX
8
0
6
CONTINUOUS
62
252
70
128
10
0.000000
20
0.000000
30
0.000000
71
24
72
110
73
111
0
VERTEX
8
0
6
CONTINUOUS
62
252
70
128
10
0.000000
20
0.000000
30
0.000000
71
26
72
104
73
25
0
VERTEX
8
0
6
CONTINUOUS
62
252
70
128
10
0.000000
20
0.000000
30
0.000000
71
25
72
104
73
105
0
VERTEX
8
0
6
CONTINUOUS
62
252
70
128
10
0.000000
20
0.000000
30
0.000000
71
25
72
105
73
106
0
VERTEX
8
0
6
CONTINUOUS
62
252
70
128
10
0.000000
20
0.000000
30
0.000000
71
27
72
134
73
26
0
VERTEX
8
0
6
CONTINUOUS
62
252
70
128
10
0.000000
20
0.000000
30
0.000000
71
26
72
134
73
135
0
VERTEX
8
0
6
CONTINUOUS
62
252
70
128
10
0.000000
20
0.000000
30
0.000000
71
26
72
135
73
136
0
VERTEX
8
0
6
CONTINUOUS
62
252
70
128
10
0.000000
20
0.000000
30
0.000000
71
28
72
129
73
27
0
VERTEX
8
0
6
CONTINUOUS
62
252
70
128
10
0.000000
20
0.000000
30
0.000000
71
27
72
129
73
130
0
VERTEX
8
0
6
CONTINUOUS
62
252
70
128
10
0.000000
20
0.000000
30
0.000000
71
27
72
130
73
131
0
VERTEX
8
0
6
CONTINUOUS
62
252
70
128
10
0.000000
20
0.000000
30
0.000000
71
39
72
40
73
193
0
VERTEX
8
0
6
CONTINUOUS
62
252
70
128
10
0.000000
20
0.000000
30
0.000000
71
193
72
40
73
41
0
VERTEX
8
0
6
CONTINUOUS
62
252
70
128
10
0.000000
20
0.000000
30
0.000000
71
193
72
41
73
42
0
VERTEX
8
0
6
CONTINUOUS
62
252
70
128
10
0.000000
20
0.000000
30
0.000000
71
42
72
43
73
193
0
VERTEX
8
0
6
CONTINUOUS
62
252
70
128
10
0.000000
20
0.000000
30
0.000000
71
193
72
43
73
44
0
VERTEX
8
0
6
CONTINUOUS
62
252
70
128
10
0.000000
20
0.000000
30
0.000000
71
193
72
44
73
192
0
VERTEX
8
0
6
CONTINUOUS
62
252
70
128
10
0.000000
20
0.000000
30
0.000000
71
192
72
44
73
45
0
VERTEX
8
0
6
CONTINUOUS
62
252
70
128
10
0.000000
20
0.000000
30
0.000000
71
192
72
45
73
191
0
VERTEX
8
0
6
CONTINUOUS
62
252
70
128
10
0.000000
20
0.000000
30
0.000000
71
191
72
45
73
190
0
VERTEX
8
0
6
CONTINUOUS
62
252
70
128
10
0.000000
20
0.000000
30
0.000000
71
190
72
45
73
46
0
VERTEX
8
0
6
CONTINUOUS
62
252
70
128
10
0.000000
20
0.000000
30
0.000000
71
190
72
46
73
189
0
VERTEX
8
0
6
CONTINUOUS
62
252
70
128
10
0.000000
20
0.000000
30
0.000000
71
189
72
46
73
47
0
VERTEX
8
0
6
CONTINUOUS
62
252
70
128
10
0.000000
20
0.000000
30
0.000000
71
189
72
47
73
188
0
VERTEX
8
0
6
CONTINUOUS
62
252
70
128
10
0.000000
20
0.000000
30
0.000000
71
188
72
47
73
48
0
VERTEX
8
0
6
CONTINUOUS
62
252
70
128
10
0.000000
20
0.000000
30
0.000000
71
188
72
48
73
187
0
VERTEX
8
0
6
CONTINUOUS
62
252
70
128
10
0.000000
20
0.000000
30
0.000000
71
187
72
48
73
49
0
VERTEX
8
0
6
CONTINUOUS
62
252
70
128
10
0.000000
20
0.000000
30
0.000000
71
100
72
65
73
5
0
VERTEX
8
0
6
CONTINUOUS
62
252
70
128
10
0.000000
20
0.000000
30
0.000000
71
5
72
65
73
66
0
VERTEX
8
0
6
CONTINUOUS
62
252
70
128
10
0.000000
20
0.000000
30
0.000000
71
5
72
66
73
67
0
VERTEX
8
0
6
CONTINUOUS
62
252
70
128
10
0.000000
20
0.000000
30
0.000000
71
67
72
68
73
5
0
VERTEX
8
0
6
CONTINUOUS
62
252
70
128
10
0.000000
20
0.000000
30
0.000000
71
70
72
71
73
4
0
VERTEX
8
0
6
CONTINUOUS
62
252
70
128
10
0.000000
20
0.000000
30
0.000000
71
4
72
71
73
72
0
VERTEX
8
0
6
CONTINUOUS
62
252
70
128
10
0.000000
20
0.000000
30
0.000000
71
4
72
72
73
73
0
VERTEX
8
0
6
CONTINUOUS
62
252
70
128
10
0.000000
20
0.000000
30
0.000000
71
76
72
77
73
203
0
VERTEX
8
0
6
CONTINUOUS
62
252
70
128
10
0.000000
20
0.000000
30
0.000000
71
203
72
77
73
78
0
VERTEX
8
0
6
CONTINUOUS
62
252
70
128
10
0.000000
20
0.000000
30
0.000000
71
203
72
78
73
79
0
VERTEX
8
0
6
CONTINUOUS
62
252
70
128
10
0.000000
20
0.000000
30
0.000000
71
79
72
80
73
203
0
VERTEX
8
0
6
CONTINUOUS
62
252
70
128
10
0.000000
20
0.000000
30
0.000000
71
203
72
80
73
202
0
VERTEX
8
0
6
CONTINUOUS
62
252
70
128
10
0.000000
20
0.000000
30
0.000000
71
202
72
80
73
81
0
VERTEX
8
0
6
CONTINUOUS
62
252
70
128
10
0.000000
20
0.000000
30
0.000000
71
202
72
81
73
201
0
VERTEX
8
0
6
CONTINUOUS
62
252
70
128
10
0.000000
20
0.000000
30
0.000000
71
201
72
81
73
200
0
VERTEX
8
0
6
CONTINUOUS
62
252
70
128
10
0.000000
20
0.000000
30
0.000000
71
200
72
81
73
82
0
VERTEX
8
0
6
CONTINUOUS
62
252
70
128
10
0.000000
20
0.000000
30
0.000000
71
200
72
82
73
199
0
VERTEX
8
0
6
CONTINUOUS
62
252
70
128
10
0.000000
20
0.000000
30
0.000000
71
199
72
82
73
83
0
VERTEX
8
0
6
CONTINUOUS
62
252
70
128
10
0.000000
20
0.000000
30
0.000000
71
199
72
83
73
198
0
VERTEX
8
0
6
CONTINUOUS
62
252
70
128
10
0.000000
20
0.000000
30
0.000000
71
198
72
83
73
84
0
VERTEX
8
0
6
CONTINUOUS
62
252
70
128
10
0.000000
20
0.000000
30
0.000000
71
198
72
84
73
197
0
VERTEX
8
0
6
CONTINUOUS
62
252
70
128
10
0.000000
20
0.000000
30
0.000000
71
197
72
84
73
85
0
VERTEX
8
0
6
CONTINUOUS
62
252
70
128
10
0.000000
20
0.000000
30
0.000000
71
197
72
85
73
196
0
VERTEX
8
0
6
CONTINUOUS
62
252
70
128
10
0.000000
20
0.000000
30
0.000000
71
196
72
85
73
195
0
VERTEX
8
0
6
CONTINUOUS
62
252
70
128
10
0.000000
20
0.000000
30
0.000000
71
195
72
85
73
86
0
VERTEX
8
0
6
CONTINUOUS
62
252
70
128
10
0.000000
20
0.000000
30
0.000000
71
195
72
86
73
194
0
VERTEX
8
0
6
CONTINUOUS
62
252
70
128
10
0.000000
20
0.000000
30
0.000000
71
194
72
86
73
87
0
VERTEX
8
0
6
CONTINUOUS
62
252
70
128
10
0.000000
20
0.000000
30
0.000000
71
194
72
87
73
88
0
VERTEX
8
0
6
CONTINUOUS
62
252
70
128
10
0.000000
20
0.000000
30
0.000000
71
88
72
89
73
194
0
VERTEX
8
0
6
CONTINUOUS
62
252
70
128
10
0.000000
20
0.000000
30
0.000000
71
194
72
89
73
90
0
VERTEX
8
0
6
CONTINUOUS
62
252
70
128
10
0.000000
20
0.000000
30
0.000000
71
194
72
90
73
91
0
VERTEX
8
0
6
CONTINUOUS
62
252
70
128
10
0.000000
20
0.000000
30
0.000000
71
92
72
93
73
7
0
VERTEX
8
0
6
CONTINUOUS
62
252
70
128
10
0.000000
20
0.000000
30
0.000000
71
95
72
96
73
6
0
VERTEX
8
0
6
CONTINUOUS
62
252
70
128
10
0.000000
20
0.000000
30
0.000000
71
6
72
96
73
97
0
VERTEX
8
0
6
CONTINUOUS
62
252
70
128
10
0.000000
20
0.000000
30
0.000000
71
6
72
97
73
98
0
VERTEX
8
0
6
CONTINUOUS
62
252
70
128
10
0.000000
20
0.000000
30
0.000000
71
136
72
101
73
26
0
VERTEX
8
0
6
CONTINUOUS
62
252
70
128
10
0.000000
20
0.000000
30
0.000000
71
26
72
101
73
102
0
VERTEX
8
0
6
CONTINUOUS
62
252
70
128
10
0.000000
20
0.000000
30
0.000000
71
26
72
102
73
103
0
VERTEX
8
0
6
CONTINUOUS
62
252
70
128
10
0.000000
20
0.000000
30
0.000000
71
103
72
104
73
26
0
VERTEX
8
0
6
CONTINUOUS
62
252
70
128
10
0.000000
20
0.000000
30
0.000000
71
106
72
107
73
25
0
VERTEX
8
0
6
CONTINUOUS
62
252
70
128
10
0.000000
20
0.000000
30
0.000000
71
25
72
107
73
108
0
VERTEX
8
0
6
CONTINUOUS
62
252
70
128
10
0.000000
20
0.000000
30
0.000000
71
25
72
108
73
109
0
VERTEX
8
0
6
CONTINUOUS
62
252
70
128
10
0.000000
20
0.000000
30
0.000000
71
24
72
111
73
173
0
VERTEX
8
0
6
CONTINUOUS
62
252
70
128
10
0.000000
20
0.000000
30
0.000000
71
173
72
111
73
112
0
VERTEX
8
0
6
CONTINUOUS
62
252
70
128
10
0.000000
20
0.000000
30
0.000000
71
173
72
112
73
113
0
VERTEX
8
0
6
CONTINUOUS
62
252
70
128
10
0.000000
20
0.000000
30
0.000000
71
113
72
114
73
173
0
VERTEX
8
0
6
CONTINUOUS
62
252
70
128
10
0.000000
20
0.000000
30
0.000000
71
173
72
114
73
115
0
VERTEX
8
0
6
CONTINUOUS
62
252
70
128
10
0.000000
20
0.000000
30
0.000000
71
173
72
115
73
116
0
VERTEX
8
0
6
CONTINUOUS
62
252
70
128
10
0.000000
20
0.000000
30
0.000000
71
173
72
116
73
212
0
VERTEX
8
0
6
CONTINUOUS
62
252
70
128
10
0.000000
20
0.000000
30
0.000000
71
212
72
116
73
117
0
VERTEX
8
0
6
CONTINUOUS
62
252
70
128
10
0.000000
20
0.000000
30
0.000000
71
212
72
117
73
211
0
VERTEX
8
0
6
CONTINUOUS
62
252
70
128
10
0.000000
20
0.000000
30
0.000000
71
211
72
117
73
210
0
VERTEX
8
0
6
CONTINUOUS
62
252
70
128
10
0.000000
20
0.000000
30
0.000000
71
210
72
117
73
118
0
VERTEX
8
0
6
CONTINUOUS
62
252
70
128
10
0.000000
20
0.000000
30
0.000000
71
210
72
118
73
209
0
VERTEX
8
0
6
CONTINUOUS
62
252
70
128
10
0.000000
20
0.000000
30
0.000000
71
209
72
118
73
119
0
VERTEX
8
0
6
CONTINUOUS
62
252
70
128
10
0.000000
20
0.000000
30
0.000000
71
209
72
119
73
208
0
VERTEX
8
0
6
CONTINUOUS
62
252
70
128
10
0.000000
20
0.000000
30
0.000000
71
208
72
119
73
120
0
VERTEX
8
0
6
CONTINUOUS
62
252
70
128
10
0.000000
20
0.000000
30
0.000000
71
208
72
120
73
207
0
VERTEX
8
0
6
CONTINUOUS
62
252
70
128
10
0.000000
20
0.000000
30
0.000000
71
207
72
120
73
121
0
VERTEX
8
0
6
CONTINUOUS
62
252
70
128
10
0.000000
20
0.000000
30
0.000000
71
207
72
121
73
206
0
VERTEX
8
0
6
CONTINUOUS
62
252
70
128
10
0.000000
20
0.000000
30
0.000000
71
206
72
121
73
205
0
VERTEX
8
0
6
CONTINUOUS
62
252
70
128
10
0.000000
20
0.000000
30
0.000000
71
205
72
121
73
122
0
VERTEX
8
0
6
CONTINUOUS
62
252
70
128
10
0.000000
20
0.000000
30
0.000000
71
205
72
122
73
204
0
VERTEX
8
0
6
CONTINUOUS
62
252
70
128
10
0.000000
20
0.000000
30
0.000000
71
204
72
122
73
123
0
VERTEX
8
0
6
CONTINUOUS
62
252
70
128
10
0.000000
20
0.000000
30
0.000000
71
204
72
123
73
124
0
VERTEX
8
0
6
CONTINUOUS
62
252
70
128
10
0.000000
20
0.000000
30
0.000000
71
124
72
125
73
204
0
VERTEX
8
0
6
CONTINUOUS
62
252
70
128
10
0.000000
20
0.000000
30
0.000000
71
204
72
125
73
126
0
VERTEX
8
0
6
CONTINUOUS
62
252
70
128
10
0.000000
20
0.000000
30
0.000000
71
204
72
126
73
127
0
VERTEX
8
0
6
CONTINUOUS
62
252
70
128
10
0.000000
20
0.000000
30
0.000000
71
128
72
129
73
28
0
VERTEX
8
0
6
CONTINUOUS
62
252
70
128
10
0.000000
20
0.000000
30
0.000000
71
131
72
132
73
27
0
VERTEX
8
0
6
CONTINUOUS
62
252
70
128
10
0.000000
20
0.000000
30
0.000000
71
27
72
132
73
133
0
VERTEX
8
0
6
CONTINUOUS
62
252
70
128
10
0.000000
20
0.000000
30
0.000000
71
27
72
133
73
134
0
VERTEX
8
0
6
CONTINUOUS
62
252
70
128
10
0.000000
20
0.000000
30
0.000000
71
172
72
137
73
19
0
VERTEX
8
0
6
CONTINUOUS
62
252
70
128
10
0.000000
20
0.000000
30
0.000000
71
19
72
137
73
138
0
VERTEX
8
0
6
CONTINUOUS
62
252
70
128
10
0.000000
20
0.000000
30
0.000000
71
19
72
138
73
139
0
VERTEX
8
0
6
CONTINUOUS
62
252
70
128
10
0.000000
20
0.000000
30
0.000000
71
139
72
140
73
19
0
VERTEX
8
0
6
CONTINUOUS
62
252
70
128
10
0.000000
20
0.000000
30
0.000000
71
142
72
143
73
18
0
VERTEX
8
0
6
CONTINUOUS
62
252
70
128
10
0.000000
20
0.000000
30
0.000000
71
18
72
143
73
144
0
VERTEX
8
0
6
CONTINUOUS
62
252
70
128
10
0.000000
20
0.000000
30
0.000000
71
18
72
144
73
145
0
VERTEX
8
0
6
CONTINUOUS
62
252
70
128
10
0.000000
20
0.000000
30
0.000000
71
17
72
147
73
183
0
VERTEX
8
0
6
CONTINUOUS
62
252
70
128
10
0.000000
20
0.000000
30
0.000000
71
183
72
147
73
148
0
VERTEX
8
0
6
CONTINUOUS
62
252
70
128
10
0.000000
20
0.000000
30
0.000000
71
183
72
148
73
149
0
VERTEX
8
0
6
CONTINUOUS
62
252
70
128
10
0.000000
20
0.000000
30
0.000000
71
149
72
150
73
183
0
VERTEX
8
0
6
CONTINUOUS
62
252
70
128
10
0.000000
20
0.000000
30
0.000000
71
183
72
150
73
151
0
VERTEX
8
0
6
CONTINUOUS
62
252
70
128
10
0.000000
20
0.000000
30
0.000000
71
183
72
151
73
152
0
VERTEX
8
0
6
CONTINUOUS
62
252
70
128
10
0.000000
20
0.000000
30
0.000000
71
183
72
152
73
182
0
VERTEX
8
0
6
CONTINUOUS
62
252
70
128
10
0.000000
20
0.000000
30
0.000000
71
182
72
152
73
153
0
VERTEX
8
0
6
CONTINUOUS
62
252
70
128
10
0.000000
20
0.000000
30
0.000000
71
182
72
153
73
181
0
VERTEX
8
0
6
CONTINUOUS
62
252
70
128
10
0.000000
20
0.000000
30
0.000000
71
181
72
153
73
180
0
VERTEX
8
0
6
CONTINUOUS
62
252
70
128
10
0.000000
20
0.000000
30
0.000000
71
180
72
153
73
154
0
VERTEX
8
0
6
CONTINUOUS
62
252
70
128
10
0.000000
20
0.000000
30
0.000000
71
180
72
154
73
179
0
VERTEX
8
0
6
CONTINUOUS
62
252
70
128
10
0.000000
20
0.000000
30
0.000000
71
179
72
154
73
155
0
VERTEX
8
0
6
CONTINUOUS
62
252
70
128
10
0.000000
20
0.000000
30
0.000000
71
179
72
155
73
178
0
VERTEX
8
0
6
CONTINUOUS
62
252
70
128
10
0.000000
20
0.000000
30
0.000000
71
178
72
155
73
156
0
VERTEX
8
0
6
CONTINUOUS
62
252
70
128
10
0.000000
20
0.000000
30
0.000000
71
178
72
156
73
177
0
VERTEX
8
0
6
CONTINUOUS
62
252
70
128
10
0.000000
20
0.000000
30
0.000000
71
177
72
156
73
157
0
VERTEX
8
0
6
CONTINUOUS
62
252
70
128
10
0.000000
20
0.000000
30
0.000000
71
177
72
157
73
176
0
VERTEX
8
0
6
CONTINUOUS
62
252
70
128
10
0.000000
20
0.000000
30
0.000000
71
176
72
157
73
175
0
VERTEX
8
0
6
CONTINUOUS
62
252
70
128
10
0.000000
20
0.000000
30
0.000000
71
175
72
157
73
158
0
VERTEX
8
0
6
CONTINUOUS
62
252
70
128
10
0.000000
20
0.000000
30
0.000000
71
175
72
158
73
174
0
VERTEX
8
0
6
CONTINUOUS
62
252
70
128
10
0.000000
20
0.000000
30
0.000000
71
174
72
158
73
159
0
VERTEX
8
0
6
CONTINUOUS
62
252
70
128
10
0.000000
20
0.000000
30
0.000000
71
174
72
159
73
160
0
VERTEX
8
0
6
CONTINUOUS
62
252
70
128
10
0.000000
20
0.000000
30
0.000000
71
160
72
161
73
174
0
VERTEX
8
0
6
CONTINUOUS
62
252
70
128
10
0.000000
20
0.000000
30
0.000000
71
174
72
161
73
162
0
VERTEX
8
0
6
CONTINUOUS
62
252
70
128
10
0.000000
20
0.000000
30
0.000000
71
174
72
162
73
163
0
VERTEX
8
0
6
CONTINUOUS
62
252
70
128
10
0.000000
20
0.000000
30
0.000000
71
164
72
165
73
21
0
VERTEX
8
0
6
CONTINUOUS
62
252
70
128
10
0.000000
20
0.000000
30
0.000000
71
167
72
168
73
20
0
VERTEX
8
0
6
CONTINUOUS
62
252
70
128
10
0.000000
20
0.000000
30
0.000000
71
20
72
168
73
169
0
VERTEX
8
0
6
CONTINUOUS
62
252
70
128
10
0.000000
20
0.000000
30
0.000000
71
20
72
169
73
170
0
SEQEND
0
ENDSEC
0
EOF
