0
SECTION
2
HEADER
9
$ACADVER
1
AC1009
9
$INSBASE
10
0.0
20
0.0
30
0.0
9
$EXTMIN
10
0.000000
20
0.000000
30
0.000000
9
$EXTMAX
10
0.000000
20
0.000000
30
0.000000
9
$UCSORG
10
0.0
20
0.0
30
0.0
9
$UCSXDIR
10
1.0
20
0.0
30
0.0
9
$UCSYDIR
10
0.0
20
1.0
30
0.0
9
$CLAYER
8
0
9
$SHADEDGE
70
3
0
ENDSEC
0
SECTION
2
TABLES
0
TABLE
2
LTYPE
70
2
0
LTYPE
2
CONTINUOUS
70
0
3
Solid line
72
65
73
0
40
0.0
0
ENDTAB
0
TABLE
2
LAYER
70
5
0
LAYER
2
0
70
0
62
7
6
CONTINUOUS
0
ENDTAB
0
TABLE
2
APPID
70
1
0
APPID
2
ACAD
70
64
0
ENDTAB
0
ENDSEC
0
SECTION
2
BLOCKS
0
ENDSEC
0
SECTION
2
ENTITIES
0
POLYLINE
66
1
8
0
6
CONTINUOUS
62
252
70
64
75
0
10
0.000000
20
0.000000
30
0.000000
0
VERTEX
8
0
6
CONTINUOUS
62
252
70
192
10
32.700000
20
-0.000000
30
7.000000
0
VERTEX
8
0
6
CONTINUOUS
62
252
70
192
10
32.700000
20
1.215537
30
6.893654
0
VERTEX
8
0
6
CONTINUOUS
62
252
70
192
10
32.700000
20
2.394141
30
6.577848
0
VERTEX
8
0
6
CONTINUOUS
62
252
70
192
10
32.700000
20
3.500000
30
6.062178
0
VERTEX
8
0
6
CONTINUOUS
62
252
70
192
10
32.700000
20
4.499513
30
5.362311
0
VERTEX
8
0
6
CONTINUOUS
62
252
70
192
10
32.700000
20
5.362311
30
4.499513
0
VERTEX
8
0
6
CONTINUOUS
62
252
70
192
10
32.700000
20
6.062178
30
3.500000
0
VERTEX
8
0
6
CONTINUOUS
62
252
70
192
10
32.700000
20
6.577848
30
2.394141
0
VERTEX
8
0
6
CONTINUOUS
62
252
70
192
10
32.700000
20
6.893654
30
1.215537
0
VERTEX
8
0
6
CONTINUOUS
62
252
70
192
10
32.700000
20
7.000000
30
0.000000
0
VERTEX
8
0
6
CONTINUOUS
62
252
70
192
10
32.700000
20
6.893654
30
-1.215537
0
VERTEX
8
0
6
CONTINUOUS
62
252
70
192
10
32.700000
20
6.577848
30
-2.394141
0
VERTEX
8
0
6
CONTINUOUS
62
252
70
192
10
32.700000
20
6.062178
30
-3.500000
0
VERTEX
8
0
6
CONTINUOUS
62
252
70
192
10
32.700000
20
5.362311
30
-4.499513
0
VERTEX
8
0
6
CONTINUOUS
62
252
70
192
10
32.700000
20
4.499513
30
-5.362311
0
VERTEX
8
0
6
CONTINUOUS
62
252
70
192
10
32.700000
20
3.500000
30
-6.062178
0
VERTEX
8
0
6
CONTINUOUS
62
252
70
192
10
32.700000
20
2.394141
30
-6.577848
0
VERTEX
8
0
6
CONTINUOUS
62
252
70
192
10
32.700000
20
1.215537
30
-6.893654
0
VERTEX
8
0
6
CONTINUOUS
62
252
70
192
10
32.700000
20
0.000000
30
-7.000000
0
VERTEX
8
0
6
CONTINUOUS
62
252
70
192
10
32.700000
20
-1.215537
30
-6.893654
0
VERTEX
8
0
6
CONTINUOUS
62
252
70
192
10
32.700000
20
-2.394141
30
-6.577848
0
VERTEX
8
0
6
CONTINUOUS
62
252
70
192
10
32.700000
20
-3.500000
30
-6.062178
0
VERTEX
8
0
6
CONTINUOUS
62
252
70
192
10
32.700000
20
-4.499513
30
-5.362311
0
VERTEX
8
0
6
CONTINUOUS
62
252
70
192
10
32.700000
20
-5.362311
30
-4.499513
0
VERTEX
8
0
6
CONTINUOUS
62
252
70
192
10
32.700000
20
-6.062178
30
-3.500000
0
VERTEX
8
0
6
CONTINUOUS
62
252
70
192
10
32.700000
20
-6.577848
30
-2.394141
0
VERTEX
8
0
6
CONTINUOUS
62
252
70
192
10
32.700000
20
-6.893654
30
-1.215537
0
VERTEX
8
0
6
CONTINUOUS
62
252
70
192
10
32.700000
20
-7.000000
30
0.000000
0
VERTEX
8
0
6
CONTINUOUS
62
252
70
192
10
32.700000
20
-6.893654
30
1.215537
0
VERTEX
8
0
6
CONTINUOUS
62
252
70
192
10
32.700000
20
-6.577848
30
2.394141
0
VERTEX
8
0
6
CONTINUOUS
62
252
70
192
10
32.700000
20
-6.062178
30
3.500000
0
VERTEX
8
0
6
CONTINUOUS
62
252
70
192
10
32.700000
20
-5.362311
30
4.499513
0
VERTEX
8
0
6
CONTINUOUS
62
252
70
192
10
32.700000
20
-4.499513
30
5.362311
0
VERTEX
8
0
6
CONTINUOUS
62
252
70
192
10
32.700000
20
-3.500000
30
6.062178
0
VERTEX
8
0
6
CONTINUOUS
62
252
70
192
10
32.700000
20
-2.394141
30
6.577848
0
VERTEX
8
0
6
CONTINUOUS
62
252
70
192
10
32.700000
20
-1.215537
30
6.893654
0
VERTEX
8
0
6
CONTINUOUS
62
252
70
192
10
37.000000
20
0.000000
30
-7.000000
0
VERTEX
8
0
6
CONTINUOUS
62
252
70
192
10
37.000000
20
1.215537
30
-6.893654
0
VERTEX
8
0
6
CONTINUOUS
62
252
70
192
10
37.000000
20
2.394141
30
-6.577848
0
VERTEX
8
0
6
CONTINUOUS
62
252
70
192
10
37.000000
20
3.500000
30
-6.062178
0
VERTEX
8
0
6
CONTINUOUS
62
252
70
192
10
37.000000
20
4.499513
30
-5.362311
0
VERTEX
8
0
6
CONTINUOUS
62
252
70
192
10
37.000000
20
5.362311
30
-4.499513
0
VERTEX
8
0
6
CONTINUOUS
62
252
70
192
10
37.000000
20
6.062178
30
-3.500000
0
VERTEX
8
0
6
CONTINUOUS
62
252
70
192
10
37.000000
20
6.577848
30
-2.394141
0
VERTEX
8
0
6
CONTINUOUS
62
252
70
192
10
37.000000
20
6.893654
30
-1.215537
0
VERTEX
8
0
6
CONTINUOUS
62
252
70
192
10
37.000000
20
7.000000
30
0.000000
0
VERTEX
8
0
6
CONTINUOUS
62
252
70
192
10
37.000000
20
6.893654
30
1.215537
0
VERTEX
8
0
6
CONTINUOUS
62
252
70
192
10
37.000000
20
6.577848
30
2.394141
0
VERTEX
8
0
6
CONTINUOUS
62
252
70
192
10
37.000000
20
6.062178
30
3.500000
0
VERTEX
8
0
6
CONTINUOUS
62
252
70
192
10
37.000000
20
5.362311
30
4.499513
0
VERTEX
8
0
6
CONTINUOUS
62
252
70
192
10
37.000000
20
4.499513
30
5.362311
0
VERTEX
8
0
6
CONTINUOUS
62
252
70
192
10
37.000000
20
3.500000
30
6.062178
0
VERTEX
8
0
6
CONTINUOUS
62
252
70
192
10
37.000000
20
2.394141
30
6.577848
0
VERTEX
8
0
6
CONTINUOUS
62
252
70
192
10
37.000000
20
1.215537
30
6.893654
0
VERTEX
8
0
6
CONTINUOUS
62
252
70
192
10
37.000000
20
-0.000000
30
7.000000
0
VERTEX
8
0
6
CONTINUOUS
62
252
70
192
10
37.000000
20
-1.215537
30
6.893654
0
VERTEX
8
0
6
CONTINUOUS
62
252
70
192
10
37.000000
20
-2.394141
30
6.577848
0
VERTEX
8
0
6
CONTINUOUS
62
252
70
192
10
37.000000
20
-3.500000
30
6.062178
0
VERTEX
8
0
6
CONTINUOUS
62
252
70
192
10
37.000000
20
-4.499513
30
5.362311
0
VERTEX
8
0
6
CONTINUOUS
62
252
70
192
10
37.000000
20
-5.362311
30
4.499513
0
VERTEX
8
0
6
CONTINUOUS
62
252
70
192
10
37.000000
20
-6.062178
30
3.500000
0
VERTEX
8
0
6
CONTINUOUS
62
252
70
192
10
37.000000
20
-6.577848
30
2.394141
0
VERTEX
8
0
6
CONTINUOUS
62
252
70
192
10
37.000000
20
-6.893654
30
1.215537
0
VERTEX
8
0
6
CONTINUOUS
62
252
70
192
10
37.000000
20
-7.000000
30
0.000000
0
VERTEX
8
0
6
CONTINUOUS
62
252
70
192
10
37.000000
20
-6.893654
30
-1.215537
0
VERTEX
8
0
6
CONTINUOUS
62
252
70
192
10
37.000000
20
-6.577848
30
-2.394141
0
VERTEX
8
0
6
CONTINUOUS
62
252
70
192
10
37.000000
20
-6.062178
30
-3.500000
0
VERTEX
8
0
6
CONTINUOUS
62
252
70
192
10
37.000000
20
-5.362311
30
-4.499513
0
VERTEX
8
0
6
CONTINUOUS
62
252
70
192
10
37.000000
20
-4.499513
30
-5.362311
0
VERTEX
8
0
6
CONTINUOUS
62
252
70
192
10
37.000000
20
-3.500000
30
-6.062178
0
VERTEX
8
0
6
CONTINUOUS
62
252
70
192
10
37.000000
20
-2.394141
30
-6.577848
0
VERTEX
8
0
6
CONTINUOUS
62
252
70
192
10
37.000000
20
-1.215537
30
-6.893654
0
VERTEX
8
0
6
CONTINUOUS
62
252
70
128
10
0.000000
20
0.000000
30
0.000000
71
2
72
54
73
1
0
VERTEX
8
0
6
CONTINUOUS
62
252
70
128
10
0.000000
20
0.000000
30
0.000000
71
1
72
54
73
55
0
VERTEX
8
0
6
CONTINUOUS
62
252
70
128
10
0.000000
20
0.000000
30
0.000000
71
1
72
55
73
36
0
VERTEX
8
0
6
CONTINUOUS
62
252
70
128
10
0.000000
20
0.000000
30
0.000000
71
36
72
55
73
56
0
VERTEX
8
0
6
CONTINUOUS
62
252
70
128
10
0.000000
20
0.000000
30
0.000000
71
36
72
56
73
35
0
VERTEX
8
0
6
CONTINUOUS
62
252
70
128
10
0.000000
20
0.000000
30
0.000000
71
35
72
56
73
57
0
VERTEX
8
0
6
CONTINUOUS
62
252
70
128
10
0.000000
20
0.000000
30
0.000000
71
35
72
57
73
34
0
VERTEX
8
0
6
CONTINUOUS
62
252
70
128
10
0.000000
20
0.000000
30
0.000000
71
34
72
57
73
58
0
VERTEX
8
0
6
CONTINUOUS
62
252
70
128
10
0.000000
20
0.000000
30
0.000000
71
34
72
58
73
33
0
VERTEX
8
0
6
CONTINUOUS
62
252
70
128
10
0.000000
20
0.000000
30
0.000000
71
33
72
58
73
59
0
VERTEX
8
0
6
CONTINUOUS
62
252
70
128
10
0.000000
20
0.000000
30
0.000000
71
33
72
59
73
32
0
VERTEX
8
0
6
CONTINUOUS
62
252
70
128
10
0.000000
20
0.000000
30
0.000000
71
32
72
59
73
60
0
VERTEX
8
0
6
CONTINUOUS
62
252
70
128
10
0.000000
20
0.000000
30
0.000000
71
32
72
60
73
31
0
VERTEX
8
0
6
CONTINUOUS
62
252
70
128
10
0.000000
20
0.000000
30
0.000000
71
31
72
60
73
61
0
VERTEX
8
0
6
CONTINUOUS
62
252
70
128
10
0.000000
20
0.000000
30
0.000000
71
31
72
61
73
30
0
VERTEX
8
0
6
CONTINUOUS
62
252
70
128
10
0.000000
20
0.000000
30
0.000000
71
30
72
61
73
62
0
VERTEX
8
0
6
CONTINUOUS
62
252
70
128
10
0.000000
20
0.000000
30
0.000000
71
30
72
62
73
29
0
VERTEX
8
0
6
CONTINUOUS
62
252
70
128
10
0.000000
20
0.000000
30
0.000000
71
29
72
62
73
63
0
VERTEX
8
0
6
CONTINUOUS
62
252
70
128
10
0.000000
20
0.000000
30
0.000000
71
29
72
63
73
28
0
VERTEX
8
0
6
CONTINUOUS
62
252
70
128
10
0.000000
20
0.000000
30
0.000000
71
28
72
63
73
64
0
VERTEX
8
0
6
CONTINUOUS
62
252
70
128
10
0.000000
20
0.000000
30
0.000000
71
28
72
64
73
27
0
VERTEX
8
0
6
CONTINUOUS
62
252
70
128
10
0.000000
20
0.000000
30
0.000000
71
27
72
64
73
65
0
VERTEX
8
0
6
CONTINUOUS
62
252
70
128
10
0.000000
20
0.000000
30
0.000000
71
27
72
65
73
26
0
VERTEX
8
0
6
CONTINUOUS
62
252
70
128
10
0.000000
20
0.000000
30
0.000000
71
26
72
65
73
66
0
VERTEX
8
0
6
CONTINUOUS
62
252
70
128
10
0.000000
20
0.000000
30
0.000000
71
26
72
66
73
25
0
VERTEX
8
0
6
CONTINUOUS
62
252
70
128
10
0.000000
20
0.000000
30
0.000000
71
25
72
66
73
67
0
VERTEX
8
0
6
CONTINUOUS
62
252
70
128
10
0.000000
20
0.000000
30
0.000000
71
25
72
67
73
24
0
VERTEX
8
0
6
CONTINUOUS
62
252
70
128
10
0.000000
20
0.000000
30
0.000000
71
24
72
67
73
68
0
VERTEX
8
0
6
CONTINUOUS
62
252
70
128
10
0.000000
20
0.000000
30
0.000000
71
24
72
68
73
69
0
VERTEX
8
0
6
CONTINUOUS
62
252
70
128
10
0.000000
20
0.000000
30
0.000000
71
54
72
2
73
53
0
VERTEX
8
0
6
CONTINUOUS
62
252
70
128
10
0.000000
20
0.000000
30
0.000000
71
53
72
2
73
3
0
VERTEX
8
0
6
CONTINUOUS
62
252
70
128
10
0.000000
20
0.000000
30
0.000000
71
53
72
3
73
52
0
VERTEX
8
0
6
CONTINUOUS
62
252
70
128
10
0.000000
20
0.000000
30
0.000000
71
52
72
3
73
4
0
VERTEX
8
0
6
CONTINUOUS
62
252
70
128
10
0.000000
20
0.000000
30
0.000000
71
52
72
4
73
51
0
VERTEX
8
0
6
CONTINUOUS
62
252
70
128
10
0.000000
20
0.000000
30
0.000000
71
51
72
4
73
5
0
VERTEX
8
0
6
CONTINUOUS
62
252
70
128
10
0.000000
20
0.000000
30
0.000000
71
51
72
5
73
50
0
VERTEX
8
0
6
CONTINUOUS
62
252
70
128
10
0.000000
20
0.000000
30
0.000000
71
50
72
5
73
6
0
VERTEX
8
0
6
CONTINUOUS
62
252
70
128
10
0.000000
20
0.000000
30
0.000000
71
50
72
6
73
49
0
VERTEX
8
0
6
CONTINUOUS
62
252
70
128
10
0.000000
20
0.000000
30
0.000000
71
49
72
6
73
7
0
VERTEX
8
0
6
CONTINUOUS
62
252
70
128
10
0.000000
20
0.000000
30
0.000000
71
49
72
7
73
48
0
VERTEX
8
0
6
CONTINUOUS
62
252
70
128
10
0.000000
20
0.000000
30
0.000000
71
48
72
7
73
8
0
VERTEX
8
0
6
CONTINUOUS
62
252
70
128
10
0.000000
20
0.000000
30
0.000000
71
48
72
8
73
47
0
VERTEX
8
0
6
CONTINUOUS
62
252
70
128
10
0.000000
20
0.000000
30
0.000000
71
47
72
8
73
9
0
VERTEX
8
0
6
CONTINUOUS
62
252
70
128
10
0.000000
20
0.000000
30
0.000000
71
47
72
9
73
46
0
VERTEX
8
0
6
CONTINUOUS
62
252
70
128
10
0.000000
20
0.000000
30
0.000000
71
46
72
9
73
10
0
VERTEX
8
0
6
CONTINUOUS
62
252
70
128
10
0.000000
20
0.000000
30
0.000000
71
46
72
10
73
45
0
VERTEX
8
0
6
CONTINUOUS
62
252
70
128
10
0.000000
20
0.000000
30
0.000000
71
45
72
10
73
11
0
VERTEX
8
0
6
CONTINUOUS
62
252
70
128
10
0.000000
20
0.000000
30
0.000000
71
45
72
11
73
44
0
VERTEX
8
0
6
CONTINUOUS
62
252
70
128
10
0.000000
20
0.000000
30
0.000000
71
44
72
11
73
12
0
VERTEX
8
0
6
CONTINUOUS
62
252
70
128
10
0.000000
20
0.000000
30
0.000000
71
44
72
12
73
43
0
VERTEX
8
0
6
CONTINUOUS
62
252
70
128
10
0.000000
20
0.000000
30
0.000000
71
43
72
12
73
13
0
VERTEX
8
0
6
CONTINUOUS
62
252
70
128
10
0.000000
20
0.000000
30
0.000000
71
43
72
13
73
42
0
VERTEX
8
0
6
CONTINUOUS
62
252
70
128
10
0.000000
20
0.000000
30
0.000000
71
42
72
13
73
14
0
VERTEX
8
0
6
CONTINUOUS
62
252
70
128
10
0.000000
20
0.000000
30
0.000000
71
42
72
14
73
41
0
VERTEX
8
0
6
CONTINUOUS
62
252
70
128
10
0.000000
20
0.000000
30
0.000000
71
41
72
14
73
15
0
VERTEX
8
0
6
CONTINUOUS
62
252
70
128
10
0.000000
20
0.000000
30
0.000000
71
41
72
15
73
40
0
VERTEX
8
0
6
CONTINUOUS
62
252
70
128
10
0.000000
20
0.000000
30
0.000000
71
40
72
15
73
16
0
VERTEX
8
0
6
CONTINUOUS
62
252
70
128
10
0.000000
20
0.000000
30
0.000000
71
40
72
16
73
39
0
VERTEX
8
0
6
CONTINUOUS
62
252
70
128
10
0.000000
20
0.000000
30
0.000000
71
39
72
16
73
17
0
VERTEX
8
0
6
CONTINUOUS
62
252
70
128
10
0.000000
20
0.000000
30
0.000000
71
39
72
17
73
38
0
VERTEX
8
0
6
CONTINUOUS
62
252
70
128
10
0.000000
20
0.000000
30
0.000000
71
38
72
17
73
18
0
VERTEX
8
0
6
CONTINUOUS
62
252
70
128
10
0.000000
20
0.000000
30
0.000000
71
38
72
18
73
37
0
VERTEX
8
0
6
CONTINUOUS
62
252
70
128
10
0.000000
20
0.000000
30
0.000000
71
37
72
18
73
19
0
VERTEX
8
0
6
CONTINUOUS
62
252
70
128
10
0.000000
20
0.000000
30
0.000000
71
37
72
19
73
72
0
VERTEX
8
0
6
CONTINUOUS
62
252
70
128
10
0.000000
20
0.000000
30
0.000000
71
72
72
19
73
20
0
VERTEX
8
0
6
CONTINUOUS
62
252
70
128
10
0.000000
20
0.000000
30
0.000000
71
72
72
20
73
71
0
VERTEX
8
0
6
CONTINUOUS
62
252
70
128
10
0.000000
20
0.000000
30
0.000000
71
71
72
20
73
21
0
VERTEX
8
0
6
CONTINUOUS
62
252
70
128
10
0.000000
20
0.000000
30
0.000000
71
71
72
21
73
22
0
VERTEX
8
0
6
CONTINUOUS
62
252
70
128
10
0.000000
20
0.000000
30
0.000000
71
71
72
22
73
70
0
VERTEX
8
0
6
CONTINUOUS
62
252
70
128
10
0.000000
20
0.000000
30
0.000000
71
70
72
22
73
23
0
VERTEX
8
0
6
CONTINUOUS
62
252
70
128
10
0.000000
20
0.000000
30
0.000000
71
70
72
23
73
69
0
VERTEX
8
0
6
CONTINUOUS
62
252
70
128
10
0.000000
20
0.000000
30
0.000000
71
69
72
23
73
24
0
SEQEND
0
POLYLINE
66
1
8
0
6
CONTINUOUS
62
252
70
64
75
0
10
0.000000
20
0.000000
30
0.000000
0
VERTEX
8
0
6
CONTINUOUS
62
252
70
192
10
32.700000
20
-13.790044
30
-32.558091
0
VERTEX
8
0
6
CONTINUOUS
62
252
70
192
10
32.700000
20
13.790044
30
-32.558091
0
VERTEX
8
0
6
CONTINUOUS
62
252
70
192
10
0.000000
20
14.019986
30
-33.700000
0
VERTEX
8
0
6
CONTINUOUS
62
252
70
192
10
0.000000
20
-14.019986
30
-33.700000
0
VERTEX
8
0
6
CONTINUOUS
62
252
70
128
10
0.000000
20
0.000000
30
0.000000
71
1
72
2
73
4
0
VERTEX
8
0
6
CONTINUOUS
62
252
70
128
10
0.000000
20
0.000000
30
0.000000
71
4
72
2
73
3
0
SEQEND
0
POLYLINE
66
1
8
0
6
CONTINUOUS
62
252
70
64
75
0
10
0.000000
20
0.000000
30
0.000000
0
VERTEX
8
0
6
CONTINUOUS
62
252
70
192
10
32.700000
20
-32.558091
30
-13.790044
0
VERTEX
8
0
6
CONTINUOUS
62
252
70
192
10
32.700000
20
-30.059324
30
-18.618045
0
VERTEX
8
0
6
CONTINUOUS
62
252
70
192
10
32.700000
20
-26.849983
30
-23.005934
0
VERTEX
8
0
6
CONTINUOUS
62
252
70
192
10
32.700000
20
-23.005934
30
-26.849983
0
VERTEX
8
0
6
CONTINUOUS
62
252
70
192
10
32.700000
20
-18.618045
30
-30.059324
0
VERTEX
8
0
6
CONTINUOUS
62
252
70
192
10
32.700000
20
-13.790044
30
-32.558091
0
VERTEX
8
0
6
CONTINUOUS
62
252
70
192
10
0.000000
20
-14.019986
30
-33.700000
0
VERTEX
8
0
6
CONTINUOUS
62
252
70
192
10
0.000000
20
-19.100015
30
-31.103688
0
VERTEX
8
0
6
CONTINUOUS
62
252
70
192
10
0.000000
20
-23.713422
30
-27.747498
0
VERTEX
8
0
6
CONTINUOUS
62
252
70
192
10
0.000000
20
-27.747498
30
-23.713422
0
VERTEX
8
0
6
CONTINUOUS
62
252
70
192
10
0.000000
20
-31.103688
30
-19.100015
0
VERTEX
8
0
6
CONTINUOUS
62
252
70
192
10
0.000000
20
-33.700000
30
-14.019986
0
VERTEX
8
0
6
CONTINUOUS
62
252
70
128
10
0.000000
20
0.000000
30
0.000000
71
12
72
1
73
11
0
VERTEX
8
0
6
CONTINUOUS
62
252
70
128
10
0.000000
20
0.000000
30
0.000000
71
11
72
1
73
2
0
VERTEX
8
0
6
CONTINUOUS
62
252
70
128
10
0.000000
20
0.000000
30
0.000000
71
11
72
2
73
10
0
VERTEX
8
0
6
CONTINUOUS
62
252
70
128
10
0.000000
20
0.000000
30
0.000000
71
10
72
2
73
3
0
VERTEX
8
0
6
CONTINUOUS
62
252
70
128
10
0.000000
20
0.000000
30
0.000000
71
10
72
3
73
4
0
VERTEX
8
0
6
CONTINUOUS
62
252
70
128
10
0.000000
20
0.000000
30
0.000000
71
10
72
4
73
9
0
VERTEX
8
0
6
CONTINUOUS
62
252
70
128
10
0.000000
20
0.000000
30
0.000000
71
9
72
4
73
5
0
VERTEX
8
0
6
CONTINUOUS
62
252
70
128
10
0.000000
20
0.000000
30
0.000000
71
9
72
5
73
8
0
VERTEX
8
0
6
CONTINUOUS
62
252
70
128
10
0.000000
20
0.000000
30
0.000000
71
8
72
5
73
6
0
VERTEX
8
0
6
CONTINUOUS
62
252
70
128
10
0.000000
20
0.000000
30
0.000000
71
8
72
6
73
7
0
SEQEND
0
POLYLINE
66
1
8
0
6
CONTINUOUS
62
252
70
64
75
0
10
0.000000
20
0.000000
30
0.000000
0
VERTEX
8
0
6
CONTINUOUS
62
252
70
192
10
32.700000
20
-32.558091
30
13.790044
0
VERTEX
8
0
6
CONTINUOUS
62
252
70
192
10
32.700000
20
-32.558091
30
-13.790044
0
VERTEX
8
0
6
CONTINUOUS
62
252
70
192
10
0.000000
20
-33.700000
30
-14.019986
0
VERTEX
8
0
6
CONTINUOUS
62
252
70
192
10
-0.000000
20
-33.700000
30
14.019986
0
VERTEX
8
0
6
CONTINUOUS
62
252
70
128
10
0.000000
20
0.000000
30
0.000000
71
1
72
2
73
4
0
VERTEX
8
0
6
CONTINUOUS
62
252
70
128
10
0.000000
20
0.000000
30
0.000000
71
4
72
2
73
3
0
SEQEND
0
POLYLINE
66
1
8
0
6
CONTINUOUS
62
252
70
64
75
0
10
0.000000
20
0.000000
30
0.000000
0
VERTEX
8
0
6
CONTINUOUS
62
252
70
192
10
32.700000
20
-13.790044
30
32.558091
0
VERTEX
8
0
6
CONTINUOUS
62
252
70
192
10
32.700000
20
-18.618045
30
30.059324
0
VERTEX
8
0
6
CONTINUOUS
62
252
70
192
10
32.700000
20
-23.005934
30
26.849983
0
VERTEX
8
0
6
CONTINUOUS
62
252
70
192
10
32.700000
20
-26.849983
30
23.005934
0
VERTEX
8
0
6
CONTINUOUS
62
252
70
192
10
32.700000
20
-30.059324
30
18.618045
0
VERTEX
8
0
6
CONTINUOUS
62
252
70
192
10
32.700000
20
-32.558091
30
13.790044
0
VERTEX
8
0
6
CONTINUOUS
62
252
70
192
10
-0.000000
20
-33.700000
30
14.019986
0
VERTEX
8
0
6
CONTINUOUS
62
252
70
192
10
-0.000000
20
-31.103688
30
19.100015
0
VERTEX
8
0
6
CONTINUOUS
62
252
70
192
10
-0.000000
20
-27.747498
30
23.713422
0
VERTEX
8
0
6
CONTINUOUS
62
252
70
192
10
-0.000000
20
-23.713422
30
27.747498
0
VERTEX
8
0
6
CONTINUOUS
62
252
70
192
10
-0.000000
20
-19.100015
30
31.103688
0
VERTEX
8
0
6
CONTINUOUS
62
252
70
192
10
-0.000000
20
-14.019986
30
33.700000
0
VERTEX
8
0
6
CONTINUOUS
62
252
70
128
10
0.000000
20
0.000000
30
0.000000
71
12
72
1
73
11
0
VERTEX
8
0
6
CONTINUOUS
62
252
70
128
10
0.000000
20
0.000000
30
0.000000
71
11
72
1
73
2
0
VERTEX
8
0
6
CONTINUOUS
62
252
70
128
10
0.000000
20
0.000000
30
0.000000
71
11
72
2
73
10
0
VERTEX
8
0
6
CONTINUOUS
62
252
70
128
10
0.000000
20
0.000000
30
0.000000
71
10
72
2
73
3
0
VERTEX
8
0
6
CONTINUOUS
62
252
70
128
10
0.000000
20
0.000000
30
0.000000
71
10
72
3
73
4
0
VERTEX
8
0
6
CONTINUOUS
62
252
70
128
10
0.000000
20
0.000000
30
0.000000
71
10
72
4
73
9
0
VERTEX
8
0
6
CONTINUOUS
62
252
70
128
10
0.000000
20
0.000000
30
0.000000
71
9
72
4
73
5
0
VERTEX
8
0
6
CONTINUOUS
62
252
70
128
10
0.000000
20
0.000000
30
0.000000
71
9
72
5
73
8
0
VERTEX
8
0
6
CONTINUOUS
62
252
70
128
10
0.000000
20
0.000000
30
0.000000
71
8
72
5
73
6
0
VERTEX
8
0
6
CONTINUOUS
62
252
70
128
10
0.000000
20
0.000000
30
0.000000
71
8
72
6
73
7
0
SEQEND
0
POLYLINE
66
1
8
0
6
CONTINUOUS
62
252
70
64
75
0
10
0.000000
20
0.000000
30
0.000000
0
VERTEX
8
0
6
CONTINUOUS
62
252
70
192
10
32.700000
20
13.790044
30
32.558091
0
VERTEX
8
0
6
CONTINUOUS
62
252
70
192
10
32.700000
20
-13.790044
30
32.558091
0
VERTEX
8
0
6
CONTINUOUS
62
252
70
192
10
-0.000000
20
-14.019986
30
33.700000
0
VERTEX
8
0
6
CONTINUOUS
62
252
70
192
10
-0.000000
20
14.019986
30
33.700000
0
VERTEX
8
0
6
CONTINUOUS
62
252
70
128
10
0.000000
20
0.000000
30
0.000000
71
2
72
3
73
1
0
VERTEX
8
0
6
CONTINUOUS
62
252
70
128
10
0.000000
20
0.000000
30
0.000000
71
1
72
3
73
4
0
SEQEND
0
POLYLINE
66
1
8
0
6
CONTINUOUS
62
252
70
64
75
0
10
0.000000
20
0.000000
30
0.000000
0
VERTEX
8
0
6
CONTINUOUS
62
252
70
192
10
32.700000
20
32.558091
30
13.790044
0
VERTEX
8
0
6
CONTINUOUS
62
252
70
192
10
32.700000
20
30.059324
30
18.618045
0
VERTEX
8
0
6
CONTINUOUS
62
252
70
192
10
32.700000
20
26.849983
30
23.005934
0
VERTEX
8
0
6
CONTINUOUS
62
252
70
192
10
32.700000
20
23.005934
30
26.849983
0
VERTEX
8
0
6
CONTINUOUS
62
252
70
192
10
32.700000
20
18.618045
30
30.059324
0
VERTEX
8
0
6
CONTINUOUS
62
252
70
192
10
32.700000
20
13.790044
30
32.558091
0
VERTEX
8
0
6
CONTINUOUS
62
252
70
192
10
-0.000000
20
14.019986
30
33.700000
0
VERTEX
8
0
6
CONTINUOUS
62
252
70
192
10
-0.000000
20
19.100015
30
31.103688
0
VERTEX
8
0
6
CONTINUOUS
62
252
70
192
10
-0.000000
20
23.713422
30
27.747498
0
VERTEX
8
0
6
CONTINUOUS
62
252
70
192
10
-0.000000
20
27.747498
30
23.713422
0
VERTEX
8
0
6
CONTINUOUS
62
252
70
192
10
-0.000000
20
31.103688
30
19.100015
0
VERTEX
8
0
6
CONTINUOUS
62
252
70
192
10
-0.000000
20
33.700000
30
14.019986
0
VERTEX
8
0
6
CONTINUOUS
62
252
70
128
10
0.000000
20
0.000000
30
0.000000
71
12
72
1
73
11
0
VERTEX
8
0
6
CONTINUOUS
62
252
70
128
10
0.000000
20
0.000000
30
0.000000
71
11
72
1
73
2
0
VERTEX
8
0
6
CONTINUOUS
62
252
70
128
10
0.000000
20
0.000000
30
0.000000
71
11
72
2
73
10
0
VERTEX
8
0
6
CONTINUOUS
62
252
70
128
10
0.000000
20
0.000000
30
0.000000
71
10
72
2
73
3
0
VERTEX
8
0
6
CONTINUOUS
62
252
70
128
10
0.000000
20
0.000000
30
0.000000
71
10
72
3
73
9
0
VERTEX
8
0
6
CONTINUOUS
62
252
70
128
10
0.000000
20
0.000000
30
0.000000
71
9
72
3
73
4
0
VERTEX
8
0
6
CONTINUOUS
62
252
70
128
10
0.000000
20
0.000000
30
0.000000
71
9
72
4
73
5
0
VERTEX
8
0
6
CONTINUOUS
62
252
70
128
10
0.000000
20
0.000000
30
0.000000
71
9
72
5
73
8
0
VERTEX
8
0
6
CONTINUOUS
62
252
70
128
10
0.000000
20
0.000000
30
0.000000
71
8
72
5
73
6
0
VERTEX
8
0
6
CONTINUOUS
62
252
70
128
10
0.000000
20
0.000000
30
0.000000
71
8
72
6
73
7
0
SEQEND
0
POLYLINE
66
1
8
0
6
CONTINUOUS
62
252
70
64
75
0
10
0.000000
20
0.000000
30
0.000000
0
VERTEX
8
0
6
CONTINUOUS
62
252
70
192
10
32.700000
20
32.558091
30
-13.790044
0
VERTEX
8
0
6
CONTINUOUS
62
252
70
192
10
32.700000
20
32.558091
30
13.790044
0
VERTEX
8
0
6
CONTINUOUS
62
252
70
192
10
-0.000000
20
33.700000
30
14.019986
0
VERTEX
8
0
6
CONTINUOUS
62
252
70
192
10
0.000000
20
33.700000
30
-14.019986
0
VERTEX
8
0
6
CONTINUOUS
62
252
70
128
10
0.000000
20
0.000000
30
0.000000
71
1
72
2
73
4
0
VERTEX
8
0
6
CONTINUOUS
62
252
70
128
10
0.000000
20
0.000000
30
0.000000
71
4
72
2
73
3
0
SEQEND
0
POLYLINE
66
1
8
0
6
CONTINUOUS
62
252
70
64
75
0
10
0.000000
20
0.000000
30
0.000000
0
VERTEX
8
0
6
CONTINUOUS
62
252
70
192
10
32.700000
20
13.790044
30
-32.558091
0
VERTEX
8
0
6
CONTINUOUS
62
252
70
192
10
32.700000
20
18.618045
30
-30.059324
0
VERTEX
8
0
6
CONTINUOUS
62
252
70
192
10
32.700000
20
23.005934
30
-26.849983
0
VERTEX
8
0
6
CONTINUOUS
62
252
70
192
10
32.700000
20
26.849983
30
-23.005934
0
VERTEX
8
0
6
CONTINUOUS
62
252
70
192
10
32.700000
20
30.059324
30
-18.618045
0
VERTEX
8
0
6
CONTINUOUS
62
252
70
192
10
32.700000
20
32.558091
30
-13.790044
0
VERTEX
8
0
6
CONTINUOUS
62
252
70
192
10
0.000000
20
33.700000
30
-14.019986
0
VERTEX
8
0
6
CONTINUOUS
62
252
70
192
10
0.000000
20
31.103688
30
-19.100015
0
VERTEX
8
0
6
CONTINUOUS
62
252
70
192
10
0.000000
20
27.747498
30
-23.713422
0
VERTEX
8
0
6
CONTINUOUS
62
252
70
192
10
0.000000
20
23.713422
30
-27.747498
0
VERTEX
8
0
6
CONTINUOUS
62
252
70
192
10
0.000000
20
19.100015
30
-31.103688
0
VERTEX
8
0
6
CONTINUOUS
62
252
70
192
10
0.000000
20
14.019986
30
-33.700000
0
VERTEX
8
0
6
CONTINUOUS
62
252
70
128
10
0.000000
20
0.000000
30
0.000000
71
12
72
1
73
11
0
VERTEX
8
0
6
CONTINUOUS
62
252
70
128
10
0.000000
20
0.000000
30
0.000000
71
11
72
1
73
2
0
VERTEX
8
0
6
CONTINUOUS
62
252
70
128
10
0.000000
20
0.000000
30
0.000000
71
11
72
2
73
10
0
VERTEX
8
0
6
CONTINUOUS
62
252
70
128
10
0.000000
20
0.000000
30
0.000000
71
10
72
2
73
3
0
VERTEX
8
0
6
CONTINUOUS
62
252
70
128
10
0.000000
20
0.000000
30
0.000000
71
10
72
3
73
4
0
VERTEX
8
0
6
CONTINUOUS
62
252
70
128
10
0.000000
20
0.000000
30
0.000000
71
10
72
4
73
9
0
VERTEX
8
0
6
CONTINUOUS
62
252
70
128
10
0.000000
20
0.000000
30
0.000000
71
9
72
4
73
5
0
VERTEX
8
0
6
CONTINUOUS
62
252
70
128
10
0.000000
20
0.000000
30
0.000000
71
9
72
5
73
8
0
VERTEX
8
0
6
CONTINUOUS
62
252
70
128
10
0.000000
20
0.000000
30
0.000000
71
8
72
5
73
6
0
VERTEX
8
0
6
CONTINUOUS
62
252
70
128
10
0.000000
20
0.000000
30
0.000000
71
8
72
6
73
7
0
SEQEND
0
POLYLINE
66
1
8
0
6
CONTINUOUS
62
252
70
64
75
0
10
0.000000
20
0.000000
30
0.000000
0
VERTEX
8
0
6
CONTINUOUS
62
252
70
192
10
32.700000
20
-0.000000
30
7.000000
0
VERTEX
8
0
6
CONTINUOUS
62
252
70
192
10
32.700000
20
-1.215537
30
6.893654
0
VERTEX
8
0
6
CONTINUOUS
62
252
70
192
10
32.700000
20
-2.394141
30
6.577848
0
VERTEX
8
0
6
CONTINUOUS
62
252
70
192
10
32.700000
20
-3.500000
30
6.062178
0
VERTEX
8
0
6
CONTINUOUS
62
252
70
192
10
32.700000
20
-4.499513
30
5.362311
0
VERTEX
8
0
6
CONTINUOUS
62
252
70
192
10
32.700000
20
-5.362311
30
4.499513
0
VERTEX
8
0
6
CONTINUOUS
62
252
70
192
10
32.700000
20
-6.062178
30
3.500000
0
VERTEX
8
0
6
CONTINUOUS
62
252
70
192
10
32.700000
20
-6.577848
30
2.394141
0
VERTEX
8
0
6
CONTINUOUS
62
252
70
192
10
32.700000
20
-6.893654
30
1.215537
0
VERTEX
8
0
6
CONTINUOUS
62
252
70
192
10
32.700000
20
-7.000000
30
0.000000
0
VERTEX
8
0
6
CONTINUOUS
62
252
70
192
10
32.700000
20
-6.893654
30
-1.215537
0
VERTEX
8
0
6
CONTINUOUS
62
252
70
192
10
32.700000
20
-6.577848
30
-2.394141
0
VERTEX
8
0
6
CONTINUOUS
62
252
70
192
10
32.700000
20
-6.062178
30
-3.500000
0
VERTEX
8
0
6
CONTINUOUS
62
252
70
192
10
32.700000
20
-5.362311
30
-4.499513
0
VERTEX
8
0
6
CONTINUOUS
62
252
70
192
10
32.700000
20
-4.499513
30
-5.362311
0
VERTEX
8
0
6
CONTINUOUS
62
252
70
192
10
32.700000
20
-3.500000
30
-6.062178
0
VERTEX
8
0
6
CONTINUOUS
62
252
70
192
10
32.700000
20
-2.394141
30
-6.577848
0
VERTEX
8
0
6
CONTINUOUS
62
252
70
192
10
32.700000
20
-1.215537
30
-6.893654
0
VERTEX
8
0
6
CONTINUOUS
62
252
70
192
10
32.700000
20
0.000000
30
-7.000000
0
VERTEX
8
0
6
CONTINUOUS
62
252
70
192
10
32.700000
20
1.215537
30
-6.893654
0
VERTEX
8
0
6
CONTINUOUS
62
252
70
192
10
32.700000
20
2.394141
30
-6.577848
0
VERTEX
8
0
6
CONTINUOUS
62
252
70
192
10
32.700000
20
3.500000
30
-6.062178
0
VERTEX
8
0
6
CONTINUOUS
62
252
70
192
10
32.700000
20
4.499513
30
-5.362311
0
VERTEX
8
0
6
CONTINUOUS
62
252
70
192
10
32.700000
20
5.362311
30
-4.499513
0
VERTEX
8
0
6
CONTINUOUS
62
252
70
192
10
32.700000
20
6.062178
30
-3.500000
0
VERTEX
8
0
6
CONTINUOUS
62
252
70
192
10
32.700000
20
6.577848
30
-2.394141
0
VERTEX
8
0
6
CONTINUOUS
62
252
70
192
10
32.700000
20
6.893654
30
-1.215537
0
VERTEX
8
0
6
CONTINUOUS
62
252
70
192
10
32.700000
20
7.000000
30
0.000000
0
VERTEX
8
0
6
CONTINUOUS
62
252
70
192
10
32.700000
20
6.893654
30
1.215537
0
VERTEX
8
0
6
CONTINUOUS
62
252
70
192
10
32.700000
20
6.577848
30
2.394141
0
VERTEX
8
0
6
CONTINUOUS
62
252
70
192
10
32.700000
20
6.062178
30
3.500000
0
VERTEX
8
0
6
CONTINUOUS
62
252
70
192
10
32.700000
20
5.362311
30
4.499513
0
VERTEX
8
0
6
CONTINUOUS
62
252
70
192
10
32.700000
20
4.499513
30
5.362311
0
VERTEX
8
0
6
CONTINUOUS
62
252
70
192
10
32.700000
20
3.500000
30
6.062178
0
VERTEX
8
0
6
CONTINUOUS
62
252
70
192
10
32.700000
20
2.394141
30
6.577848
0
VERTEX
8
0
6
CONTINUOUS
62
252
70
192
10
32.700000
20
1.215537
30
6.893654
0
VERTEX
8
0
6
CONTINUOUS
62
252
70
192
10
32.700000
20
13.790044
30
-32.558091
0
VERTEX
8
0
6
CONTINUOUS
62
252
70
192
10
32.700000
20
-13.790044
30
-32.558091
0
VERTEX
8
0
6
CONTINUOUS
62
252
70
192
10
32.700000
20
-18.618045
30
-30.059324
0
VERTEX
8
0
6
CONTINUOUS
62
252
70
192
10
32.700000
20
-23.005934
30
-26.849983
0
VERTEX
8
0
6
CONTINUOUS
62
252
70
192
10
32.700000
20
-26.849983
30
-23.005934
0
VERTEX
8
0
6
CONTINUOUS
62
252
70
192
10
32.700000
20
-30.059324
30
-18.618045
0
VERTEX
8
0
6
CONTINUOUS
62
252
70
192
10
32.700000
20
-32.558091
30
-13.790044
0
VERTEX
8
0
6
CONTINUOUS
62
252
70
192
10
32.700000
20
-32.558091
30
13.790044
0
VERTEX
8
0
6
CONTINUOUS
62
252
70
192
10
32.700000
20
-30.059324
30
18.618045
0
VERTEX
8
0
6
CONTINUOUS
62
252
70
192
10
32.700000
20
-26.849983
30
23.005934
0
VERTEX
8
0
6
CONTINUOUS
62
252
70
192
10
32.700000
20
-23.005934
30
26.849983
0
VERTEX
8
0
6
CONTINUOUS
62
252
70
192
10
32.700000
20
-18.618045
30
30.059324
0
VERTEX
8
0
6
CONTINUOUS
62
252
70
192
10
32.700000
20
-13.790044
30
32.558091
0
VERTEX
8
0
6
CONTINUOUS
62
252
70
192
10
32.700000
20
13.790044
30
32.558091
0
VERTEX
8
0
6
CONTINUOUS
62
252
70
192
10
32.700000
20
18.618045
30
30.059324
0
VERTEX
8
0
6
CONTINUOUS
62
252
70
192
10
32.700000
20
23.005934
30
26.849983
0
VERTEX
8
0
6
CONTINUOUS
62
252
70
192
10
32.700000
20
26.849983
30
23.005934
0
VERTEX
8
0
6
CONTINUOUS
62
252
70
192
10
32.700000
20
30.059324
30
18.618045
0
VERTEX
8
0
6
CONTINUOUS
62
252
70
192
10
32.700000
20
32.558091
30
13.790044
0
VERTEX
8
0
6
CONTINUOUS
62
252
70
192
10
32.700000
20
32.558091
30
-13.790044
0
VERTEX
8
0
6
CONTINUOUS
62
252
70
192
10
32.700000
20
30.059324
30
-18.618045
0
VERTEX
8
0
6
CONTINUOUS
62
252
70
192
10
32.700000
20
26.849983
30
-23.005934
0
VERTEX
8
0
6
CONTINUOUS
62
252
70
192
10
32.700000
20
23.005934
30
-26.849983
0
VERTEX
8
0
6
CONTINUOUS
62
252
70
192
10
32.700000
20
18.618045
30
-30.059324
0
VERTEX
8
0
6
CONTINUOUS
62
252
70
128
10
0.000000
20
0.000000
30
0.000000
71
2
72
49
73
1
0
VERTEX
8
0
6
CONTINUOUS
62
252
70
128
10
0.000000
20
0.000000
30
0.000000
71
1
72
49
73
50
0
VERTEX
8
0
6
CONTINUOUS
62
252
70
128
10
0.000000
20
0.000000
30
0.000000
71
1
72
50
73
36
0
VERTEX
8
0
6
CONTINUOUS
62
252
70
128
10
0.000000
20
0.000000
30
0.000000
71
36
72
50
73
35
0
VERTEX
8
0
6
CONTINUOUS
62
252
70
128
10
0.000000
20
0.000000
30
0.000000
71
35
72
50
73
34
0
VERTEX
8
0
6
CONTINUOUS
62
252
70
128
10
0.000000
20
0.000000
30
0.000000
71
34
72
50
73
51
0
VERTEX
8
0
6
CONTINUOUS
62
252
70
128
10
0.000000
20
0.000000
30
0.000000
71
34
72
51
73
33
0
VERTEX
8
0
6
CONTINUOUS
62
252
70
128
10
0.000000
20
0.000000
30
0.000000
71
33
72
51
73
52
0
VERTEX
8
0
6
CONTINUOUS
62
252
70
128
10
0.000000
20
0.000000
30
0.000000
71
33
72
52
73
53
0
VERTEX
8
0
6
CONTINUOUS
62
252
70
128
10
0.000000
20
0.000000
30
0.000000
71
2
72
3
73
49
0
VERTEX
8
0
6
CONTINUOUS
62
252
70
128
10
0.000000
20
0.000000
30
0.000000
71
49
72
3
73
4
0
VERTEX
8
0
6
CONTINUOUS
62
252
70
128
10
0.000000
20
0.000000
30
0.000000
71
49
72
4
73
48
0
VERTEX
8
0
6
CONTINUOUS
62
252
70
128
10
0.000000
20
0.000000
30
0.000000
71
48
72
4
73
5
0
VERTEX
8
0
6
CONTINUOUS
62
252
70
128
10
0.000000
20
0.000000
30
0.000000
71
48
72
5
73
47
0
VERTEX
8
0
6
CONTINUOUS
62
252
70
128
10
0.000000
20
0.000000
30
0.000000
71
47
72
5
73
6
0
VERTEX
8
0
6
CONTINUOUS
62
252
70
128
10
0.000000
20
0.000000
30
0.000000
71
47
72
6
73
46
0
VERTEX
8
0
6
CONTINUOUS
62
252
70
128
10
0.000000
20
0.000000
30
0.000000
71
46
72
6
73
45
0
VERTEX
8
0
6
CONTINUOUS
62
252
70
128
10
0.000000
20
0.000000
30
0.000000
71
45
72
6
73
7
0
VERTEX
8
0
6
CONTINUOUS
62
252
70
128
10
0.000000
20
0.000000
30
0.000000
71
45
72
7
73
44
0
VERTEX
8
0
6
CONTINUOUS
62
252
70
128
10
0.000000
20
0.000000
30
0.000000
71
44
72
7
73
8
0
VERTEX
8
0
6
CONTINUOUS
62
252
70
128
10
0.000000
20
0.000000
30
0.000000
71
44
72
8
73
9
0
VERTEX
8
0
6
CONTINUOUS
62
252
70
128
10
0.000000
20
0.000000
30
0.000000
71
9
72
10
73
44
0
VERTEX
8
0
6
CONTINUOUS
62
252
70
128
10
0.000000
20
0.000000
30
0.000000
71
44
72
10
73
43
0
VERTEX
8
0
6
CONTINUOUS
62
252
70
128
10
0.000000
20
0.000000
30
0.000000
71
43
72
10
73
11
0
VERTEX
8
0
6
CONTINUOUS
62
252
70
128
10
0.000000
20
0.000000
30
0.000000
71
43
72
11
73
12
0
VERTEX
8
0
6
CONTINUOUS
62
252
70
128
10
0.000000
20
0.000000
30
0.000000
71
12
72
13
73
43
0
VERTEX
8
0
6
CONTINUOUS
62
252
70
128
10
0.000000
20
0.000000
30
0.000000
71
43
72
13
73
42
0
VERTEX
8
0
6
CONTINUOUS
62
252
70
128
10
0.000000
20
0.000000
30
0.000000
71
42
72
13
73
14
0
VERTEX
8
0
6
CONTINUOUS
62
252
70
128
10
0.000000
20
0.000000
30
0.000000
71
42
72
14
73
41
0
VERTEX
8
0
6
CONTINUOUS
62
252
70
128
10
0.000000
20
0.000000
30
0.000000
71
41
72
14
73
40
0
VERTEX
8
0
6
CONTINUOUS
62
252
70
128
10
0.000000
20
0.000000
30
0.000000
71
40
72
14
73
15
0
VERTEX
8
0
6
CONTINUOUS
62
252
70
128
10
0.000000
20
0.000000
30
0.000000
71
40
72
15
73
39
0
VERTEX
8
0
6
CONTINUOUS
62
252
70
128
10
0.000000
20
0.000000
30
0.000000
71
39
72
15
73
16
0
VERTEX
8
0
6
CONTINUOUS
62
252
70
128
10
0.000000
20
0.000000
30
0.000000
71
39
72
16
73
38
0
VERTEX
8
0
6
CONTINUOUS
62
252
70
128
10
0.000000
20
0.000000
30
0.000000
71
38
72
16
73
17
0
VERTEX
8
0
6
CONTINUOUS
62
252
70
128
10
0.000000
20
0.000000
30
0.000000
71
38
72
17
73
18
0
VERTEX
8
0
6
CONTINUOUS
62
252
70
128
10
0.000000
20
0.000000
30
0.000000
71
18
72
19
73
38
0
VERTEX
8
0
6
CONTINUOUS
62
252
70
128
10
0.000000
20
0.000000
30
0.000000
71
38
72
19
73
37
0
VERTEX
8
0
6
CONTINUOUS
62
252
70
128
10
0.000000
20
0.000000
30
0.000000
71
37
72
19
73
20
0
VERTEX
8
0
6
CONTINUOUS
62
252
70
128
10
0.000000
20
0.000000
30
0.000000
71
37
72
20
73
21
0
VERTEX
8
0
6
CONTINUOUS
62
252
70
128
10
0.000000
20
0.000000
30
0.000000
71
21
72
22
73
37
0
VERTEX
8
0
6
CONTINUOUS
62
252
70
128
10
0.000000
20
0.000000
30
0.000000
71
37
72
22
73
60
0
VERTEX
8
0
6
CONTINUOUS
62
252
70
128
10
0.000000
20
0.000000
30
0.000000
71
60
72
22
73
23
0
VERTEX
8
0
6
CONTINUOUS
62
252
70
128
10
0.000000
20
0.000000
30
0.000000
71
60
72
23
73
59
0
VERTEX
8
0
6
CONTINUOUS
62
252
70
128
10
0.000000
20
0.000000
30
0.000000
71
59
72
23
73
24
0
VERTEX
8
0
6
CONTINUOUS
62
252
70
128
10
0.000000
20
0.000000
30
0.000000
71
59
72
24
73
58
0
VERTEX
8
0
6
CONTINUOUS
62
252
70
128
10
0.000000
20
0.000000
30
0.000000
71
58
72
24
73
57
0
VERTEX
8
0
6
CONTINUOUS
62
252
70
128
10
0.000000
20
0.000000
30
0.000000
71
57
72
24
73
25
0
VERTEX
8
0
6
CONTINUOUS
62
252
70
128
10
0.000000
20
0.000000
30
0.000000
71
57
72
25
73
56
0
VERTEX
8
0
6
CONTINUOUS
62
252
70
128
10
0.000000
20
0.000000
30
0.000000
71
56
72
25
73
26
0
VERTEX
8
0
6
CONTINUOUS
62
252
70
128
10
0.000000
20
0.000000
30
0.000000
71
56
72
26
73
27
0
VERTEX
8
0
6
CONTINUOUS
62
252
70
128
10
0.000000
20
0.000000
30
0.000000
71
27
72
28
73
56
0
VERTEX
8
0
6
CONTINUOUS
62
252
70
128
10
0.000000
20
0.000000
30
0.000000
71
56
72
28
73
55
0
VERTEX
8
0
6
CONTINUOUS
62
252
70
128
10
0.000000
20
0.000000
30
0.000000
71
55
72
28
73
29
0
VERTEX
8
0
6
CONTINUOUS
62
252
70
128
10
0.000000
20
0.000000
30
0.000000
71
55
72
29
73
30
0
VERTEX
8
0
6
CONTINUOUS
62
252
70
128
10
0.000000
20
0.000000
30
0.000000
71
30
72
31
73
55
0
VERTEX
8
0
6
CONTINUOUS
62
252
70
128
10
0.000000
20
0.000000
30
0.000000
71
55
72
31
73
54
0
VERTEX
8
0
6
CONTINUOUS
62
252
70
128
10
0.000000
20
0.000000
30
0.000000
71
54
72
31
73
32
0
VERTEX
8
0
6
CONTINUOUS
62
252
70
128
10
0.000000
20
0.000000
30
0.000000
71
54
72
32
73
53
0
VERTEX
8
0
6
CONTINUOUS
62
252
70
128
10
0.000000
20
0.000000
30
0.000000
71
53
72
32
73
33
0
SEQEND
0
POLYLINE
66
1
8
0
6
CONTINUOUS
62
252
70
64
75
0
10
0.000000
20
0.000000
30
0.000000
0
VERTEX
8
0
6
CONTINUOUS
62
252
70
192
10
1.200000
20
36.133157
30
36.133157
0
VERTEX
8
0
6
CONTINUOUS
62
252
70
192
10
1.200000
20
35.585682
30
36.592542
0
VERTEX
8
0
6
CONTINUOUS
62
252
70
192
10
1.200000
20
34.966754
30
36.949881
0
VERTEX
8
0
6
CONTINUOUS
62
252
70
192
10
1.200000
20
34.295177
30
37.194315
0
VERTEX
8
0
6
CONTINUOUS
62
252
70
192
10
1.200000
20
33.591357
30
37.318417
0
VERTEX
8
0
6
CONTINUOUS
62
252
70
192
10
1.200000
20
32.876680
30
37.318417
0
VERTEX
8
0
6
CONTINUOUS
62
252
70
192
10
1.200000
20
32.172861
30
37.194315
0
VERTEX
8
0
6
CONTINUOUS
62
252
70
192
10
1.200000
20
31.501284
30
36.949881
0
VERTEX
8
0
6
CONTINUOUS
62
252
70
192
10
1.200000
20
30.882355
30
36.592542
0
VERTEX
8
0
6
CONTINUOUS
62
252
70
192
10
1.200000
20
30.334881
30
36.133157
0
VERTEX
8
0
6
CONTINUOUS
62
252
70
192
10
1.200000
20
29.875495
30
35.585682
0
VERTEX
8
0
6
CONTINUOUS
62
252
70
192
10
1.200000
20
29.518157
30
34.966754
0
VERTEX
8
0
6
CONTINUOUS
62
252
70
192
10
1.200000
20
29.273723
30
34.295177
0
VERTEX
8
0
6
CONTINUOUS
62
252
70
192
10
1.200000
20
29.149620
30
33.591357
0
VERTEX
8
0
6
CONTINUOUS
62
252
70
192
10
1.200000
20
29.149620
30
32.876680
0
VERTEX
8
0
6
CONTINUOUS
62
252
70
192
10
1.200000
20
29.273723
30
32.172861
0
VERTEX
8
0
6
CONTINUOUS
62
252
70
192
10
1.200000
20
29.518157
30
31.501284
0
VERTEX
8
0
6
CONTINUOUS
62
252
70
192
10
1.200000
20
29.875495
30
30.882355
0
VERTEX
8
0
6
CONTINUOUS
62
252
70
192
10
1.200000
20
30.334881
30
30.334881
0
VERTEX
8
0
6
CONTINUOUS
62
252
70
192
10
1.200000
20
30.882355
30
29.875495
0
VERTEX
8
0
6
CONTINUOUS
62
252
70
192
10
1.200000
20
31.501284
30
29.518157
0
VERTEX
8
0
6
CONTINUOUS
62
252
70
192
10
1.200000
20
32.172861
30
29.273723
0
VERTEX
8
0
6
CONTINUOUS
62
252
70
192
10
1.200000
20
32.876680
30
29.149620
0
VERTEX
8
0
6
CONTINUOUS
62
252
70
192
10
1.200000
20
33.591357
30
29.149620
0
VERTEX
8
0
6
CONTINUOUS
62
252
70
192
10
1.200000
20
34.295177
30
29.273723
0
VERTEX
8
0
6
CONTINUOUS
62
252
70
192
10
1.200000
20
34.966754
30
29.518157
0
VERTEX
8
0
6
CONTINUOUS
62
252
70
192
10
1.200000
20
35.585682
30
29.875495
0
VERTEX
8
0
6
CONTINUOUS
62
252
70
192
10
1.200000
20
36.133157
30
30.334881
0
VERTEX
8
0
6
CONTINUOUS
62
252
70
192
10
1.200000
20
36.592542
30
30.882355
0
VERTEX
8
0
6
CONTINUOUS
62
252
70
192
10
1.200000
20
36.949881
30
31.501284
0
VERTEX
8
0
6
CONTINUOUS
62
252
70
192
10
1.200000
20
37.194315
30
32.172861
0
VERTEX
8
0
6
CONTINUOUS
62
252
70
192
10
1.200000
20
37.318417
30
32.876680
0
VERTEX
8
0
6
CONTINUOUS
62
252
70
192
10
1.200000
20
37.318417
30
33.591357
0
VERTEX
8
0
6
CONTINUOUS
62
252
70
192
10
1.200000
20
37.194315
30
34.295177
0
VERTEX
8
0
6
CONTINUOUS
62
252
70
192
10
1.200000
20
36.949881
30
34.966754
0
VERTEX
8
0
6
CONTINUOUS
62
252
70
192
10
1.200000
20
36.592542
30
35.585682
0
VERTEX
8
0
6
CONTINUOUS
62
252
70
192
10
-0.000000
20
30.334881
30
30.334881
0
VERTEX
8
0
6
CONTINUOUS
62
252
70
192
10
-0.000000
20
29.875495
30
30.882355
0
VERTEX
8
0
6
CONTINUOUS
62
252
70
192
10
-0.000000
20
29.518157
30
31.501284
0
VERTEX
8
0
6
CONTINUOUS
62
252
70
192
10
-0.000000
20
29.273723
30
32.172861
0
VERTEX
8
0
6
CONTINUOUS
62
252
70
192
10
-0.000000
20
29.149620
30
32.876680
0
VERTEX
8
0
6
CONTINUOUS
62
252
70
192
10
-0.000000
20
29.149620
30
33.591357
0
VERTEX
8
0
6
CONTINUOUS
62
252
70
192
10
-0.000000
20
29.273723
30
34.295177
0
VERTEX
8
0
6
CONTINUOUS
62
252
70
192
10
-0.000000
20
29.518157
30
34.966754
0
VERTEX
8
0
6
CONTINUOUS
62
252
70
192
10
-0.000000
20
29.875495
30
35.585682
0
VERTEX
8
0
6
CONTINUOUS
62
252
70
192
10
-0.000000
20
30.334881
30
36.133157
0
VERTEX
8
0
6
CONTINUOUS
62
252
70
192
10
-0.000000
20
30.882355
30
36.592542
0
VERTEX
8
0
6
CONTINUOUS
62
252
70
192
10
-0.000000
20
31.501284
30
36.949881
0
VERTEX
8
0
6
CONTINUOUS
62
252
70
192
10
-0.000000
20
32.172861
30
37.194315
0
VERTEX
8
0
6
CONTINUOUS
62
252
70
192
10
-0.000000
20
32.876680
30
37.318417
0
VERTEX
8
0
6
CONTINUOUS
62
252
70
192
10
-0.000000
20
33.591357
30
37.318417
0
VERTEX
8
0
6
CONTINUOUS
62
252
70
192
10
-0.000000
20
34.295177
30
37.194315
0
VERTEX
8
0
6
CONTINUOUS
62
252
70
192
10
-0.000000
20
34.966754
30
36.949881
0
VERTEX
8
0
6
CONTINUOUS
62
252
70
192
10
-0.000000
20
35.585682
30
36.592542
0
VERTEX
8
0
6
CONTINUOUS
62
252
70
192
10
-0.000000
20
36.133157
30
36.133157
0
VERTEX
8
0
6
CONTINUOUS
62
252
70
192
10
-0.000000
20
36.592542
30
35.585682
0
VERTEX
8
0
6
CONTINUOUS
62
252
70
192
10
-0.000000
20
36.949881
30
34.966754
0
VERTEX
8
0
6
CONTINUOUS
62
252
70
192
10
-0.000000
20
37.194315
30
34.295177
0
VERTEX
8
0
6
CONTINUOUS
62
252
70
192
10
-0.000000
20
37.318417
30
33.591357
0
VERTEX
8
0
6
CONTINUOUS
62
252
70
192
10
-0.000000
20
37.318417
30
32.876680
0
VERTEX
8
0
6
CONTINUOUS
62
252
70
192
10
-0.000000
20
37.194315
30
32.172861
0
VERTEX
8
0
6
CONTINUOUS
62
252
70
192
10
-0.000000
20
36.949881
30
31.501284
0
VERTEX
8
0
6
CONTINUOUS
62
252
70
192
10
-0.000000
20
36.592542
30
30.882355
0
VERTEX
8
0
6
CONTINUOUS
62
252
70
192
10
-0.000000
20
36.133157
30
30.334881
0
VERTEX
8
0
6
CONTINUOUS
62
252
70
192
10
-0.000000
20
35.585682
30
29.875495
0
VERTEX
8
0
6
CONTINUOUS
62
252
70
192
10
-0.000000
20
34.966754
30
29.518157
0
VERTEX
8
0
6
CONTINUOUS
62
252
70
192
10
-0.000000
20
34.295177
30
29.273723
0
VERTEX
8
0
6
CONTINUOUS
62
252
70
192
10
-0.000000
20
33.591357
30
29.149620
0
VERTEX
8
0
6
CONTINUOUS
62
252
70
192
10
-0.000000
20
32.876680
30
29.149620
0
VERTEX
8
0
6
CONTINUOUS
62
252
70
192
10
-0.000000
20
32.172861
30
29.273723
0
VERTEX
8
0
6
CONTINUOUS
62
252
70
192
10
-0.000000
20
31.501284
30
29.518157
0
VERTEX
8
0
6
CONTINUOUS
62
252
70
192
10
-0.000000
20
30.882355
30
29.875495
0
VERTEX
8
0
6
CONTINUOUS
62
252
70
128
10
0.000000
20
0.000000
30
0.000000
71
2
72
54
73
1
0
VERTEX
8
0
6
CONTINUOUS
62
252
70
128
10
0.000000
20
0.000000
30
0.000000
71
1
72
54
73
55
0
VERTEX
8
0
6
CONTINUOUS
62
252
70
128
10
0.000000
20
0.000000
30
0.000000
71
1
72
55
73
56
0
VERTEX
8
0
6
CONTINUOUS
62
252
70
128
10
0.000000
20
0.000000
30
0.000000
71
54
72
2
73
53
0
VERTEX
8
0
6
CONTINUOUS
62
252
70
128
10
0.000000
20
0.000000
30
0.000000
71
53
72
2
73
3
0
VERTEX
8
0
6
CONTINUOUS
62
252
70
128
10
0.000000
20
0.000000
30
0.000000
71
53
72
3
73
52
0
VERTEX
8
0
6
CONTINUOUS
62
252
70
128
10
0.000000
20
0.000000
30
0.000000
71
52
72
3
73
4
0
VERTEX
8
0
6
CONTINUOUS
62
252
70
128
10
0.000000
20
0.000000
30
0.000000
71
52
72
4
73
51
0
VERTEX
8
0
6
CONTINUOUS
62
252
70
128
10
0.000000
20
0.000000
30
0.000000
71
51
72
4
73
5
0
VERTEX
8
0
6
CONTINUOUS
62
252
70
128
10
0.000000
20
0.000000
30
0.000000
71
51
72
5
73
50
0
VERTEX
8
0
6
CONTINUOUS
62
252
70
128
10
0.000000
20
0.000000
30
0.000000
71
50
72
5
73
6
0
VERTEX
8
0
6
CONTINUOUS
62
252
70
128
10
0.000000
20
0.000000
30
0.000000
71
50
72
6
73
49
0
VERTEX
8
0
6
CONTINUOUS
62
252
70
128
10
0.000000
20
0.000000
30
0.000000
71
49
72
6
73
7
0
VERTEX
8
0
6
CONTINUOUS
62
252
70
128
10
0.000000
20
0.000000
30
0.000000
71
49
72
7
73
48
0
VERTEX
8
0
6
CONTINUOUS
62
252
70
128
10
0.000000
20
0.000000
30
0.000000
71
48
72
7
73
8
0
VERTEX
8
0
6
CONTINUOUS
62
252
70
128
10
0.000000
20
0.000000
30
0.000000
71
48
72
8
73
9
0
VERTEX
8
0
6
CONTINUOUS
62
252
70
128
10
0.000000
20
0.000000
30
0.000000
71
48
72
9
73
47
0
VERTEX
8
0
6
CONTINUOUS
62
252
70
128
10
0.000000
20
0.000000
30
0.000000
71
47
72
9
73
10
0
VERTEX
8
0
6
CONTINUOUS
62
252
70
128
10
0.000000
20
0.000000
30
0.000000
71
47
72
10
73
46
0
VERTEX
8
0
6
CONTINUOUS
62
252
70
128
10
0.000000
20
0.000000
30
0.000000
71
46
72
10
73
11
0
VERTEX
8
0
6
CONTINUOUS
62
252
70
128
10
0.000000
20
0.000000
30
0.000000
71
46
72
11
73
45
0
VERTEX
8
0
6
CONTINUOUS
62
252
70
128
10
0.000000
20
0.000000
30
0.000000
71
45
72
11
73
44
0
VERTEX
8
0
6
CONTINUOUS
62
252
70
128
10
0.000000
20
0.000000
30
0.000000
71
44
72
11
73
12
0
VERTEX
8
0
6
CONTINUOUS
62
252
70
128
10
0.000000
20
0.000000
30
0.000000
71
44
72
12
73
13
0
VERTEX
8
0
6
CONTINUOUS
62
252
70
128
10
0.000000
20
0.000000
30
0.000000
71
44
72
13
73
43
0
VERTEX
8
0
6
CONTINUOUS
62
252
70
128
10
0.000000
20
0.000000
30
0.000000
71
43
72
13
73
14
0
VERTEX
8
0
6
CONTINUOUS
62
252
70
128
10
0.000000
20
0.000000
30
0.000000
71
43
72
14
73
42
0
VERTEX
8
0
6
CONTINUOUS
62
252
70
128
10
0.000000
20
0.000000
30
0.000000
71
42
72
14
73
41
0
VERTEX
8
0
6
CONTINUOUS
62
252
70
128
10
0.000000
20
0.000000
30
0.000000
71
41
72
14
73
15
0
VERTEX
8
0
6
CONTINUOUS
62
252
70
128
10
0.000000
20
0.000000
30
0.000000
71
41
72
15
73
40
0
VERTEX
8
0
6
CONTINUOUS
62
252
70
128
10
0.000000
20
0.000000
30
0.000000
71
40
72
15
73
16
0
VERTEX
8
0
6
CONTINUOUS
62
252
70
128
10
0.000000
20
0.000000
30
0.000000
71
40
72
16
73
39
0
VERTEX
8
0
6
CONTINUOUS
62
252
70
128
10
0.000000
20
0.000000
30
0.000000
71
39
72
16
73
17
0
VERTEX
8
0
6
CONTINUOUS
62
252
70
128
10
0.000000
20
0.000000
30
0.000000
71
39
72
17
73
38
0
VERTEX
8
0
6
CONTINUOUS
62
252
70
128
10
0.000000
20
0.000000
30
0.000000
71
38
72
17
73
18
0
VERTEX
8
0
6
CONTINUOUS
62
252
70
128
10
0.000000
20
0.000000
30
0.000000
71
38
72
18
73
19
0
VERTEX
8
0
6
CONTINUOUS
62
252
70
128
10
0.000000
20
0.000000
30
0.000000
71
38
72
19
73
37
0
VERTEX
8
0
6
CONTINUOUS
62
252
70
128
10
0.000000
20
0.000000
30
0.000000
71
37
72
19
73
20
0
VERTEX
8
0
6
CONTINUOUS
62
252
70
128
10
0.000000
20
0.000000
30
0.000000
71
37
72
20
73
72
0
VERTEX
8
0
6
CONTINUOUS
62
252
70
128
10
0.000000
20
0.000000
30
0.000000
71
72
72
20
73
21
0
VERTEX
8
0
6
CONTINUOUS
62
252
70
128
10
0.000000
20
0.000000
30
0.000000
71
72
72
21
73
71
0
VERTEX
8
0
6
CONTINUOUS
62
252
70
128
10
0.000000
20
0.000000
30
0.000000
71
71
72
21
73
22
0
VERTEX
8
0
6
CONTINUOUS
62
252
70
128
10
0.000000
20
0.000000
30
0.000000
71
71
72
22
73
70
0
VERTEX
8
0
6
CONTINUOUS
62
252
70
128
10
0.000000
20
0.000000
30
0.000000
71
70
72
22
73
69
0
VERTEX
8
0
6
CONTINUOUS
62
252
70
128
10
0.000000
20
0.000000
30
0.000000
71
69
72
22
73
23
0
VERTEX
8
0
6
CONTINUOUS
62
252
70
128
10
0.000000
20
0.000000
30
0.000000
71
69
72
23
73
24
0
VERTEX
8
0
6
CONTINUOUS
62
252
70
128
10
0.000000
20
0.000000
30
0.000000
71
69
72
24
73
68
0
VERTEX
8
0
6
CONTINUOUS
62
252
70
128
10
0.000000
20
0.000000
30
0.000000
71
68
72
24
73
25
0
VERTEX
8
0
6
CONTINUOUS
62
252
70
128
10
0.000000
20
0.000000
30
0.000000
71
68
72
25
73
67
0
VERTEX
8
0
6
CONTINUOUS
62
252
70
128
10
0.000000
20
0.000000
30
0.000000
71
67
72
25
73
26
0
VERTEX
8
0
6
CONTINUOUS
62
252
70
128
10
0.000000
20
0.000000
30
0.000000
71
67
72
26
73
66
0
VERTEX
8
0
6
CONTINUOUS
62
252
70
128
10
0.000000
20
0.000000
30
0.000000
71
66
72
26
73
27
0
VERTEX
8
0
6
CONTINUOUS
62
252
70
128
10
0.000000
20
0.000000
30
0.000000
71
66
72
27
73
65
0
VERTEX
8
0
6
CONTINUOUS
62
252
70
128
10
0.000000
20
0.000000
30
0.000000
71
65
72
27
73
28
0
VERTEX
8
0
6
CONTINUOUS
62
252
70
128
10
0.000000
20
0.000000
30
0.000000
71
65
72
28
73
64
0
VERTEX
8
0
6
CONTINUOUS
62
252
70
128
10
0.000000
20
0.000000
30
0.000000
71
64
72
28
73
63
0
VERTEX
8
0
6
CONTINUOUS
62
252
70
128
10
0.000000
20
0.000000
30
0.000000
71
63
72
28
73
29
0
VERTEX
8
0
6
CONTINUOUS
62
252
70
128
10
0.000000
20
0.000000
30
0.000000
71
63
72
29
73
62
0
VERTEX
8
0
6
CONTINUOUS
62
252
70
128
10
0.000000
20
0.000000
30
0.000000
71
62
72
29
73
30
0
VERTEX
8
0
6
CONTINUOUS
62
252
70
128
10
0.000000
20
0.000000
30
0.000000
71
62
72
30
73
61
0
VERTEX
8
0
6
CONTINUOUS
62
252
70
128
10
0.000000
20
0.000000
30
0.000000
71
61
72
30
73
31
0
VERTEX
8
0
6
CONTINUOUS
62
252
70
128
10
0.000000
20
0.000000
30
0.000000
71
61
72
31
73
60
0
VERTEX
8
0
6
CONTINUOUS
62
252
70
128
10
0.000000
20
0.000000
30
0.000000
71
60
72
31
73
32
0
VERTEX
8
0
6
CONTINUOUS
62
252
70
128
10
0.000000
20
0.000000
30
0.000000
71
60
72
32
73
33
0
VERTEX
8
0
6
CONTINUOUS
62
252
70
128
10
0.000000
20
0.000000
30
0.000000
71
60
72
33
73
59
0
VERTEX
8
0
6
CONTINUOUS
62
252
70
128
10
0.000000
20
0.000000
30
0.000000
71
59
72
33
73
34
0
VERTEX
8
0
6
CONTINUOUS
62
252
70
128
10
0.000000
20
0.000000
30
0.000000
71
59
72
34
73
58
0
VERTEX
8
0
6
CONTINUOUS
62
252
70
128
10
0.000000
20
0.000000
30
0.000000
71
58
72
34
73
35
0
VERTEX
8
0
6
CONTINUOUS
62
252
70
128
10
0.000000
20
0.000000
30
0.000000
71
58
72
35
73
57
0
VERTEX
8
0
6
CONTINUOUS
62
252
70
128
10
0.000000
20
0.000000
30
0.000000
71
57
72
35
73
36
0
VERTEX
8
0
6
CONTINUOUS
62
252
70
128
10
0.000000
20
0.000000
30
0.000000
71
57
72
36
73
56
0
VERTEX
8
0
6
CONTINUOUS
62
252
70
128
10
0.000000
20
0.000000
30
0.000000
71
56
72
36
73
1
0
SEQEND
0
POLYLINE
66
1
8
0
6
CONTINUOUS
62
252
70
64
75
0
10
0.000000
20
0.000000
30
0.000000
0
VERTEX
8
0
6
CONTINUOUS
62
252
70
192
10
1.200000
20
36.133157
30
-36.133157
0
VERTEX
8
0
6
CONTINUOUS
62
252
70
192
10
1.200000
20
36.592542
30
-35.585682
0
VERTEX
8
0
6
CONTINUOUS
62
252
70
192
10
1.200000
20
36.949881
30
-34.966754
0
VERTEX
8
0
6
CONTINUOUS
62
252
70
192
10
1.200000
20
37.194315
30
-34.295177
0
VERTEX
8
0
6
CONTINUOUS
62
252
70
192
10
1.200000
20
37.318417
30
-33.591357
0
VERTEX
8
0
6
CONTINUOUS
62
252
70
192
10
1.200000
20
37.318417
30
-32.876680
0
VERTEX
8
0
6
CONTINUOUS
62
252
70
192
10
1.200000
20
37.194315
30
-32.172861
0
VERTEX
8
0
6
CONTINUOUS
62
252
70
192
10
1.200000
20
36.949881
30
-31.501284
0
VERTEX
8
0
6
CONTINUOUS
62
252
70
192
10
1.200000
20
36.592542
30
-30.882355
0
VERTEX
8
0
6
CONTINUOUS
62
252
70
192
10
1.200000
20
36.133157
30
-30.334881
0
VERTEX
8
0
6
CONTINUOUS
62
252
70
192
10
1.200000
20
35.585682
30
-29.875495
0
VERTEX
8
0
6
CONTINUOUS
62
252
70
192
10
1.200000
20
34.966754
30
-29.518157
0
VERTEX
8
0
6
CONTINUOUS
62
252
70
192
10
1.200000
20
34.295177
30
-29.273723
0
VERTEX
8
0
6
CONTINUOUS
62
252
70
192
10
1.200000
20
33.591357
30
-29.149620
0
VERTEX
8
0
6
CONTINUOUS
62
252
70
192
10
1.200000
20
32.876680
30
-29.149620
0
VERTEX
8
0
6
CONTINUOUS
62
252
70
192
10
1.200000
20
32.172861
30
-29.273723
0
VERTEX
8
0
6
CONTINUOUS
62
252
70
192
10
1.200000
20
31.501284
30
-29.518157
0
VERTEX
8
0
6
CONTINUOUS
62
252
70
192
10
1.200000
20
30.882355
30
-29.875495
0
VERTEX
8
0
6
CONTINUOUS
62
252
70
192
10
1.200000
20
30.334881
30
-30.334881
0
VERTEX
8
0
6
CONTINUOUS
62
252
70
192
10
1.200000
20
29.875495
30
-30.882355
0
VERTEX
8
0
6
CONTINUOUS
62
252
70
192
10
1.200000
20
29.518157
30
-31.501284
0
VERTEX
8
0
6
CONTINUOUS
62
252
70
192
10
1.200000
20
29.273723
30
-32.172861
0
VERTEX
8
0
6
CONTINUOUS
62
252
70
192
10
1.200000
20
29.149620
30
-32.876680
0
VERTEX
8
0
6
CONTINUOUS
62
252
70
192
10
1.200000
20
29.149620
30
-33.591357
0
VERTEX
8
0
6
CONTINUOUS
62
252
70
192
10
1.200000
20
29.273723
30
-34.295177
0
VERTEX
8
0
6
CONTINUOUS
62
252
70
192
10
1.200000
20
29.518157
30
-34.966754
0
VERTEX
8
0
6
CONTINUOUS
62
252
70
192
10
1.200000
20
29.875495
30
-35.585682
0
VERTEX
8
0
6
CONTINUOUS
62
252
70
192
10
1.200000
20
30.334881
30
-36.133157
0
VERTEX
8
0
6
CONTINUOUS
62
252
70
192
10
1.200000
20
30.882355
30
-36.592542
0
VERTEX
8
0
6
CONTINUOUS
62
252
70
192
10
1.200000
20
31.501284
30
-36.949881
0
VERTEX
8
0
6
CONTINUOUS
62
252
70
192
10
1.200000
20
32.172861
30
-37.194315
0
VERTEX
8
0
6
CONTINUOUS
62
252
70
192
10
1.200000
20
32.876680
30
-37.318417
0
VERTEX
8
0
6
CONTINUOUS
62
252
70
192
10
1.200000
20
33.591357
30
-37.318417
0
VERTEX
8
0
6
CONTINUOUS
62
252
70
192
10
1.200000
20
34.295177
30
-37.194315
0
VERTEX
8
0
6
CONTINUOUS
62
252
70
192
10
1.200000
20
34.966754
30
-36.949881
0
VERTEX
8
0
6
CONTINUOUS
62
252
70
192
10
1.200000
20
35.585682
30
-36.592542
0
VERTEX
8
0
6
CONTINUOUS
62
252
70
192
10
0.000000
20
30.334881
30
-30.334881
0
VERTEX
8
0
6
CONTINUOUS
62
252
70
192
10
0.000000
20
30.882355
30
-29.875495
0
VERTEX
8
0
6
CONTINUOUS
62
252
70
192
10
0.000000
20
31.501284
30
-29.518157
0
VERTEX
8
0
6
CONTINUOUS
62
252
70
192
10
0.000000
20
32.172861
30
-29.273723
0
VERTEX
8
0
6
CONTINUOUS
62
252
70
192
10
0.000000
20
32.876680
30
-29.149620
0
VERTEX
8
0
6
CONTINUOUS
62
252
70
192
10
0.000000
20
33.591357
30
-29.149620
0
VERTEX
8
0
6
CONTINUOUS
62
252
70
192
10
0.000000
20
34.295177
30
-29.273723
0
VERTEX
8
0
6
CONTINUOUS
62
252
70
192
10
0.000000
20
34.966754
30
-29.518157
0
VERTEX
8
0
6
CONTINUOUS
62
252
70
192
10
0.000000
20
35.585682
30
-29.875495
0
VERTEX
8
0
6
CONTINUOUS
62
252
70
192
10
0.000000
20
36.133157
30
-30.334881
0
VERTEX
8
0
6
CONTINUOUS
62
252
70
192
10
0.000000
20
36.592542
30
-30.882355
0
VERTEX
8
0
6
CONTINUOUS
62
252
70
192
10
0.000000
20
36.949881
30
-31.501284
0
VERTEX
8
0
6
CONTINUOUS
62
252
70
192
10
0.000000
20
37.194315
30
-32.172861
0
VERTEX
8
0
6
CONTINUOUS
62
252
70
192
10
0.000000
20
37.318417
30
-32.876680
0
VERTEX
8
0
6
CONTINUOUS
62
252
70
192
10
0.000000
20
37.318417
30
-33.591357
0
VERTEX
8
0
6
CONTINUOUS
62
252
70
192
10
0.000000
20
37.194315
30
-34.295177
0
VERTEX
8
0
6
CONTINUOUS
62
252
70
192
10
0.000000
20
36.949881
30
-34.966754
0
VERTEX
8
0
6
CONTINUOUS
62
252
70
192
10
0.000000
20
36.592542
30
-35.585682
0
VERTEX
8
0
6
CONTINUOUS
62
252
70
192
10
0.000000
20
36.133157
30
-36.133157
0
VERTEX
8
0
6
CONTINUOUS
62
252
70
192
10
0.000000
20
35.585682
30
-36.592542
0
VERTEX
8
0
6
CONTINUOUS
62
252
70
192
10
0.000000
20
34.966754
30
-36.949881
0
VERTEX
8
0
6
CONTINUOUS
62
252
70
192
10
0.000000
20
34.295177
30
-37.194315
0
VERTEX
8
0
6
CONTINUOUS
62
252
70
192
10
0.000000
20
33.591357
30
-37.318417
0
VERTEX
8
0
6
CONTINUOUS
62
252
70
192
10
0.000000
20
32.876680
30
-37.318417
0
VERTEX
8
0
6
CONTINUOUS
62
252
70
192
10
0.000000
20
32.172861
30
-37.194315
0
VERTEX
8
0
6
CONTINUOUS
62
252
70
192
10
0.000000
20
31.501284
30
-36.949881
0
VERTEX
8
0
6
CONTINUOUS
62
252
70
192
10
0.000000
20
30.882355
30
-36.592542
0
VERTEX
8
0
6
CONTINUOUS
62
252
70
192
10
0.000000
20
30.334881
30
-36.133157
0
VERTEX
8
0
6
CONTINUOUS
62
252
70
192
10
0.000000
20
29.875495
30
-35.585682
0
VERTEX
8
0
6
CONTINUOUS
62
252
70
192
10
0.000000
20
29.518157
30
-34.966754
0
VERTEX
8
0
6
CONTINUOUS
62
252
70
192
10
0.000000
20
29.273723
30
-34.295177
0
VERTEX
8
0
6
CONTINUOUS
62
252
70
192
10
0.000000
20
29.149620
30
-33.591357
0
VERTEX
8
0
6
CONTINUOUS
62
252
70
192
10
0.000000
20
29.149620
30
-32.876680
0
VERTEX
8
0
6
CONTINUOUS
62
252
70
192
10
0.000000
20
29.273723
30
-32.172861
0
VERTEX
8
0
6
CONTINUOUS
62
252
70
192
10
0.000000
20
29.518157
30
-31.501284
0
VERTEX
8
0
6
CONTINUOUS
62
252
70
192
10
0.000000
20
29.875495
30
-30.882355
0
VERTEX
8
0
6
CONTINUOUS
62
252
70
128
10
0.000000
20
0.000000
30
0.000000
71
2
72
54
73
1
0
VERTEX
8
0
6
CONTINUOUS
62
252
70
128
10
0.000000
20
0.000000
30
0.000000
71
1
72
54
73
55
0
VERTEX
8
0
6
CONTINUOUS
62
252
70
128
10
0.000000
20
0.000000
30
0.000000
71
1
72
55
73
56
0
VERTEX
8
0
6
CONTINUOUS
62
252
70
128
10
0.000000
20
0.000000
30
0.000000
71
54
72
2
73
53
0
VERTEX
8
0
6
CONTINUOUS
62
252
70
128
10
0.000000
20
0.000000
30
0.000000
71
53
72
2
73
3
0
VERTEX
8
0
6
CONTINUOUS
62
252
70
128
10
0.000000
20
0.000000
30
0.000000
71
53
72
3
73
52
0
VERTEX
8
0
6
CONTINUOUS
62
252
70
128
10
0.000000
20
0.000000
30
0.000000
71
52
72
3
73
4
0
VERTEX
8
0
6
CONTINUOUS
62
252
70
128
10
0.000000
20
0.000000
30
0.000000
71
52
72
4
73
51
0
VERTEX
8
0
6
CONTINUOUS
62
252
70
128
10
0.000000
20
0.000000
30
0.000000
71
51
72
4
73
5
0
VERTEX
8
0
6
CONTINUOUS
62
252
70
128
10
0.000000
20
0.000000
30
0.000000
71
51
72
5
73
50
0
VERTEX
8
0
6
CONTINUOUS
62
252
70
128
10
0.000000
20
0.000000
30
0.000000
71
50
72
5
73
6
0
VERTEX
8
0
6
CONTINUOUS
62
252
70
128
10
0.000000
20
0.000000
30
0.000000
71
50
72
6
73
49
0
VERTEX
8
0
6
CONTINUOUS
62
252
70
128
10
0.000000
20
0.000000
30
0.000000
71
49
72
6
73
7
0
VERTEX
8
0
6
CONTINUOUS
62
252
70
128
10
0.000000
20
0.000000
30
0.000000
71
49
72
7
73
48
0
VERTEX
8
0
6
CONTINUOUS
62
252
70
128
10
0.000000
20
0.000000
30
0.000000
71
48
72
7
73
8
0
VERTEX
8
0
6
CONTINUOUS
62
252
70
128
10
0.000000
20
0.000000
30
0.000000
71
48
72
8
73
9
0
VERTEX
8
0
6
CONTINUOUS
62
252
70
128
10
0.000000
20
0.000000
30
0.000000
71
48
72
9
73
47
0
VERTEX
8
0
6
CONTINUOUS
62
252
70
128
10
0.000000
20
0.000000
30
0.000000
71
47
72
9
73
10
0
VERTEX
8
0
6
CONTINUOUS
62
252
70
128
10
0.000000
20
0.000000
30
0.000000
71
47
72
10
73
46
0
VERTEX
8
0
6
CONTINUOUS
62
252
70
128
10
0.000000
20
0.000000
30
0.000000
71
46
72
10
73
11
0
VERTEX
8
0
6
CONTINUOUS
62
252
70
128
10
0.000000
20
0.000000
30
0.000000
71
46
72
11
73
45
0
VERTEX
8
0
6
CONTINUOUS
62
252
70
128
10
0.000000
20
0.000000
30
0.000000
71
45
72
11
73
44
0
VERTEX
8
0
6
CONTINUOUS
62
252
70
128
10
0.000000
20
0.000000
30
0.000000
71
44
72
11
73
12
0
VERTEX
8
0
6
CONTINUOUS
62
252
70
128
10
0.000000
20
0.000000
30
0.000000
71
44
72
12
73
13
0
VERTEX
8
0
6
CONTINUOUS
62
252
70
128
10
0.000000
20
0.000000
30
0.000000
71
44
72
13
73
43
0
VERTEX
8
0
6
CONTINUOUS
62
252
70
128
10
0.000000
20
0.000000
30
0.000000
71
43
72
13
73
14
0
VERTEX
8
0
6
CONTINUOUS
62
252
70
128
10
0.000000
20
0.000000
30
0.000000
71
43
72
14
73
42
0
VERTEX
8
0
6
CONTINUOUS
62
252
70
128
10
0.000000
20
0.000000
30
0.000000
71
42
72
14
73
41
0
VERTEX
8
0
6
CONTINUOUS
62
252
70
128
10
0.000000
20
0.000000
30
0.000000
71
41
72
14
73
15
0
VERTEX
8
0
6
CONTINUOUS
62
252
70
128
10
0.000000
20
0.000000
30
0.000000
71
41
72
15
73
40
0
VERTEX
8
0
6
CONTINUOUS
62
252
70
128
10
0.000000
20
0.000000
30
0.000000
71
40
72
15
73
16
0
VERTEX
8
0
6
CONTINUOUS
62
252
70
128
10
0.000000
20
0.000000
30
0.000000
71
40
72
16
73
39
0
VERTEX
8
0
6
CONTINUOUS
62
252
70
128
10
0.000000
20
0.000000
30
0.000000
71
39
72
16
73
17
0
VERTEX
8
0
6
CONTINUOUS
62
252
70
128
10
0.000000
20
0.000000
30
0.000000
71
39
72
17
73
38
0
VERTEX
8
0
6
CONTINUOUS
62
252
70
128
10
0.000000
20
0.000000
30
0.000000
71
38
72
17
73
18
0
VERTEX
8
0
6
CONTINUOUS
62
252
70
128
10
0.000000
20
0.000000
30
0.000000
71
38
72
18
73
19
0
VERTEX
8
0
6
CONTINUOUS
62
252
70
128
10
0.000000
20
0.000000
30
0.000000
71
38
72
19
73
37
0
VERTEX
8
0
6
CONTINUOUS
62
252
70
128
10
0.000000
20
0.000000
30
0.000000
71
37
72
19
73
20
0
VERTEX
8
0
6
CONTINUOUS
62
252
70
128
10
0.000000
20
0.000000
30
0.000000
71
37
72
20
73
72
0
VERTEX
8
0
6
CONTINUOUS
62
252
70
128
10
0.000000
20
0.000000
30
0.000000
71
72
72
20
73
21
0
VERTEX
8
0
6
CONTINUOUS
62
252
70
128
10
0.000000
20
0.000000
30
0.000000
71
72
72
21
73
71
0
VERTEX
8
0
6
CONTINUOUS
62
252
70
128
10
0.000000
20
0.000000
30
0.000000
71
71
72
21
73
22
0
VERTEX
8
0
6
CONTINUOUS
62
252
70
128
10
0.000000
20
0.000000
30
0.000000
71
71
72
22
73
70
0
VERTEX
8
0
6
CONTINUOUS
62
252
70
128
10
0.000000
20
0.000000
30
0.000000
71
70
72
22
73
69
0
VERTEX
8
0
6
CONTINUOUS
62
252
70
128
10
0.000000
20
0.000000
30
0.000000
71
69
72
22
73
23
0
VERTEX
8
0
6
CONTINUOUS
62
252
70
128
10
0.000000
20
0.000000
30
0.000000
71
69
72
23
73
24
0
VERTEX
8
0
6
CONTINUOUS
62
252
70
128
10
0.000000
20
0.000000
30
0.000000
71
69
72
24
73
68
0
VERTEX
8
0
6
CONTINUOUS
62
252
70
128
10
0.000000
20
0.000000
30
0.000000
71
68
72
24
73
25
0
VERTEX
8
0
6
CONTINUOUS
62
252
70
128
10
0.000000
20
0.000000
30
0.000000
71
68
72
25
73
67
0
VERTEX
8
0
6
CONTINUOUS
62
252
70
128
10
0.000000
20
0.000000
30
0.000000
71
67
72
25
73
26
0
VERTEX
8
0
6
CONTINUOUS
62
252
70
128
10
0.000000
20
0.000000
30
0.000000
71
67
72
26
73
66
0
VERTEX
8
0
6
CONTINUOUS
62
252
70
128
10
0.000000
20
0.000000
30
0.000000
71
66
72
26
73
27
0
VERTEX
8
0
6
CONTINUOUS
62
252
70
128
10
0.000000
20
0.000000
30
0.000000
71
66
72
27
73
65
0
VERTEX
8
0
6
CONTINUOUS
62
252
70
128
10
0.000000
20
0.000000
30
0.000000
71
65
72
27
73
28
0
VERTEX
8
0
6
CONTINUOUS
62
252
70
128
10
0.000000
20
0.000000
30
0.000000
71
65
72
28
73
64
0
VERTEX
8
0
6
CONTINUOUS
62
252
70
128
10
0.000000
20
0.000000
30
0.000000
71
64
72
28
73
63
0
VERTEX
8
0
6
CONTINUOUS
62
252
70
128
10
0.000000
20
0.000000
30
0.000000
71
63
72
28
73
29
0
VERTEX
8
0
6
CONTINUOUS
62
252
70
128
10
0.000000
20
0.000000
30
0.000000
71
63
72
29
73
62
0
VERTEX
8
0
6
CONTINUOUS
62
252
70
128
10
0.000000
20
0.000000
30
0.000000
71
62
72
29
73
30
0
VERTEX
8
0
6
CONTINUOUS
62
252
70
128
10
0.000000
20
0.000000
30
0.000000
71
62
72
30
73
61
0
VERTEX
8
0
6
CONTINUOUS
62
252
70
128
10
0.000000
20
0.000000
30
0.000000
71
61
72
30
73
31
0
VERTEX
8
0
6
CONTINUOUS
62
252
70
128
10
0.000000
20
0.000000
30
0.000000
71
61
72
31
73
60
0
VERTEX
8
0
6
CONTINUOUS
62
252
70
128
10
0.000000
20
0.000000
30
0.000000
71
60
72
31
73
32
0
VERTEX
8
0
6
CONTINUOUS
62
252
70
128
10
0.000000
20
0.000000
30
0.000000
71
60
72
32
73
33
0
VERTEX
8
0
6
CONTINUOUS
62
252
70
128
10
0.000000
20
0.000000
30
0.000000
71
60
72
33
73
59
0
VERTEX
8
0
6
CONTINUOUS
62
252
70
128
10
0.000000
20
0.000000
30
0.000000
71
59
72
33
73
34
0
VERTEX
8
0
6
CONTINUOUS
62
252
70
128
10
0.000000
20
0.000000
30
0.000000
71
59
72
34
73
58
0
VERTEX
8
0
6
CONTINUOUS
62
252
70
128
10
0.000000
20
0.000000
30
0.000000
71
58
72
34
73
35
0
VERTEX
8
0
6
CONTINUOUS
62
252
70
128
10
0.000000
20
0.000000
30
0.000000
71
58
72
35
73
57
0
VERTEX
8
0
6
CONTINUOUS
62
252
70
128
10
0.000000
20
0.000000
30
0.000000
71
57
72
35
73
36
0
VERTEX
8
0
6
CONTINUOUS
62
252
70
128
10
0.000000
20
0.000000
30
0.000000
71
57
72
36
73
56
0
VERTEX
8
0
6
CONTINUOUS
62
252
70
128
10
0.000000
20
0.000000
30
0.000000
71
56
72
36
73
1
0
SEQEND
0
POLYLINE
66
1
8
0
6
CONTINUOUS
62
252
70
64
75
0
10
0.000000
20
0.000000
30
0.000000
0
VERTEX
8
0
6
CONTINUOUS
62
252
70
192
10
1.200000
20
-36.133157
30
-36.133157
0
VERTEX
8
0
6
CONTINUOUS
62
252
70
192
10
1.200000
20
-35.585682
30
-36.592542
0
VERTEX
8
0
6
CONTINUOUS
62
252
70
192
10
1.200000
20
-34.966754
30
-36.949881
0
VERTEX
8
0
6
CONTINUOUS
62
252
70
192
10
1.200000
20
-34.295177
30
-37.194315
0
VERTEX
8
0
6
CONTINUOUS
62
252
70
192
10
1.200000
20
-33.591357
30
-37.318417
0
VERTEX
8
0
6
CONTINUOUS
62
252
70
192
10
1.200000
20
-32.876680
30
-37.318417
0
VERTEX
8
0
6
CONTINUOUS
62
252
70
192
10
1.200000
20
-32.172861
30
-37.194315
0
VERTEX
8
0
6
CONTINUOUS
62
252
70
192
10
1.200000
20
-31.501284
30
-36.949881
0
VERTEX
8
0
6
CONTINUOUS
62
252
70
192
10
1.200000
20
-30.882355
30
-36.592542
0
VERTEX
8
0
6
CONTINUOUS
62
252
70
192
10
1.200000
20
-30.334881
30
-36.133157
0
VERTEX
8
0
6
CONTINUOUS
62
252
70
192
10
1.200000
20
-29.875495
30
-35.585682
0
VERTEX
8
0
6
CONTINUOUS
62
252
70
192
10
1.200000
20
-29.518157
30
-34.966754
0
VERTEX
8
0
6
CONTINUOUS
62
252
70
192
10
1.200000
20
-29.273723
30
-34.295177
0
VERTEX
8
0
6
CONTINUOUS
62
252
70
192
10
1.200000
20
-29.149620
30
-33.591357
0
VERTEX
8
0
6
CONTINUOUS
62
252
70
192
10
1.200000
20
-29.149620
30
-32.876680
0
VERTEX
8
0
6
CONTINUOUS
62
252
70
192
10
1.200000
20
-29.273723
30
-32.172861
0
VERTEX
8
0
6
CONTINUOUS
62
252
70
192
10
1.200000
20
-29.518157
30
-31.501284
0
VERTEX
8
0
6
CONTINUOUS
62
252
70
192
10
1.200000
20
-29.875495
30
-30.882355
0
VERTEX
8
0
6
CONTINUOUS
62
252
70
192
10
1.200000
20
-30.334881
30
-30.334881
0
VERTEX
8
0
6
CONTINUOUS
62
252
70
192
10
1.200000
20
-30.882355
30
-29.875495
0
VERTEX
8
0
6
CONTINUOUS
62
252
70
192
10
1.200000
20
-31.501284
30
-29.518157
0
VERTEX
8
0
6
CONTINUOUS
62
252
70
192
10
1.200000
20
-32.172861
30
-29.273723
0
VERTEX
8
0
6
CONTINUOUS
62
252
70
192
10
1.200000
20
-32.876680
30
-29.149620
0
VERTEX
8
0
6
CONTINUOUS
62
252
70
192
10
1.200000
20
-33.591357
30
-29.149620
0
VERTEX
8
0
6
CONTINUOUS
62
252
70
192
10
1.200000
20
-34.295177
30
-29.273723
0
VERTEX
8
0
6
CONTINUOUS
62
252
70
192
10
1.200000
20
-34.966754
30
-29.518157
0
VERTEX
8
0
6
CONTINUOUS
62
252
70
192
10
1.200000
20
-35.585682
30
-29.875495
0
VERTEX
8
0
6
CONTINUOUS
62
252
70
192
10
1.200000
20
-36.133157
30
-30.334881
0
VERTEX
8
0
6
CONTINUOUS
62
252
70
192
10
1.200000
20
-36.592542
30
-30.882355
0
VERTEX
8
0
6
CONTINUOUS
62
252
70
192
10
1.200000
20
-36.949881
30
-31.501284
0
VERTEX
8
0
6
CONTINUOUS
62
252
70
192
10
1.200000
20
-37.194315
30
-32.172861
0
VERTEX
8
0
6
CONTINUOUS
62
252
70
192
10
1.200000
20
-37.318417
30
-32.876680
0
VERTEX
8
0
6
CONTINUOUS
62
252
70
192
10
1.200000
20
-37.318417
30
-33.591357
0
VERTEX
8
0
6
CONTINUOUS
62
252
70
192
10
1.200000
20
-37.194315
30
-34.295177
0
VERTEX
8
0
6
CONTINUOUS
62
252
70
192
10
1.200000
20
-36.949881
30
-34.966754
0
VERTEX
8
0
6
CONTINUOUS
62
252
70
192
10
1.200000
20
-36.592542
30
-35.585682
0
VERTEX
8
0
6
CONTINUOUS
62
252
70
192
10
0.000000
20
-30.334881
30
-30.334881
0
VERTEX
8
0
6
CONTINUOUS
62
252
70
192
10
0.000000
20
-29.875495
30
-30.882355
0
VERTEX
8
0
6
CONTINUOUS
62
252
70
192
10
0.000000
20
-29.518157
30
-31.501284
0
VERTEX
8
0
6
CONTINUOUS
62
252
70
192
10
0.000000
20
-29.273723
30
-32.172861
0
VERTEX
8
0
6
CONTINUOUS
62
252
70
192
10
0.000000
20
-29.149620
30
-32.876680
0
VERTEX
8
0
6
CONTINUOUS
62
252
70
192
10
0.000000
20
-29.149620
30
-33.591357
0
VERTEX
8
0
6
CONTINUOUS
62
252
70
192
10
0.000000
20
-29.273723
30
-34.295177
0
VERTEX
8
0
6
CONTINUOUS
62
252
70
192
10
0.000000
20
-29.518157
30
-34.966754
0
VERTEX
8
0
6
CONTINUOUS
62
252
70
192
10
0.000000
20
-29.875495
30
-35.585682
0
VERTEX
8
0
6
CONTINUOUS
62
252
70
192
10
0.000000
20
-30.334881
30
-36.133157
0
VERTEX
8
0
6
CONTINUOUS
62
252
70
192
10
0.000000
20
-30.882355
30
-36.592542
0
VERTEX
8
0
6
CONTINUOUS
62
252
70
192
10
0.000000
20
-31.501284
30
-36.949881
0
VERTEX
8
0
6
CONTINUOUS
62
252
70
192
10
0.000000
20
-32.172861
30
-37.194315
0
VERTEX
8
0
6
CONTINUOUS
62
252
70
192
10
0.000000
20
-32.876680
30
-37.318417
0
VERTEX
8
0
6
CONTINUOUS
62
252
70
192
10
0.000000
20
-33.591357
30
-37.318417
0
VERTEX
8
0
6
CONTINUOUS
62
252
70
192
10
0.000000
20
-34.295177
30
-37.194315
0
VERTEX
8
0
6
CONTINUOUS
62
252
70
192
10
0.000000
20
-34.966754
30
-36.949881
0
VERTEX
8
0
6
CONTINUOUS
62
252
70
192
10
0.000000
20
-35.585682
30
-36.592542
0
VERTEX
8
0
6
CONTINUOUS
62
252
70
192
10
0.000000
20
-36.133157
30
-36.133157
0
VERTEX
8
0
6
CONTINUOUS
62
252
70
192
10
0.000000
20
-36.592542
30
-35.585682
0
VERTEX
8
0
6
CONTINUOUS
62
252
70
192
10
0.000000
20
-36.949881
30
-34.966754
0
VERTEX
8
0
6
CONTINUOUS
62
252
70
192
10
0.000000
20
-37.194315
30
-34.295177
0
VERTEX
8
0
6
CONTINUOUS
62
252
70
192
10
0.000000
20
-37.318417
30
-33.591357
0
VERTEX
8
0
6
CONTINUOUS
62
252
70
192
10
0.000000
20
-37.318417
30
-32.876680
0
VERTEX
8
0
6
CONTINUOUS
62
252
70
192
10
0.000000
20
-37.194315
30
-32.172861
0
VERTEX
8
0
6
CONTINUOUS
62
252
70
192
10
0.000000
20
-36.949881
30
-31.501284
0
VERTEX
8
0
6
CONTINUOUS
62
252
70
192
10
0.000000
20
-36.592542
30
-30.882355
0
VERTEX
8
0
6
CONTINUOUS
62
252
70
192
10
0.000000
20
-36.133157
30
-30.334881
0
VERTEX
8
0
6
CONTINUOUS
62
252
70
192
10
0.000000
20
-35.585682
30
-29.875495
0
VERTEX
8
0
6
CONTINUOUS
62
252
70
192
10
0.000000
20
-34.966754
30
-29.518157
0
VERTEX
8
0
6
CONTINUOUS
62
252
70
192
10
0.000000
20
-34.295177
30
-29.273723
0
VERTEX
8
0
6
CONTINUOUS
62
252
70
192
10
0.000000
20
-33.591357
30
-29.149620
0
VERTEX
8
0
6
CONTINUOUS
62
252
70
192
10
0.000000
20
-32.876680
30
-29.149620
0
VERTEX
8
0
6
CONTINUOUS
62
252
70
192
10
0.000000
20
-32.172861
30
-29.273723
0
VERTEX
8
0
6
CONTINUOUS
62
252
70
192
10
0.000000
20
-31.501284
30
-29.518157
0
VERTEX
8
0
6
CONTINUOUS
62
252
70
192
10
0.000000
20
-30.882355
30
-29.875495
0
VERTEX
8
0
6
CONTINUOUS
62
252
70
128
10
0.000000
20
0.000000
30
0.000000
71
2
72
54
73
1
0
VERTEX
8
0
6
CONTINUOUS
62
252
70
128
10
0.000000
20
0.000000
30
0.000000
71
1
72
54
73
55
0
VERTEX
8
0
6
CONTINUOUS
62
252
70
128
10
0.000000
20
0.000000
30
0.000000
71
1
72
55
73
36
0
VERTEX
8
0
6
CONTINUOUS
62
252
70
128
10
0.000000
20
0.000000
30
0.000000
71
36
72
55
73
56
0
VERTEX
8
0
6
CONTINUOUS
62
252
70
128
10
0.000000
20
0.000000
30
0.000000
71
36
72
56
73
35
0
VERTEX
8
0
6
CONTINUOUS
62
252
70
128
10
0.000000
20
0.000000
30
0.000000
71
35
72
56
73
57
0
VERTEX
8
0
6
CONTINUOUS
62
252
70
128
10
0.000000
20
0.000000
30
0.000000
71
35
72
57
73
34
0
VERTEX
8
0
6
CONTINUOUS
62
252
70
128
10
0.000000
20
0.000000
30
0.000000
71
34
72
57
73
58
0
VERTEX
8
0
6
CONTINUOUS
62
252
70
128
10
0.000000
20
0.000000
30
0.000000
71
34
72
58
73
33
0
VERTEX
8
0
6
CONTINUOUS
62
252
70
128
10
0.000000
20
0.000000
30
0.000000
71
33
72
58
73
59
0
VERTEX
8
0
6
CONTINUOUS
62
252
70
128
10
0.000000
20
0.000000
30
0.000000
71
33
72
59
73
32
0
VERTEX
8
0
6
CONTINUOUS
62
252
70
128
10
0.000000
20
0.000000
30
0.000000
71
32
72
59
73
60
0
VERTEX
8
0
6
CONTINUOUS
62
252
70
128
10
0.000000
20
0.000000
30
0.000000
71
32
72
60
73
31
0
VERTEX
8
0
6
CONTINUOUS
62
252
70
128
10
0.000000
20
0.000000
30
0.000000
71
31
72
60
73
61
0
VERTEX
8
0
6
CONTINUOUS
62
252
70
128
10
0.000000
20
0.000000
30
0.000000
71
31
72
61
73
30
0
VERTEX
8
0
6
CONTINUOUS
62
252
70
128
10
0.000000
20
0.000000
30
0.000000
71
30
72
61
73
62
0
VERTEX
8
0
6
CONTINUOUS
62
252
70
128
10
0.000000
20
0.000000
30
0.000000
71
30
72
62
73
29
0
VERTEX
8
0
6
CONTINUOUS
62
252
70
128
10
0.000000
20
0.000000
30
0.000000
71
29
72
62
73
63
0
VERTEX
8
0
6
CONTINUOUS
62
252
70
128
10
0.000000
20
0.000000
30
0.000000
71
29
72
63
73
28
0
VERTEX
8
0
6
CONTINUOUS
62
252
70
128
10
0.000000
20
0.000000
30
0.000000
71
28
72
63
73
64
0
VERTEX
8
0
6
CONTINUOUS
62
252
70
128
10
0.000000
20
0.000000
30
0.000000
71
28
72
64
73
27
0
VERTEX
8
0
6
CONTINUOUS
62
252
70
128
10
0.000000
20
0.000000
30
0.000000
71
27
72
64
73
65
0
VERTEX
8
0
6
CONTINUOUS
62
252
70
128
10
0.000000
20
0.000000
30
0.000000
71
27
72
65
73
26
0
VERTEX
8
0
6
CONTINUOUS
62
252
70
128
10
0.000000
20
0.000000
30
0.000000
71
26
72
65
73
66
0
VERTEX
8
0
6
CONTINUOUS
62
252
70
128
10
0.000000
20
0.000000
30
0.000000
71
26
72
66
73
25
0
VERTEX
8
0
6
CONTINUOUS
62
252
70
128
10
0.000000
20
0.000000
30
0.000000
71
25
72
66
73
67
0
VERTEX
8
0
6
CONTINUOUS
62
252
70
128
10
0.000000
20
0.000000
30
0.000000
71
25
72
67
73
24
0
VERTEX
8
0
6
CONTINUOUS
62
252
70
128
10
0.000000
20
0.000000
30
0.000000
71
24
72
67
73
68
0
VERTEX
8
0
6
CONTINUOUS
62
252
70
128
10
0.000000
20
0.000000
30
0.000000
71
24
72
68
73
23
0
VERTEX
8
0
6
CONTINUOUS
62
252
70
128
10
0.000000
20
0.000000
30
0.000000
71
23
72
68
73
69
0
VERTEX
8
0
6
CONTINUOUS
62
252
70
128
10
0.000000
20
0.000000
30
0.000000
71
23
72
69
73
22
0
VERTEX
8
0
6
CONTINUOUS
62
252
70
128
10
0.000000
20
0.000000
30
0.000000
71
22
72
69
73
70
0
VERTEX
8
0
6
CONTINUOUS
62
252
70
128
10
0.000000
20
0.000000
30
0.000000
71
22
72
70
73
21
0
VERTEX
8
0
6
CONTINUOUS
62
252
70
128
10
0.000000
20
0.000000
30
0.000000
71
21
72
70
73
71
0
VERTEX
8
0
6
CONTINUOUS
62
252
70
128
10
0.000000
20
0.000000
30
0.000000
71
21
72
71
73
20
0
VERTEX
8
0
6
CONTINUOUS
62
252
70
128
10
0.000000
20
0.000000
30
0.000000
71
20
72
71
73
72
0
VERTEX
8
0
6
CONTINUOUS
62
252
70
128
10
0.000000
20
0.000000
30
0.000000
71
20
72
72
73
19
0
VERTEX
8
0
6
CONTINUOUS
62
252
70
128
10
0.000000
20
0.000000
30
0.000000
71
19
72
72
73
37
0
VERTEX
8
0
6
CONTINUOUS
62
252
70
128
10
0.000000
20
0.000000
30
0.000000
71
19
72
37
73
18
0
VERTEX
8
0
6
CONTINUOUS
62
252
70
128
10
0.000000
20
0.000000
30
0.000000
71
18
72
37
73
38
0
VERTEX
8
0
6
CONTINUOUS
62
252
70
128
10
0.000000
20
0.000000
30
0.000000
71
18
72
38
73
17
0
VERTEX
8
0
6
CONTINUOUS
62
252
70
128
10
0.000000
20
0.000000
30
0.000000
71
17
72
38
73
39
0
VERTEX
8
0
6
CONTINUOUS
62
252
70
128
10
0.000000
20
0.000000
30
0.000000
71
17
72
39
73
16
0
VERTEX
8
0
6
CONTINUOUS
62
252
70
128
10
0.000000
20
0.000000
30
0.000000
71
16
72
39
73
40
0
VERTEX
8
0
6
CONTINUOUS
62
252
70
128
10
0.000000
20
0.000000
30
0.000000
71
16
72
40
73
15
0
VERTEX
8
0
6
CONTINUOUS
62
252
70
128
10
0.000000
20
0.000000
30
0.000000
71
15
72
40
73
41
0
VERTEX
8
0
6
CONTINUOUS
62
252
70
128
10
0.000000
20
0.000000
30
0.000000
71
15
72
41
73
14
0
VERTEX
8
0
6
CONTINUOUS
62
252
70
128
10
0.000000
20
0.000000
30
0.000000
71
14
72
41
73
42
0
VERTEX
8
0
6
CONTINUOUS
62
252
70
128
10
0.000000
20
0.000000
30
0.000000
71
14
72
42
73
13
0
VERTEX
8
0
6
CONTINUOUS
62
252
70
128
10
0.000000
20
0.000000
30
0.000000
71
13
72
42
73
43
0
VERTEX
8
0
6
CONTINUOUS
62
252
70
128
10
0.000000
20
0.000000
30
0.000000
71
13
72
43
73
12
0
VERTEX
8
0
6
CONTINUOUS
62
252
70
128
10
0.000000
20
0.000000
30
0.000000
71
12
72
43
73
44
0
VERTEX
8
0
6
CONTINUOUS
62
252
70
128
10
0.000000
20
0.000000
30
0.000000
71
12
72
44
73
11
0
VERTEX
8
0
6
CONTINUOUS
62
252
70
128
10
0.000000
20
0.000000
30
0.000000
71
11
72
44
73
45
0
VERTEX
8
0
6
CONTINUOUS
62
252
70
128
10
0.000000
20
0.000000
30
0.000000
71
11
72
45
73
10
0
VERTEX
8
0
6
CONTINUOUS
62
252
70
128
10
0.000000
20
0.000000
30
0.000000
71
10
72
45
73
46
0
VERTEX
8
0
6
CONTINUOUS
62
252
70
128
10
0.000000
20
0.000000
30
0.000000
71
10
72
46
73
9
0
VERTEX
8
0
6
CONTINUOUS
62
252
70
128
10
0.000000
20
0.000000
30
0.000000
71
9
72
46
73
47
0
VERTEX
8
0
6
CONTINUOUS
62
252
70
128
10
0.000000
20
0.000000
30
0.000000
71
9
72
47
73
8
0
VERTEX
8
0
6
CONTINUOUS
62
252
70
128
10
0.000000
20
0.000000
30
0.000000
71
8
72
47
73
48
0
VERTEX
8
0
6
CONTINUOUS
62
252
70
128
10
0.000000
20
0.000000
30
0.000000
71
8
72
48
73
7
0
VERTEX
8
0
6
CONTINUOUS
62
252
70
128
10
0.000000
20
0.000000
30
0.000000
71
7
72
48
73
49
0
VERTEX
8
0
6
CONTINUOUS
62
252
70
128
10
0.000000
20
0.000000
30
0.000000
71
7
72
49
73
6
0
VERTEX
8
0
6
CONTINUOUS
62
252
70
128
10
0.000000
20
0.000000
30
0.000000
71
6
72
49
73
50
0
VERTEX
8
0
6
CONTINUOUS
62
252
70
128
10
0.000000
20
0.000000
30
0.000000
71
6
72
50
73
5
0
VERTEX
8
0
6
CONTINUOUS
62
252
70
128
10
0.000000
20
0.000000
30
0.000000
71
5
72
50
73
51
0
VERTEX
8
0
6
CONTINUOUS
62
252
70
128
10
0.000000
20
0.000000
30
0.000000
71
5
72
51
73
4
0
VERTEX
8
0
6
CONTINUOUS
62
252
70
128
10
0.000000
20
0.000000
30
0.000000
71
4
72
51
73
52
0
VERTEX
8
0
6
CONTINUOUS
62
252
70
128
10
0.000000
20
0.000000
30
0.000000
71
4
72
52
73
3
0
VERTEX
8
0
6
CONTINUOUS
62
252
70
128
10
0.000000
20
0.000000
30
0.000000
71
3
72
52
73
53
0
VERTEX
8
0
6
CONTINUOUS
62
252
70
128
10
0.000000
20
0.000000
30
0.000000
71
3
72
53
73
2
0
VERTEX
8
0
6
CONTINUOUS
62
252
70
128
10
0.000000
20
0.000000
30
0.000000
71
2
72
53
73
54
0
SEQEND
0
POLYLINE
66
1
8
0
6
CONTINUOUS
62
252
70
64
75
0
10
0.000000
20
0.000000
30
0.000000
0
VERTEX
8
0
6
CONTINUOUS
62
252
70
192
10
1.200000
20
-36.133157
30
36.133157
0
VERTEX
8
0
6
CONTINUOUS
62
252
70
192
10
1.200000
20
-36.592542
30
35.585682
0
VERTEX
8
0
6
CONTINUOUS
62
252
70
192
10
1.200000
20
-36.949881
30
34.966754
0
VERTEX
8
0
6
CONTINUOUS
62
252
70
192
10
1.200000
20
-37.194315
30
34.295177
0
VERTEX
8
0
6
CONTINUOUS
62
252
70
192
10
1.200000
20
-37.318417
30
33.591357
0
VERTEX
8
0
6
CONTINUOUS
62
252
70
192
10
1.200000
20
-37.318417
30
32.876680
0
VERTEX
8
0
6
CONTINUOUS
62
252
70
192
10
1.200000
20
-37.194315
30
32.172861
0
VERTEX
8
0
6
CONTINUOUS
62
252
70
192
10
1.200000
20
-36.949881
30
31.501284
0
VERTEX
8
0
6
CONTINUOUS
62
252
70
192
10
1.200000
20
-36.592542
30
30.882355
0
VERTEX
8
0
6
CONTINUOUS
62
252
70
192
10
1.200000
20
-36.133157
30
30.334881
0
VERTEX
8
0
6
CONTINUOUS
62
252
70
192
10
1.200000
20
-35.585682
30
29.875495
0
VERTEX
8
0
6
CONTINUOUS
62
252
70
192
10
1.200000
20
-34.966754
30
29.518157
0
VERTEX
8
0
6
CONTINUOUS
62
252
70
192
10
1.200000
20
-34.295177
30
29.273723
0
VERTEX
8
0
6
CONTINUOUS
62
252
70
192
10
1.200000
20
-33.591357
30
29.149620
0
VERTEX
8
0
6
CONTINUOUS
62
252
70
192
10
1.200000
20
-32.876680
30
29.149620
0
VERTEX
8
0
6
CONTINUOUS
62
252
70
192
10
1.200000
20
-32.172861
30
29.273723
0
VERTEX
8
0
6
CONTINUOUS
62
252
70
192
10
1.200000
20
-31.501284
30
29.518157
0
VERTEX
8
0
6
CONTINUOUS
62
252
70
192
10
1.200000
20
-30.882355
30
29.875495
0
VERTEX
8
0
6
CONTINUOUS
62
252
70
192
10
1.200000
20
-30.334881
30
30.334881
0
VERTEX
8
0
6
CONTINUOUS
62
252
70
192
10
1.200000
20
-29.875495
30
30.882355
0
VERTEX
8
0
6
CONTINUOUS
62
252
70
192
10
1.200000
20
-29.518157
30
31.501284
0
VERTEX
8
0
6
CONTINUOUS
62
252
70
192
10
1.200000
20
-29.273723
30
32.172861
0
VERTEX
8
0
6
CONTINUOUS
62
252
70
192
10
1.200000
20
-29.149620
30
32.876680
0
VERTEX
8
0
6
CONTINUOUS
62
252
70
192
10
1.200000
20
-29.149620
30
33.591357
0
VERTEX
8
0
6
CONTINUOUS
62
252
70
192
10
1.200000
20
-29.273723
30
34.295177
0
VERTEX
8
0
6
CONTINUOUS
62
252
70
192
10
1.200000
20
-29.518157
30
34.966754
0
VERTEX
8
0
6
CONTINUOUS
62
252
70
192
10
1.200000
20
-29.875495
30
35.585682
0
VERTEX
8
0
6
CONTINUOUS
62
252
70
192
10
1.200000
20
-30.334881
30
36.133157
0
VERTEX
8
0
6
CONTINUOUS
62
252
70
192
10
1.200000
20
-30.882355
30
36.592542
0
VERTEX
8
0
6
CONTINUOUS
62
252
70
192
10
1.200000
20
-31.501284
30
36.949881
0
VERTEX
8
0
6
CONTINUOUS
62
252
70
192
10
1.200000
20
-32.172861
30
37.194315
0
VERTEX
8
0
6
CONTINUOUS
62
252
70
192
10
1.200000
20
-32.876680
30
37.318417
0
VERTEX
8
0
6
CONTINUOUS
62
252
70
192
10
1.200000
20
-33.591357
30
37.318417
0
VERTEX
8
0
6
CONTINUOUS
62
252
70
192
10
1.200000
20
-34.295177
30
37.194315
0
VERTEX
8
0
6
CONTINUOUS
62
252
70
192
10
1.200000
20
-34.966754
30
36.949881
0
VERTEX
8
0
6
CONTINUOUS
62
252
70
192
10
1.200000
20
-35.585682
30
36.592542
0
VERTEX
8
0
6
CONTINUOUS
62
252
70
192
10
-0.000000
20
-30.334881
30
30.334881
0
VERTEX
8
0
6
CONTINUOUS
62
252
70
192
10
-0.000000
20
-30.882355
30
29.875495
0
VERTEX
8
0
6
CONTINUOUS
62
252
70
192
10
-0.000000
20
-31.501284
30
29.518157
0
VERTEX
8
0
6
CONTINUOUS
62
252
70
192
10
-0.000000
20
-32.172861
30
29.273723
0
VERTEX
8
0
6
CONTINUOUS
62
252
70
192
10
-0.000000
20
-32.876680
30
29.149620
0
VERTEX
8
0
6
CONTINUOUS
62
252
70
192
10
-0.000000
20
-33.591357
30
29.149620
0
VERTEX
8
0
6
CONTINUOUS
62
252
70
192
10
-0.000000
20
-34.295177
30
29.273723
0
VERTEX
8
0
6
CONTINUOUS
62
252
70
192
10
-0.000000
20
-34.966754
30
29.518157
0
VERTEX
8
0
6
CONTINUOUS
62
252
70
192
10
-0.000000
20
-35.585682
30
29.875495
0
VERTEX
8
0
6
CONTINUOUS
62
252
70
192
10
-0.000000
20
-36.133157
30
30.334881
0
VERTEX
8
0
6
CONTINUOUS
62
252
70
192
10
-0.000000
20
-36.592542
30
30.882355
0
VERTEX
8
0
6
CONTINUOUS
62
252
70
192
10
-0.000000
20
-36.949881
30
31.501284
0
VERTEX
8
0
6
CONTINUOUS
62
252
70
192
10
-0.000000
20
-37.194315
30
32.172861
0
VERTEX
8
0
6
CONTINUOUS
62
252
70
192
10
-0.000000
20
-37.318417
30
32.876680
0
VERTEX
8
0
6
CONTINUOUS
62
252
70
192
10
-0.000000
20
-37.318417
30
33.591357
0
VERTEX
8
0
6
CONTINUOUS
62
252
70
192
10
-0.000000
20
-37.194315
30
34.295177
0
VERTEX
8
0
6
CONTINUOUS
62
252
70
192
10
-0.000000
20
-36.949881
30
34.966754
0
VERTEX
8
0
6
CONTINUOUS
62
252
70
192
10
-0.000000
20
-36.592542
30
35.585682
0
VERTEX
8
0
6
CONTINUOUS
62
252
70
192
10
-0.000000
20
-36.133157
30
36.133157
0
VERTEX
8
0
6
CONTINUOUS
62
252
70
192
10
-0.000000
20
-35.585682
30
36.592542
0
VERTEX
8
0
6
CONTINUOUS
62
252
70
192
10
-0.000000
20
-34.966754
30
36.949881
0
VERTEX
8
0
6
CONTINUOUS
62
252
70
192
10
-0.000000
20
-34.295177
30
37.194315
0
VERTEX
8
0
6
CONTINUOUS
62
252
70
192
10
-0.000000
20
-33.591357
30
37.318417
0
VERTEX
8
0
6
CONTINUOUS
62
252
70
192
10
-0.000000
20
-32.876680
30
37.318417
0
VERTEX
8
0
6
CONTINUOUS
62
252
70
192
10
-0.000000
20
-32.172861
30
37.194315
0
VERTEX
8
0
6
CONTINUOUS
62
252
70
192
10
-0.000000
20
-31.501284
30
36.949881
0
VERTEX
8
0
6
CONTINUOUS
62
252
70
192
10
-0.000000
20
-30.882355
30
36.592542
0
VERTEX
8
0
6
CONTINUOUS
62
252
70
192
10
-0.000000
20
-30.334881
30
36.133157
0
VERTEX
8
0
6
CONTINUOUS
62
252
70
192
10
-0.000000
20
-29.875495
30
35.585682
0
VERTEX
8
0
6
CONTINUOUS
62
252
70
192
10
-0.000000
20
-29.518157
30
34.966754
0
VERTEX
8
0
6
CONTINUOUS
62
252
70
192
10
-0.000000
20
-29.273723
30
34.295177
0
VERTEX
8
0
6
CONTINUOUS
62
252
70
192
10
-0.000000
20
-29.149620
30
33.591357
0
VERTEX
8
0
6
CONTINUOUS
62
252
70
192
10
-0.000000
20
-29.149620
30
32.876680
0
VERTEX
8
0
6
CONTINUOUS
62
252
70
192
10
-0.000000
20
-29.273723
30
32.172861
0
VERTEX
8
0
6
CONTINUOUS
62
252
70
192
10
-0.000000
20
-29.518157
30
31.501284
0
VERTEX
8
0
6
CONTINUOUS
62
252
70
192
10
-0.000000
20
-29.875495
30
30.882355
0
VERTEX
8
0
6
CONTINUOUS
62
252
70
128
10
0.000000
20
0.000000
30
0.000000
71
2
72
54
73
1
0
VERTEX
8
0
6
CONTINUOUS
62
252
70
128
10
0.000000
20
0.000000
30
0.000000
71
1
72
54
73
55
0
VERTEX
8
0
6
CONTINUOUS
62
252
70
128
10
0.000000
20
0.000000
30
0.000000
71
1
72
55
73
36
0
VERTEX
8
0
6
CONTINUOUS
62
252
70
128
10
0.000000
20
0.000000
30
0.000000
71
36
72
55
73
56
0
VERTEX
8
0
6
CONTINUOUS
62
252
70
128
10
0.000000
20
0.000000
30
0.000000
71
36
72
56
73
35
0
VERTEX
8
0
6
CONTINUOUS
62
252
70
128
10
0.000000
20
0.000000
30
0.000000
71
35
72
56
73
57
0
VERTEX
8
0
6
CONTINUOUS
62
252
70
128
10
0.000000
20
0.000000
30
0.000000
71
35
72
57
73
34
0
VERTEX
8
0
6
CONTINUOUS
62
252
70
128
10
0.000000
20
0.000000
30
0.000000
71
34
72
57
73
58
0
VERTEX
8
0
6
CONTINUOUS
62
252
70
128
10
0.000000
20
0.000000
30
0.000000
71
34
72
58
73
33
0
VERTEX
8
0
6
CONTINUOUS
62
252
70
128
10
0.000000
20
0.000000
30
0.000000
71
33
72
58
73
59
0
VERTEX
8
0
6
CONTINUOUS
62
252
70
128
10
0.000000
20
0.000000
30
0.000000
71
33
72
59
73
32
0
VERTEX
8
0
6
CONTINUOUS
62
252
70
128
10
0.000000
20
0.000000
30
0.000000
71
32
72
59
73
60
0
VERTEX
8
0
6
CONTINUOUS
62
252
70
128
10
0.000000
20
0.000000
30
0.000000
71
32
72
60
73
31
0
VERTEX
8
0
6
CONTINUOUS
62
252
70
128
10
0.000000
20
0.000000
30
0.000000
71
31
72
60
73
61
0
VERTEX
8
0
6
CONTINUOUS
62
252
70
128
10
0.000000
20
0.000000
30
0.000000
71
31
72
61
73
30
0
VERTEX
8
0
6
CONTINUOUS
62
252
70
128
10
0.000000
20
0.000000
30
0.000000
71
30
72
61
73
62
0
VERTEX
8
0
6
CONTINUOUS
62
252
70
128
10
0.000000
20
0.000000
30
0.000000
71
30
72
62
73
29
0
VERTEX
8
0
6
CONTINUOUS
62
252
70
128
10
0.000000
20
0.000000
30
0.000000
71
29
72
62
73
63
0
VERTEX
8
0
6
CONTINUOUS
62
252
70
128
10
0.000000
20
0.000000
30
0.000000
71
29
72
63
73
28
0
VERTEX
8
0
6
CONTINUOUS
62
252
70
128
10
0.000000
20
0.000000
30
0.000000
71
28
72
63
73
64
0
VERTEX
8
0
6
CONTINUOUS
62
252
70
128
10
0.000000
20
0.000000
30
0.000000
71
28
72
64
73
27
0
VERTEX
8
0
6
CONTINUOUS
62
252
70
128
10
0.000000
20
0.000000
30
0.000000
71
27
72
64
73
65
0
VERTEX
8
0
6
CONTINUOUS
62
252
70
128
10
0.000000
20
0.000000
30
0.000000
71
27
72
65
73
26
0
VERTEX
8
0
6
CONTINUOUS
62
252
70
128
10
0.000000
20
0.000000
30
0.000000
71
26
72
65
73
66
0
VERTEX
8
0
6
CONTINUOUS
62
252
70
128
10
0.000000
20
0.000000
30
0.000000
71
26
72
66
73
25
0
VERTEX
8
0
6
CONTINUOUS
62
252
70
128
10
0.000000
20
0.000000
30
0.000000
71
25
72
66
73
67
0
VERTEX
8
0
6
CONTINUOUS
62
252
70
128
10
0.000000
20
0.000000
30
0.000000
71
25
72
67
73
24
0
VERTEX
8
0
6
CONTINUOUS
62
252
70
128
10
0.000000
20
0.000000
30
0.000000
71
24
72
67
73
68
0
VERTEX
8
0
6
CONTINUOUS
62
252
70
128
10
0.000000
20
0.000000
30
0.000000
71
24
72
68
73
23
0
VERTEX
8
0
6
CONTINUOUS
62
252
70
128
10
0.000000
20
0.000000
30
0.000000
71
23
72
68
73
69
0
VERTEX
8
0
6
CONTINUOUS
62
252
70
128
10
0.000000
20
0.000000
30
0.000000
71
23
72
69
73
22
0
VERTEX
8
0
6
CONTINUOUS
62
252
70
128
10
0.000000
20
0.000000
30
0.000000
71
22
72
69
73
70
0
VERTEX
8
0
6
CONTINUOUS
62
252
70
128
10
0.000000
20
0.000000
30
0.000000
71
22
72
70
73
21
0
VERTEX
8
0
6
CONTINUOUS
62
252
70
128
10
0.000000
20
0.000000
30
0.000000
71
21
72
70
73
71
0
VERTEX
8
0
6
CONTINUOUS
62
252
70
128
10
0.000000
20
0.000000
30
0.000000
71
21
72
71
73
20
0
VERTEX
8
0
6
CONTINUOUS
62
252
70
128
10
0.000000
20
0.000000
30
0.000000
71
20
72
71
73
72
0
VERTEX
8
0
6
CONTINUOUS
62
252
70
128
10
0.000000
20
0.000000
30
0.000000
71
20
72
72
73
19
0
VERTEX
8
0
6
CONTINUOUS
62
252
70
128
10
0.000000
20
0.000000
30
0.000000
71
19
72
72
73
37
0
VERTEX
8
0
6
CONTINUOUS
62
252
70
128
10
0.000000
20
0.000000
30
0.000000
71
19
72
37
73
18
0
VERTEX
8
0
6
CONTINUOUS
62
252
70
128
10
0.000000
20
0.000000
30
0.000000
71
18
72
37
73
38
0
VERTEX
8
0
6
CONTINUOUS
62
252
70
128
10
0.000000
20
0.000000
30
0.000000
71
18
72
38
73
17
0
VERTEX
8
0
6
CONTINUOUS
62
252
70
128
10
0.000000
20
0.000000
30
0.000000
71
17
72
38
73
39
0
VERTEX
8
0
6
CONTINUOUS
62
252
70
128
10
0.000000
20
0.000000
30
0.000000
71
17
72
39
73
16
0
VERTEX
8
0
6
CONTINUOUS
62
252
70
128
10
0.000000
20
0.000000
30
0.000000
71
16
72
39
73
40
0
VERTEX
8
0
6
CONTINUOUS
62
252
70
128
10
0.000000
20
0.000000
30
0.000000
71
16
72
40
73
15
0
VERTEX
8
0
6
CONTINUOUS
62
252
70
128
10
0.000000
20
0.000000
30
0.000000
71
15
72
40
73
41
0
VERTEX
8
0
6
CONTINUOUS
62
252
70
128
10
0.000000
20
0.000000
30
0.000000
71
15
72
41
73
14
0
VERTEX
8
0
6
CONTINUOUS
62
252
70
128
10
0.000000
20
0.000000
30
0.000000
71
14
72
41
73
42
0
VERTEX
8
0
6
CONTINUOUS
62
252
70
128
10
0.000000
20
0.000000
30
0.000000
71
14
72
42
73
13
0
VERTEX
8
0
6
CONTINUOUS
62
252
70
128
10
0.000000
20
0.000000
30
0.000000
71
13
72
42
73
43
0
VERTEX
8
0
6
CONTINUOUS
62
252
70
128
10
0.000000
20
0.000000
30
0.000000
71
13
72
43
73
12
0
VERTEX
8
0
6
CONTINUOUS
62
252
70
128
10
0.000000
20
0.000000
30
0.000000
71
12
72
43
73
44
0
VERTEX
8
0
6
CONTINUOUS
62
252
70
128
10
0.000000
20
0.000000
30
0.000000
71
12
72
44
73
11
0
VERTEX
8
0
6
CONTINUOUS
62
252
70
128
10
0.000000
20
0.000000
30
0.000000
71
11
72
44
73
45
0
VERTEX
8
0
6
CONTINUOUS
62
252
70
128
10
0.000000
20
0.000000
30
0.000000
71
11
72
45
73
10
0
VERTEX
8
0
6
CONTINUOUS
62
252
70
128
10
0.000000
20
0.000000
30
0.000000
71
10
72
45
73
46
0
VERTEX
8
0
6
CONTINUOUS
62
252
70
128
10
0.000000
20
0.000000
30
0.000000
71
10
72
46
73
9
0
VERTEX
8
0
6
CONTINUOUS
62
252
70
128
10
0.000000
20
0.000000
30
0.000000
71
9
72
46
73
47
0
VERTEX
8
0
6
CONTINUOUS
62
252
70
128
10
0.000000
20
0.000000
30
0.000000
71
9
72
47
73
8
0
VERTEX
8
0
6
CONTINUOUS
62
252
70
128
10
0.000000
20
0.000000
30
0.000000
71
8
72
47
73
48
0
VERTEX
8
0
6
CONTINUOUS
62
252
70
128
10
0.000000
20
0.000000
30
0.000000
71
8
72
48
73
7
0
VERTEX
8
0
6
CONTINUOUS
62
252
70
128
10
0.000000
20
0.000000
30
0.000000
71
7
72
48
73
49
0
VERTEX
8
0
6
CONTINUOUS
62
252
70
128
10
0.000000
20
0.000000
30
0.000000
71
7
72
49
73
6
0
VERTEX
8
0
6
CONTINUOUS
62
252
70
128
10
0.000000
20
0.000000
30
0.000000
71
6
72
49
73
50
0
VERTEX
8
0
6
CONTINUOUS
62
252
70
128
10
0.000000
20
0.000000
30
0.000000
71
6
72
50
73
5
0
VERTEX
8
0
6
CONTINUOUS
62
252
70
128
10
0.000000
20
0.000000
30
0.000000
71
5
72
50
73
51
0
VERTEX
8
0
6
CONTINUOUS
62
252
70
128
10
0.000000
20
0.000000
30
0.000000
71
5
72
51
73
4
0
VERTEX
8
0
6
CONTINUOUS
62
252
70
128
10
0.000000
20
0.000000
30
0.000000
71
4
72
51
73
52
0
VERTEX
8
0
6
CONTINUOUS
62
252
70
128
10
0.000000
20
0.000000
30
0.000000
71
4
72
52
73
3
0
VERTEX
8
0
6
CONTINUOUS
62
252
70
128
10
0.000000
20
0.000000
30
0.000000
71
3
72
52
73
53
0
VERTEX
8
0
6
CONTINUOUS
62
252
70
128
10
0.000000
20
0.000000
30
0.000000
71
3
72
53
73
2
0
VERTEX
8
0
6
CONTINUOUS
62
252
70
128
10
0.000000
20
0.000000
30
0.000000
71
2
72
53
73
54
0
SEQEND
0
POLYLINE
66
1
8
0
6
CONTINUOUS
62
252
70
64
75
0
10
0.000000
20
0.000000
30
0.000000
0
VERTEX
8
0
6
CONTINUOUS
62
252
70
192
10
12.000000
20
-24.000000
30
-28.489882
0
VERTEX
8
0
6
CONTINUOUS
62
252
70
192
10
4.300000
20
-24.000000
30
-28.870150
0
VERTEX
8
0
6
CONTINUOUS
62
252
70
192
10
4.300000
20
-24.000000
30
-39.750000
0
VERTEX
8
0
6
CONTINUOUS
62
252
70
192
10
12.000000
20
-24.000000
30
-39.750000
0
VERTEX
8
0
6
CONTINUOUS
62
252
70
128
10
0.000000
20
0.000000
30
0.000000
71
1
72
2
73
4
0
VERTEX
8
0
6
CONTINUOUS
62
252
70
128
10
0.000000
20
0.000000
30
0.000000
71
4
72
2
73
3
0
SEQEND
0
POLYLINE
66
1
8
0
6
CONTINUOUS
62
252
70
64
75
0
10
0.000000
20
0.000000
30
0.000000
0
VERTEX
8
0
6
CONTINUOUS
62
252
70
192
10
4.300000
20
24.000000
30
-28.870150
0
VERTEX
8
0
6
CONTINUOUS
62
252
70
192
10
12.000000
20
24.000000
30
-28.489882
0
VERTEX
8
0
6
CONTINUOUS
62
252
70
192
10
12.000000
20
24.000000
30
-39.750000
0
VERTEX
8
0
6
CONTINUOUS
62
252
70
192
10
4.300000
20
24.000000
30
-39.750000
0
VERTEX
8
0
6
CONTINUOUS
62
252
70
128
10
0.000000
20
0.000000
30
0.000000
71
2
72
3
73
1
0
VERTEX
8
0
6
CONTINUOUS
62
252
70
128
10
0.000000
20
0.000000
30
0.000000
71
1
72
3
73
4
0
SEQEND
0
POLYLINE
66
1
8
0
6
CONTINUOUS
62
252
70
64
75
0
10
0.000000
20
0.000000
30
0.000000
0
VERTEX
8
0
6
CONTINUOUS
62
252
70
192
10
12.000000
20
-17.138622
30
-35.351260
0
VERTEX
8
0
6
CONTINUOUS
62
252
70
192
10
12.000000
20
-24.000000
30
-28.489882
0
VERTEX
8
0
6
CONTINUOUS
62
252
70
192
10
12.000000
20
-24.000000
30
-39.750000
0
VERTEX
8
0
6
CONTINUOUS
62
252
70
192
10
12.000000
20
24.000000
30
-39.750000
0
VERTEX
8
0
6
CONTINUOUS
62
252
70
192
10
12.000000
20
24.000000
30
-28.489882
0
VERTEX
8
0
6
CONTINUOUS
62
252
70
192
10
12.000000
20
17.138622
30
-35.351260
0
VERTEX
8
0
6
CONTINUOUS
62
252
70
128
10
0.000000
20
0.000000
30
0.000000
71
2
72
3
73
1
0
VERTEX
8
0
6
CONTINUOUS
62
252
70
128
10
0.000000
20
0.000000
30
0.000000
71
1
72
3
73
4
0
VERTEX
8
0
6
CONTINUOUS
62
252
70
128
10
0.000000
20
0.000000
30
0.000000
71
1
72
4
73
6
0
VERTEX
8
0
6
CONTINUOUS
62
252
70
128
10
0.000000
20
0.000000
30
0.000000
71
6
72
4
73
5
0
SEQEND
0
POLYLINE
66
1
8
0
6
CONTINUOUS
62
252
70
64
75
0
10
0.000000
20
0.000000
30
0.000000
0
VERTEX
8
0
6
CONTINUOUS
62
252
70
192
10
12.000000
20
-17.138622
30
-35.351260
0
VERTEX
8
0
6
CONTINUOUS
62
252
70
192
10
12.000000
20
17.138622
30
-35.351260
0
VERTEX
8
0
6
CONTINUOUS
62
252
70
192
10
37.000000
20
16.777006
30
-34.478241
0
VERTEX
8
0
6
CONTINUOUS
62
252
70
192
10
37.000000
20
-16.777006
30
-34.478241
0
VERTEX
8
0
6
CONTINUOUS
62
252
70
128
10
0.000000
20
0.000000
30
0.000000
71
1
72
2
73
4
0
VERTEX
8
0
6
CONTINUOUS
62
252
70
128
10
0.000000
20
0.000000
30
0.000000
71
4
72
2
73
3
0
SEQEND
0
POLYLINE
66
1
8
0
6
CONTINUOUS
62
252
70
64
75
0
10
0.000000
20
0.000000
30
0.000000
0
VERTEX
8
0
6
CONTINUOUS
62
252
70
192
10
12.000000
20
17.138622
30
-35.351260
0
VERTEX
8
0
6
CONTINUOUS
62
252
70
192
10
12.000000
20
24.000000
30
-28.489882
0
VERTEX
8
0
6
CONTINUOUS
62
252
70
192
10
4.300000
20
24.000000
30
-28.870150
0
VERTEX
8
0
6
CONTINUOUS
62
252
70
192
10
4.300000
20
35.620150
30
-17.250000
0
VERTEX
8
0
6
CONTINUOUS
62
252
70
192
10
37.000000
20
34.478241
30
-16.777006
0
VERTEX
8
0
6
CONTINUOUS
62
252
70
192
10
37.000000
20
16.777006
30
-34.478241
0
VERTEX
8
0
6
CONTINUOUS
62
252
70
128
10
0.000000
20
0.000000
30
0.000000
71
1
72
2
73
6
0
VERTEX
8
0
6
CONTINUOUS
62
252
70
128
10
0.000000
20
0.000000
30
0.000000
71
6
72
2
73
5
0
VERTEX
8
0
6
CONTINUOUS
62
252
70
128
10
0.000000
20
0.000000
30
0.000000
71
5
72
2
73
4
0
VERTEX
8
0
6
CONTINUOUS
62
252
70
128
10
0.000000
20
0.000000
30
0.000000
71
4
72
2
73
3
0
SEQEND
0
POLYLINE
66
1
8
0
6
CONTINUOUS
62
252
70
64
75
0
10
0.000000
20
0.000000
30
0.000000
0
VERTEX
8
0
6
CONTINUOUS
62
252
70
192
10
4.300000
20
-31.971825
30
39.750000
0
VERTEX
8
0
6
CONTINUOUS
62
252
70
192
10
1.200000
20
-31.971825
30
39.750000
0
VERTEX
8
0
6
CONTINUOUS
62
252
70
192
10
1.200000
20
-29.344931
30
37.123106
0
VERTEX
8
0
6
CONTINUOUS
62
252
70
192
10
4.300000
20
-29.344931
30
37.123106
0
VERTEX
8
0
6
CONTINUOUS
62
252
70
128
10
0.000000
20
0.000000
30
0.000000
71
1
72
2
73
4
0
VERTEX
8
0
6
CONTINUOUS
62
252
70
128
10
0.000000
20
0.000000
30
0.000000
71
4
72
2
73
3
0
SEQEND
0
POLYLINE
66
1
8
0
6
CONTINUOUS
62
252
70
64
75
0
10
0.000000
20
0.000000
30
0.000000
0
VERTEX
8
0
6
CONTINUOUS
62
252
70
192
10
1.200000
20
-39.750000
30
31.971825
0
VERTEX
8
0
6
CONTINUOUS
62
252
70
192
10
4.300000
20
-39.750000
30
31.971825
0
VERTEX
8
0
6
CONTINUOUS
62
252
70
192
10
4.300000
20
-37.123106
30
29.344931
0
VERTEX
8
0
6
CONTINUOUS
62
252
70
192
10
1.200000
20
-37.123106
30
29.344931
0
VERTEX
8
0
6
CONTINUOUS
62
252
70
128
10
0.000000
20
0.000000
30
0.000000
71
1
72
2
73
4
0
VERTEX
8
0
6
CONTINUOUS
62
252
70
128
10
0.000000
20
0.000000
30
0.000000
71
4
72
2
73
3
0
SEQEND
0
POLYLINE
66
1
8
0
6
CONTINUOUS
62
252
70
64
75
0
10
0.000000
20
0.000000
30
0.000000
0
VERTEX
8
0
6
CONTINUOUS
62
252
70
192
10
1.200000
20
-29.344931
30
37.123106
0
VERTEX
8
0
6
CONTINUOUS
62
252
70
192
10
1.200000
20
-28.728682
30
36.388689
0
VERTEX
8
0
6
CONTINUOUS
62
252
70
192
10
1.200000
20
-28.249326
30
35.558419
0
VERTEX
8
0
6
CONTINUOUS
62
252
70
192
10
1.200000
20
-27.921427
30
34.657523
0
VERTEX
8
0
6
CONTINUOUS
62
252
70
192
10
1.200000
20
-27.754948
30
33.713375
0
VERTEX
8
0
6
CONTINUOUS
62
252
70
192
10
1.200000
20
-27.754948
30
32.754662
0
VERTEX
8
0
6
CONTINUOUS
62
252
70
192
10
1.200000
20
-27.921427
30
31.810514
0
VERTEX
8
0
6
CONTINUOUS
62
252
70
192
10
1.200000
20
-28.249326
30
30.909618
0
VERTEX
8
0
6
CONTINUOUS
62
252
70
192
10
1.200000
20
-28.728682
30
30.079348
0
VERTEX
8
0
6
CONTINUOUS
62
252
70
192
10
1.200000
20
-29.344931
30
29.344931
0
VERTEX
8
0
6
CONTINUOUS
62
252
70
192
10
1.200000
20
-30.079348
30
28.728682
0
VERTEX
8
0
6
CONTINUOUS
62
252
70
192
10
1.200000
20
-30.909618
30
28.249326
0
VERTEX
8
0
6
CONTINUOUS
62
252
70
192
10
1.200000
20
-31.810514
30
27.921427
0
VERTEX
8
0
6
CONTINUOUS
62
252
70
192
10
1.200000
20
-32.754662
30
27.754948
0
VERTEX
8
0
6
CONTINUOUS
62
252
70
192
10
1.200000
20
-33.713375
30
27.754948
0
VERTEX
8
0
6
CONTINUOUS
62
252
70
192
10
1.200000
20
-34.657523
30
27.921427
0
VERTEX
8
0
6
CONTINUOUS
62
252
70
192
10
1.200000
20
-35.558419
30
28.249326
0
VERTEX
8
0
6
CONTINUOUS
62
252
70
192
10
1.200000
20
-36.388689
30
28.728682
0
VERTEX
8
0
6
CONTINUOUS
62
252
70
192
10
1.200000
20
-37.123106
30
29.344931
0
VERTEX
8
0
6
CONTINUOUS
62
252
70
192
10
4.300000
20
-37.123106
30
29.344931
0
VERTEX
8
0
6
CONTINUOUS
62
252
70
192
10
4.300000
20
-36.388689
30
28.728682
0
VERTEX
8
0
6
CONTINUOUS
62
252
70
192
10
4.300000
20
-35.558419
30
28.249326
0
VERTEX
8
0
6
CONTINUOUS
62
252
70
192
10
4.300000
20
-34.657523
30
27.921427
0
VERTEX
8
0
6
CONTINUOUS
62
252
70
192
10
4.300000
20
-33.713375
30
27.754948
0
VERTEX
8
0
6
CONTINUOUS
62
252
70
192
10
4.300000
20
-32.754662
30
27.754948
0
VERTEX
8
0
6
CONTINUOUS
62
252
70
192
10
4.300000
20
-31.810514
30
27.921427
0
VERTEX
8
0
6
CONTINUOUS
62
252
70
192
10
4.300000
20
-30.909618
30
28.249326
0
VERTEX
8
0
6
CONTINUOUS
62
252
70
192
10
4.300000
20
-30.079348
30
28.728682
0
VERTEX
8
0
6
CONTINUOUS
62
252
70
192
10
4.300000
20
-29.344931
30
29.344931
0
VERTEX
8
0
6
CONTINUOUS
62
252
70
192
10
4.300000
20
-28.728682
30
30.079348
0
VERTEX
8
0
6
CONTINUOUS
62
252
70
192
10
4.300000
20
-28.249326
30
30.909618
0
VERTEX
8
0
6
CONTINUOUS
62
252
70
192
10
4.300000
20
-27.921427
30
31.810514
0
VERTEX
8
0
6
CONTINUOUS
62
252
70
192
10
4.300000
20
-27.754948
30
32.754662
0
VERTEX
8
0
6
CONTINUOUS
62
252
70
192
10
4.300000
20
-27.754948
30
33.713375
0
VERTEX
8
0
6
CONTINUOUS
62
252
70
192
10
4.300000
20
-27.921427
30
34.657523
0
VERTEX
8
0
6
CONTINUOUS
62
252
70
192
10
4.300000
20
-28.249326
30
35.558419
0
VERTEX
8
0
6
CONTINUOUS
62
252
70
192
10
4.300000
20
-28.728682
30
36.388689
0
VERTEX
8
0
6
CONTINUOUS
62
252
70
192
10
4.300000
20
-29.344931
30
37.123106
0
VERTEX
8
0
6
CONTINUOUS
62
252
70
128
10
0.000000
20
0.000000
30
0.000000
71
38
72
1
73
37
0
VERTEX
8
0
6
CONTINUOUS
62
252
70
128
10
0.000000
20
0.000000
30
0.000000
71
37
72
1
73
2
0
VERTEX
8
0
6
CONTINUOUS
62
252
70
128
10
0.000000
20
0.000000
30
0.000000
71
37
72
2
73
36
0
VERTEX
8
0
6
CONTINUOUS
62
252
70
128
10
0.000000
20
0.000000
30
0.000000
71
36
72
2
73
3
0
VERTEX
8
0
6
CONTINUOUS
62
252
70
128
10
0.000000
20
0.000000
30
0.000000
71
36
72
3
73
35
0
VERTEX
8
0
6
CONTINUOUS
62
252
70
128
10
0.000000
20
0.000000
30
0.000000
71
35
72
3
73
4
0
VERTEX
8
0
6
CONTINUOUS
62
252
70
128
10
0.000000
20
0.000000
30
0.000000
71
35
72
4
73
34
0
VERTEX
8
0
6
CONTINUOUS
62
252
70
128
10
0.000000
20
0.000000
30
0.000000
71
34
72
4
73
5
0
VERTEX
8
0
6
CONTINUOUS
62
252
70
128
10
0.000000
20
0.000000
30
0.000000
71
34
72
5
73
33
0
VERTEX
8
0
6
CONTINUOUS
62
252
70
128
10
0.000000
20
0.000000
30
0.000000
71
33
72
5
73
6
0
VERTEX
8
0
6
CONTINUOUS
62
252
70
128
10
0.000000
20
0.000000
30
0.000000
71
33
72
6
73
32
0
VERTEX
8
0
6
CONTINUOUS
62
252
70
128
10
0.000000
20
0.000000
30
0.000000
71
32
72
6
73
7
0
VERTEX
8
0
6
CONTINUOUS
62
252
70
128
10
0.000000
20
0.000000
30
0.000000
71
32
72
7
73
31
0
VERTEX
8
0
6
CONTINUOUS
62
252
70
128
10
0.000000
20
0.000000
30
0.000000
71
31
72
7
73
8
0
VERTEX
8
0
6
CONTINUOUS
62
252
70
128
10
0.000000
20
0.000000
30
0.000000
71
31
72
8
73
30
0
VERTEX
8
0
6
CONTINUOUS
62
252
70
128
10
0.000000
20
0.000000
30
0.000000
71
30
72
8
73
9
0
VERTEX
8
0
6
CONTINUOUS
62
252
70
128
10
0.000000
20
0.000000
30
0.000000
71
30
72
9
73
29
0
VERTEX
8
0
6
CONTINUOUS
62
252
70
128
10
0.000000
20
0.000000
30
0.000000
71
29
72
9
73
10
0
VERTEX
8
0
6
CONTINUOUS
62
252
70
128
10
0.000000
20
0.000000
30
0.000000
71
29
72
10
73
28
0
VERTEX
8
0
6
CONTINUOUS
62
252
70
128
10
0.000000
20
0.000000
30
0.000000
71
28
72
10
73
11
0
VERTEX
8
0
6
CONTINUOUS
62
252
70
128
10
0.000000
20
0.000000
30
0.000000
71
28
72
11
73
27
0
VERTEX
8
0
6
CONTINUOUS
62
252
70
128
10
0.000000
20
0.000000
30
0.000000
71
27
72
11
73
12
0
VERTEX
8
0
6
CONTINUOUS
62
252
70
128
10
0.000000
20
0.000000
30
0.000000
71
27
72
12
73
26
0
VERTEX
8
0
6
CONTINUOUS
62
252
70
128
10
0.000000
20
0.000000
30
0.000000
71
26
72
12
73
13
0
VERTEX
8
0
6
CONTINUOUS
62
252
70
128
10
0.000000
20
0.000000
30
0.000000
71
26
72
13
73
25
0
VERTEX
8
0
6
CONTINUOUS
62
252
70
128
10
0.000000
20
0.000000
30
0.000000
71
25
72
13
73
14
0
VERTEX
8
0
6
CONTINUOUS
62
252
70
128
10
0.000000
20
0.000000
30
0.000000
71
25
72
14
73
24
0
VERTEX
8
0
6
CONTINUOUS
62
252
70
128
10
0.000000
20
0.000000
30
0.000000
71
24
72
14
73
15
0
VERTEX
8
0
6
CONTINUOUS
62
252
70
128
10
0.000000
20
0.000000
30
0.000000
71
24
72
15
73
23
0
VERTEX
8
0
6
CONTINUOUS
62
252
70
128
10
0.000000
20
0.000000
30
0.000000
71
23
72
15
73
16
0
VERTEX
8
0
6
CONTINUOUS
62
252
70
128
10
0.000000
20
0.000000
30
0.000000
71
23
72
16
73
22
0
VERTEX
8
0
6
CONTINUOUS
62
252
70
128
10
0.000000
20
0.000000
30
0.000000
71
22
72
16
73
17
0
VERTEX
8
0
6
CONTINUOUS
62
252
70
128
10
0.000000
20
0.000000
30
0.000000
71
22
72
17
73
21
0
VERTEX
8
0
6
CONTINUOUS
62
252
70
128
10
0.000000
20
0.000000
30
0.000000
71
21
72
17
73
18
0
VERTEX
8
0
6
CONTINUOUS
62
252
70
128
10
0.000000
20
0.000000
30
0.000000
71
21
72
18
73
20
0
VERTEX
8
0
6
CONTINUOUS
62
252
70
128
10
0.000000
20
0.000000
30
0.000000
71
20
72
18
73
19
0
SEQEND
0
POLYLINE
66
1
8
0
6
CONTINUOUS
62
252
70
64
75
0
10
0.000000
20
0.000000
30
0.000000
0
VERTEX
8
0
6
CONTINUOUS
62
252
70
192
10
1.200000
20
-36.133157
30
36.133157
0
VERTEX
8
0
6
CONTINUOUS
62
252
70
192
10
1.200000
20
-35.585682
30
36.592542
0
VERTEX
8
0
6
CONTINUOUS
62
252
70
192
10
1.200000
20
-34.966754
30
36.949881
0
VERTEX
8
0
6
CONTINUOUS
62
252
70
192
10
1.200000
20
-34.295177
30
37.194315
0
VERTEX
8
0
6
CONTINUOUS
62
252
70
192
10
1.200000
20
-33.591357
30
37.318417
0
VERTEX
8
0
6
CONTINUOUS
62
252
70
192
10
1.200000
20
-32.876680
30
37.318417
0
VERTEX
8
0
6
CONTINUOUS
62
252
70
192
10
1.200000
20
-32.172861
30
37.194315
0
VERTEX
8
0
6
CONTINUOUS
62
252
70
192
10
1.200000
20
-31.501284
30
36.949881
0
VERTEX
8
0
6
CONTINUOUS
62
252
70
192
10
1.200000
20
-30.882355
30
36.592542
0
VERTEX
8
0
6
CONTINUOUS
62
252
70
192
10
1.200000
20
-30.334881
30
36.133157
0
VERTEX
8
0
6
CONTINUOUS
62
252
70
192
10
1.200000
20
-29.875495
30
35.585682
0
VERTEX
8
0
6
CONTINUOUS
62
252
70
192
10
1.200000
20
-29.518157
30
34.966754
0
VERTEX
8
0
6
CONTINUOUS
62
252
70
192
10
1.200000
20
-29.273723
30
34.295177
0
VERTEX
8
0
6
CONTINUOUS
62
252
70
192
10
1.200000
20
-29.149620
30
33.591357
0
VERTEX
8
0
6
CONTINUOUS
62
252
70
192
10
1.200000
20
-29.149620
30
32.876680
0
VERTEX
8
0
6
CONTINUOUS
62
252
70
192
10
1.200000
20
-29.273723
30
32.172861
0
VERTEX
8
0
6
CONTINUOUS
62
252
70
192
10
1.200000
20
-29.518157
30
31.501284
0
VERTEX
8
0
6
CONTINUOUS
62
252
70
192
10
1.200000
20
-29.875495
30
30.882355
0
VERTEX
8
0
6
CONTINUOUS
62
252
70
192
10
1.200000
20
-30.334881
30
30.334881
0
VERTEX
8
0
6
CONTINUOUS
62
252
70
192
10
1.200000
20
-30.882355
30
29.875495
0
VERTEX
8
0
6
CONTINUOUS
62
252
70
192
10
1.200000
20
-31.501284
30
29.518157
0
VERTEX
8
0
6
CONTINUOUS
62
252
70
192
10
1.200000
20
-32.172861
30
29.273723
0
VERTEX
8
0
6
CONTINUOUS
62
252
70
192
10
1.200000
20
-32.876680
30
29.149620
0
VERTEX
8
0
6
CONTINUOUS
62
252
70
192
10
1.200000
20
-33.591357
30
29.149620
0
VERTEX
8
0
6
CONTINUOUS
62
252
70
192
10
1.200000
20
-34.295177
30
29.273723
0
VERTEX
8
0
6
CONTINUOUS
62
252
70
192
10
1.200000
20
-34.966754
30
29.518157
0
VERTEX
8
0
6
CONTINUOUS
62
252
70
192
10
1.200000
20
-35.585682
30
29.875495
0
VERTEX
8
0
6
CONTINUOUS
62
252
70
192
10
1.200000
20
-36.133157
30
30.334881
0
VERTEX
8
0
6
CONTINUOUS
62
252
70
192
10
1.200000
20
-36.592542
30
30.882355
0
VERTEX
8
0
6
CONTINUOUS
62
252
70
192
10
1.200000
20
-36.949881
30
31.501284
0
VERTEX
8
0
6
CONTINUOUS
62
252
70
192
10
1.200000
20
-37.194315
30
32.172861
0
VERTEX
8
0
6
CONTINUOUS
62
252
70
192
10
1.200000
20
-37.318417
30
32.876680
0
VERTEX
8
0
6
CONTINUOUS
62
252
70
192
10
1.200000
20
-37.318417
30
33.591357
0
VERTEX
8
0
6
CONTINUOUS
62
252
70
192
10
1.200000
20
-37.194315
30
34.295177
0
VERTEX
8
0
6
CONTINUOUS
62
252
70
192
10
1.200000
20
-36.949881
30
34.966754
0
VERTEX
8
0
6
CONTINUOUS
62
252
70
192
10
1.200000
20
-36.592542
30
35.585682
0
VERTEX
8
0
6
CONTINUOUS
62
252
70
192
10
1.200000
20
-31.971825
30
39.750000
0
VERTEX
8
0
6
CONTINUOUS
62
252
70
192
10
1.200000
20
-32.750000
30
39.750000
0
VERTEX
8
0
6
CONTINUOUS
62
252
70
192
10
1.200000
20
-33.965537
30
39.643654
0
VERTEX
8
0
6
CONTINUOUS
62
252
70
192
10
1.200000
20
-35.144141
30
39.327848
0
VERTEX
8
0
6
CONTINUOUS
62
252
70
192
10
1.200000
20
-36.250000
30
38.812178
0
VERTEX
8
0
6
CONTINUOUS
62
252
70
192
10
1.200000
20
-37.249513
30
38.112311
0
VERTEX
8
0
6
CONTINUOUS
62
252
70
192
10
1.200000
20
-38.112311
30
37.249513
0
VERTEX
8
0
6
CONTINUOUS
62
252
70
192
10
1.200000
20
-38.812178
30
36.250000
0
VERTEX
8
0
6
CONTINUOUS
62
252
70
192
10
1.200000
20
-39.327848
30
35.144141
0
VERTEX
8
0
6
CONTINUOUS
62
252
70
192
10
1.200000
20
-39.643654
30
33.965537
0
VERTEX
8
0
6
CONTINUOUS
62
252
70
192
10
1.200000
20
-39.750000
30
32.750000
0
VERTEX
8
0
6
CONTINUOUS
62
252
70
192
10
1.200000
20
-39.750000
30
31.971825
0
VERTEX
8
0
6
CONTINUOUS
62
252
70
192
10
1.200000
20
-37.123106
30
29.344931
0
VERTEX
8
0
6
CONTINUOUS
62
252
70
192
10
1.200000
20
-36.388689
30
28.728682
0
VERTEX
8
0
6
CONTINUOUS
62
252
70
192
10
1.200000
20
-35.558419
30
28.249326
0
VERTEX
8
0
6
CONTINUOUS
62
252
70
192
10
1.200000
20
-34.657523
30
27.921427
0
VERTEX
8
0
6
CONTINUOUS
62
252
70
192
10
1.200000
20
-33.713375
30
27.754948
0
VERTEX
8
0
6
CONTINUOUS
62
252
70
192
10
1.200000
20
-32.754662
30
27.754948
0
VERTEX
8
0
6
CONTINUOUS
62
252
70
192
10
1.200000
20
-31.810514
30
27.921427
0
VERTEX
8
0
6
CONTINUOUS
62
252
70
192
10
1.200000
20
-30.909618
30
28.249326
0
VERTEX
8
0
6
CONTINUOUS
62
252
70
192
10
1.200000
20
-30.079348
30
28.728682
0
VERTEX
8
0
6
CONTINUOUS
62
252
70
192
10
1.200000
20
-29.344931
30
29.344931
0
VERTEX
8
0
6
CONTINUOUS
62
252
70
192
10
1.200000
20
-28.728682
30
30.079348
0
VERTEX
8
0
6
CONTINUOUS
62
252
70
192
10
1.200000
20
-28.249326
30
30.909618
0
VERTEX
8
0
6
CONTINUOUS
62
252
70
192
10
1.200000
20
-27.921427
30
31.810514
0
VERTEX
8
0
6
CONTINUOUS
62
252
70
192
10
1.200000
20
-27.754948
30
32.754662
0
VERTEX
8
0
6
CONTINUOUS
62
252
70
192
10
1.200000
20
-27.754948
30
33.713375
0
VERTEX
8
0
6
CONTINUOUS
62
252
70
192
10
1.200000
20
-27.921427
30
34.657523
0
VERTEX
8
0
6
CONTINUOUS
62
252
70
192
10
1.200000
20
-28.249326
30
35.558419
0
VERTEX
8
0
6
CONTINUOUS
62
252
70
192
10
1.200000
20
-28.728682
30
36.388689
0
VERTEX
8
0
6
CONTINUOUS
62
252
70
192
10
1.200000
20
-29.344931
30
37.123106
0
VERTEX
8
0
6
CONTINUOUS
62
252
70
128
10
0.000000
20
0.000000
30
0.000000
71
2
72
42
73
1
0
VERTEX
8
0
6
CONTINUOUS
62
252
70
128
10
0.000000
20
0.000000
30
0.000000
71
1
72
42
73
43
0
VERTEX
8
0
6
CONTINUOUS
62
252
70
128
10
0.000000
20
0.000000
30
0.000000
71
1
72
43
73
36
0
VERTEX
8
0
6
CONTINUOUS
62
252
70
128
10
0.000000
20
0.000000
30
0.000000
71
36
72
43
73
44
0
VERTEX
8
0
6
CONTINUOUS
62
252
70
128
10
0.000000
20
0.000000
30
0.000000
71
36
72
44
73
35
0
VERTEX
8
0
6
CONTINUOUS
62
252
70
128
10
0.000000
20
0.000000
30
0.000000
71
35
72
44
73
45
0
VERTEX
8
0
6
CONTINUOUS
62
252
70
128
10
0.000000
20
0.000000
30
0.000000
71
35
72
45
73
34
0
VERTEX
8
0
6
CONTINUOUS
62
252
70
128
10
0.000000
20
0.000000
30
0.000000
71
34
72
45
73
33
0
VERTEX
8
0
6
CONTINUOUS
62
252
70
128
10
0.000000
20
0.000000
30
0.000000
71
33
72
45
73
46
0
VERTEX
8
0
6
CONTINUOUS
62
252
70
128
10
0.000000
20
0.000000
30
0.000000
71
33
72
46
73
32
0
VERTEX
8
0
6
CONTINUOUS
62
252
70
128
10
0.000000
20
0.000000
30
0.000000
71
32
72
46
73
47
0
VERTEX
8
0
6
CONTINUOUS
62
252
70
128
10
0.000000
20
0.000000
30
0.000000
71
32
72
47
73
31
0
VERTEX
8
0
6
CONTINUOUS
62
252
70
128
10
0.000000
20
0.000000
30
0.000000
71
31
72
47
73
48
0
VERTEX
8
0
6
CONTINUOUS
62
252
70
128
10
0.000000
20
0.000000
30
0.000000
71
31
72
48
73
30
0
VERTEX
8
0
6
CONTINUOUS
62
252
70
128
10
0.000000
20
0.000000
30
0.000000
71
30
72
48
73
49
0
VERTEX
8
0
6
CONTINUOUS
62
252
70
128
10
0.000000
20
0.000000
30
0.000000
71
30
72
49
73
29
0
VERTEX
8
0
6
CONTINUOUS
62
252
70
128
10
0.000000
20
0.000000
30
0.000000
71
29
72
49
73
28
0
VERTEX
8
0
6
CONTINUOUS
62
252
70
128
10
0.000000
20
0.000000
30
0.000000
71
28
72
49
73
50
0
VERTEX
8
0
6
CONTINUOUS
62
252
70
128
10
0.000000
20
0.000000
30
0.000000
71
28
72
50
73
27
0
VERTEX
8
0
6
CONTINUOUS
62
252
70
128
10
0.000000
20
0.000000
30
0.000000
71
27
72
50
73
51
0
VERTEX
8
0
6
CONTINUOUS
62
252
70
128
10
0.000000
20
0.000000
30
0.000000
71
27
72
51
73
26
0
VERTEX
8
0
6
CONTINUOUS
62
252
70
128
10
0.000000
20
0.000000
30
0.000000
71
26
72
51
73
52
0
VERTEX
8
0
6
CONTINUOUS
62
252
70
128
10
0.000000
20
0.000000
30
0.000000
71
26
72
52
73
25
0
VERTEX
8
0
6
CONTINUOUS
62
252
70
128
10
0.000000
20
0.000000
30
0.000000
71
25
72
52
73
53
0
VERTEX
8
0
6
CONTINUOUS
62
252
70
128
10
0.000000
20
0.000000
30
0.000000
71
25
72
53
73
24
0
VERTEX
8
0
6
CONTINUOUS
62
252
70
128
10
0.000000
20
0.000000
30
0.000000
71
24
72
53
73
54
0
VERTEX
8
0
6
CONTINUOUS
62
252
70
128
10
0.000000
20
0.000000
30
0.000000
71
24
72
54
73
23
0
VERTEX
8
0
6
CONTINUOUS
62
252
70
128
10
0.000000
20
0.000000
30
0.000000
71
23
72
54
73
55
0
VERTEX
8
0
6
CONTINUOUS
62
252
70
128
10
0.000000
20
0.000000
30
0.000000
71
23
72
55
73
22
0
VERTEX
8
0
6
CONTINUOUS
62
252
70
128
10
0.000000
20
0.000000
30
0.000000
71
22
72
55
73
56
0
VERTEX
8
0
6
CONTINUOUS
62
252
70
128
10
0.000000
20
0.000000
30
0.000000
71
22
72
56
73
21
0
VERTEX
8
0
6
CONTINUOUS
62
252
70
128
10
0.000000
20
0.000000
30
0.000000
71
21
72
56
73
57
0
VERTEX
8
0
6
CONTINUOUS
62
252
70
128
10
0.000000
20
0.000000
30
0.000000
71
21
72
57
73
20
0
VERTEX
8
0
6
CONTINUOUS
62
252
70
128
10
0.000000
20
0.000000
30
0.000000
71
20
72
57
73
58
0
VERTEX
8
0
6
CONTINUOUS
62
252
70
128
10
0.000000
20
0.000000
30
0.000000
71
20
72
58
73
19
0
VERTEX
8
0
6
CONTINUOUS
62
252
70
128
10
0.000000
20
0.000000
30
0.000000
71
19
72
58
73
18
0
VERTEX
8
0
6
CONTINUOUS
62
252
70
128
10
0.000000
20
0.000000
30
0.000000
71
18
72
58
73
59
0
VERTEX
8
0
6
CONTINUOUS
62
252
70
128
10
0.000000
20
0.000000
30
0.000000
71
18
72
59
73
17
0
VERTEX
8
0
6
CONTINUOUS
62
252
70
128
10
0.000000
20
0.000000
30
0.000000
71
17
72
59
73
60
0
VERTEX
8
0
6
CONTINUOUS
62
252
70
128
10
0.000000
20
0.000000
30
0.000000
71
17
72
60
73
16
0
VERTEX
8
0
6
CONTINUOUS
62
252
70
128
10
0.000000
20
0.000000
30
0.000000
71
16
72
60
73
61
0
VERTEX
8
0
6
CONTINUOUS
62
252
70
128
10
0.000000
20
0.000000
30
0.000000
71
16
72
61
73
15
0
VERTEX
8
0
6
CONTINUOUS
62
252
70
128
10
0.000000
20
0.000000
30
0.000000
71
15
72
61
73
62
0
VERTEX
8
0
6
CONTINUOUS
62
252
70
128
10
0.000000
20
0.000000
30
0.000000
71
15
72
62
73
14
0
VERTEX
8
0
6
CONTINUOUS
62
252
70
128
10
0.000000
20
0.000000
30
0.000000
71
14
72
62
73
63
0
VERTEX
8
0
6
CONTINUOUS
62
252
70
128
10
0.000000
20
0.000000
30
0.000000
71
14
72
63
73
13
0
VERTEX
8
0
6
CONTINUOUS
62
252
70
128
10
0.000000
20
0.000000
30
0.000000
71
13
72
63
73
64
0
VERTEX
8
0
6
CONTINUOUS
62
252
70
128
10
0.000000
20
0.000000
30
0.000000
71
13
72
64
73
12
0
VERTEX
8
0
6
CONTINUOUS
62
252
70
128
10
0.000000
20
0.000000
30
0.000000
71
12
72
64
73
65
0
VERTEX
8
0
6
CONTINUOUS
62
252
70
128
10
0.000000
20
0.000000
30
0.000000
71
12
72
65
73
11
0
VERTEX
8
0
6
CONTINUOUS
62
252
70
128
10
0.000000
20
0.000000
30
0.000000
71
11
72
65
73
66
0
VERTEX
8
0
6
CONTINUOUS
62
252
70
128
10
0.000000
20
0.000000
30
0.000000
71
11
72
66
73
10
0
VERTEX
8
0
6
CONTINUOUS
62
252
70
128
10
0.000000
20
0.000000
30
0.000000
71
10
72
66
73
67
0
VERTEX
8
0
6
CONTINUOUS
62
252
70
128
10
0.000000
20
0.000000
30
0.000000
71
10
72
67
73
9
0
VERTEX
8
0
6
CONTINUOUS
62
252
70
128
10
0.000000
20
0.000000
30
0.000000
71
9
72
67
73
8
0
VERTEX
8
0
6
CONTINUOUS
62
252
70
128
10
0.000000
20
0.000000
30
0.000000
71
8
72
67
73
37
0
VERTEX
8
0
6
CONTINUOUS
62
252
70
128
10
0.000000
20
0.000000
30
0.000000
71
8
72
37
73
7
0
VERTEX
8
0
6
CONTINUOUS
62
252
70
128
10
0.000000
20
0.000000
30
0.000000
71
7
72
37
73
38
0
VERTEX
8
0
6
CONTINUOUS
62
252
70
128
10
0.000000
20
0.000000
30
0.000000
71
7
72
38
73
6
0
VERTEX
8
0
6
CONTINUOUS
62
252
70
128
10
0.000000
20
0.000000
30
0.000000
71
6
72
38
73
39
0
VERTEX
8
0
6
CONTINUOUS
62
252
70
128
10
0.000000
20
0.000000
30
0.000000
71
6
72
39
73
5
0
VERTEX
8
0
6
CONTINUOUS
62
252
70
128
10
0.000000
20
0.000000
30
0.000000
71
5
72
39
73
40
0
VERTEX
8
0
6
CONTINUOUS
62
252
70
128
10
0.000000
20
0.000000
30
0.000000
71
5
72
40
73
4
0
VERTEX
8
0
6
CONTINUOUS
62
252
70
128
10
0.000000
20
0.000000
30
0.000000
71
4
72
40
73
3
0
VERTEX
8
0
6
CONTINUOUS
62
252
70
128
10
0.000000
20
0.000000
30
0.000000
71
3
72
40
73
41
0
VERTEX
8
0
6
CONTINUOUS
62
252
70
128
10
0.000000
20
0.000000
30
0.000000
71
3
72
41
73
2
0
VERTEX
8
0
6
CONTINUOUS
62
252
70
128
10
0.000000
20
0.000000
30
0.000000
71
2
72
41
73
42
0
SEQEND
0
POLYLINE
66
1
8
0
6
CONTINUOUS
62
252
70
64
75
0
10
0.000000
20
0.000000
30
0.000000
0
VERTEX
8
0
6
CONTINUOUS
62
252
70
192
10
1.200000
20
-32.750000
30
39.750000
0
VERTEX
8
0
6
CONTINUOUS
62
252
70
192
10
1.200000
20
-31.971825
30
39.750000
0
VERTEX
8
0
6
CONTINUOUS
62
252
70
192
10
4.300000
20
-31.971825
30
39.750000
0
VERTEX
8
0
6
CONTINUOUS
62
252
70
192
10
4.300000
20
31.971825
30
39.750000
0
VERTEX
8
0
6
CONTINUOUS
62
252
70
192
10
1.200000
20
31.971825
30
39.750000
0
VERTEX
8
0
6
CONTINUOUS
62
252
70
192
10
1.200000
20
32.750000
30
39.750000
0
VERTEX
8
0
6
CONTINUOUS
62
252
70
192
10
-0.000000
20
32.750000
30
39.750000
0
VERTEX
8
0
6
CONTINUOUS
62
252
70
192
10
-0.000000
20
-32.750000
30
39.750000
0
VERTEX
8
0
6
CONTINUOUS
62
252
70
128
10
0.000000
20
0.000000
30
0.000000
71
1
72
2
73
8
0
VERTEX
8
0
6
CONTINUOUS
62
252
70
128
10
0.000000
20
0.000000
30
0.000000
71
8
72
2
73
7
0
VERTEX
8
0
6
CONTINUOUS
62
252
70
128
10
0.000000
20
0.000000
30
0.000000
71
7
72
2
73
5
0
VERTEX
8
0
6
CONTINUOUS
62
252
70
128
10
0.000000
20
0.000000
30
0.000000
71
7
72
5
73
6
0
VERTEX
8
0
6
CONTINUOUS
62
252
70
128
10
0.000000
20
0.000000
30
0.000000
71
2
72
3
73
5
0
VERTEX
8
0
6
CONTINUOUS
62
252
70
128
10
0.000000
20
0.000000
30
0.000000
71
5
72
3
73
4
0
SEQEND
0
POLYLINE
66
1
8
0
6
CONTINUOUS
62
252
70
64
75
0
10
0.000000
20
0.000000
30
0.000000
0
VERTEX
8
0
6
CONTINUOUS
62
252
70
192
10
4.300000
20
-24.000000
30
-39.750000
0
VERTEX
8
0
6
CONTINUOUS
62
252
70
192
10
4.300000
20
-24.000000
30
-28.870150
0
VERTEX
8
0
6
CONTINUOUS
62
252
70
192
10
4.300000
20
-35.620150
30
-17.250000
0
VERTEX
8
0
6
CONTINUOUS
62
252
70
192
10
4.300000
20
-35.620150
30
17.250000
0
VERTEX
8
0
6
CONTINUOUS
62
252
70
192
10
4.300000
20
-17.250000
30
35.620150
0
VERTEX
8
0
6
CONTINUOUS
62
252
70
192
10
4.300000
20
17.250000
30
35.620150
0
VERTEX
8
0
6
CONTINUOUS
62
252
70
192
10
4.300000
20
35.620150
30
17.250000
0
VERTEX
8
0
6
CONTINUOUS
62
252
70
192
10
4.300000
20
35.620150
30
-17.250000
0
VERTEX
8
0
6
CONTINUOUS
62
252
70
192
10
4.300000
20
24.000000
30
-28.870150
0
VERTEX
8
0
6
CONTINUOUS
62
252
70
192
10
4.300000
20
24.000000
30
-39.750000
0
VERTEX
8
0
6
CONTINUOUS
62
252
70
192
10
4.300000
20
31.971825
30
-39.750000
0
VERTEX
8
0
6
CONTINUOUS
62
252
70
192
10
4.300000
20
29.344931
30
-37.123106
0
VERTEX
8
0
6
CONTINUOUS
62
252
70
192
10
4.300000
20
28.728682
30
-36.388689
0
VERTEX
8
0
6
CONTINUOUS
62
252
70
192
10
4.300000
20
28.249326
30
-35.558419
0
VERTEX
8
0
6
CONTINUOUS
62
252
70
192
10
4.300000
20
27.921427
30
-34.657523
0
VERTEX
8
0
6
CONTINUOUS
62
252
70
192
10
4.300000
20
27.754948
30
-33.713375
0
VERTEX
8
0
6
CONTINUOUS
62
252
70
192
10
4.300000
20
27.754948
30
-32.754662
0
VERTEX
8
0
6
CONTINUOUS
62
252
70
192
10
4.300000
20
27.921427
30
-31.810514
0
VERTEX
8
0
6
CONTINUOUS
62
252
70
192
10
4.300000
20
28.249326
30
-30.909618
0
VERTEX
8
0
6
CONTINUOUS
62
252
70
192
10
4.300000
20
28.728682
30
-30.079348
0
VERTEX
8
0
6
CONTINUOUS
62
252
70
192
10
4.300000
20
29.344931
30
-29.344931
0
VERTEX
8
0
6
CONTINUOUS
62
252
70
192
10
4.300000
20
30.079348
30
-28.728682
0
VERTEX
8
0
6
CONTINUOUS
62
252
70
192
10
4.300000
20
30.909618
30
-28.249326
0
VERTEX
8
0
6
CONTINUOUS
62
252
70
192
10
4.300000
20
31.810514
30
-27.921427
0
VERTEX
8
0
6
CONTINUOUS
62
252
70
192
10
4.300000
20
32.754662
30
-27.754948
0
VERTEX
8
0
6
CONTINUOUS
62
252
70
192
10
4.300000
20
33.713375
30
-27.754948
0
VERTEX
8
0
6
CONTINUOUS
62
252
70
192
10
4.300000
20
34.657523
30
-27.921427
0
VERTEX
8
0
6
CONTINUOUS
62
252
70
192
10
4.300000
20
35.558419
30
-28.249326
0
VERTEX
8
0
6
CONTINUOUS
62
252
70
192
10
4.300000
20
36.388689
30
-28.728682
0
VERTEX
8
0
6
CONTINUOUS
62
252
70
192
10
4.300000
20
37.123106
30
-29.344931
0
VERTEX
8
0
6
CONTINUOUS
62
252
70
192
10
4.300000
20
39.750000
30
-31.971825
0
VERTEX
8
0
6
CONTINUOUS
62
252
70
192
10
4.300000
20
39.750000
30
31.971825
0
VERTEX
8
0
6
CONTINUOUS
62
252
70
192
10
4.300000
20
37.123106
30
29.344931
0
VERTEX
8
0
6
CONTINUOUS
62
252
70
192
10
4.300000
20
36.388689
30
28.728682
0
VERTEX
8
0
6
CONTINUOUS
62
252
70
192
10
4.300000
20
35.558419
30
28.249326
0
VERTEX
8
0
6
CONTINUOUS
62
252
70
192
10
4.300000
20
34.657523
30
27.921427
0
VERTEX
8
0
6
CONTINUOUS
62
252
70
192
10
4.300000
20
33.713375
30
27.754948
0
VERTEX
8
0
6
CONTINUOUS
62
252
70
192
10
4.300000
20
32.754662
30
27.754948
0
VERTEX
8
0
6
CONTINUOUS
62
252
70
192
10
4.300000
20
31.810514
30
27.921427
0
VERTEX
8
0
6
CONTINUOUS
62
252
70
192
10
4.300000
20
30.909618
30
28.249326
0
VERTEX
8
0
6
CONTINUOUS
62
252
70
192
10
4.300000
20
30.079348
30
28.728682
0
VERTEX
8
0
6
CONTINUOUS
62
252
70
192
10
4.300000
20
29.344931
30
29.344931
0
VERTEX
8
0
6
CONTINUOUS
62
252
70
192
10
4.300000
20
28.728682
30
30.079348
0
VERTEX
8
0
6
CONTINUOUS
62
252
70
192
10
4.300000
20
28.249326
30
30.909618
0
VERTEX
8
0
6
CONTINUOUS
62
252
70
192
10
4.300000
20
27.921427
30
31.810514
0
VERTEX
8
0
6
CONTINUOUS
62
252
70
192
10
4.300000
20
27.754948
30
32.754662
0
VERTEX
8
0
6
CONTINUOUS
62
252
70
192
10
4.300000
20
27.754948
30
33.713375
0
VERTEX
8
0
6
CONTINUOUS
62
252
70
192
10
4.300000
20
27.921427
30
34.657523
0
VERTEX
8
0
6
CONTINUOUS
62
252
70
192
10
4.300000
20
28.249326
30
35.558419
0
VERTEX
8
0
6
CONTINUOUS
62
252
70
192
10
4.300000
20
28.728682
30
36.388689
0
VERTEX
8
0
6
CONTINUOUS
62
252
70
192
10
4.300000
20
29.344931
30
37.123106
0
VERTEX
8
0
6
CONTINUOUS
62
252
70
192
10
4.300000
20
31.971825
30
39.750000
0
VERTEX
8
0
6
CONTINUOUS
62
252
70
192
10
4.300000
20
-31.971825
30
39.750000
0
VERTEX
8
0
6
CONTINUOUS
62
252
70
192
10
4.300000
20
-29.344931
30
37.123106
0
VERTEX
8
0
6
CONTINUOUS
62
252
70
192
10
4.300000
20
-28.728682
30
36.388689
0
VERTEX
8
0
6
CONTINUOUS
62
252
70
192
10
4.300000
20
-28.249326
30
35.558419
0
VERTEX
8
0
6
CONTINUOUS
62
252
70
192
10
4.300000
20
-27.921427
30
34.657523
0
VERTEX
8
0
6
CONTINUOUS
62
252
70
192
10
4.300000
20
-27.754948
30
33.713375
0
VERTEX
8
0
6
CONTINUOUS
62
252
70
192
10
4.300000
20
-27.754948
30
32.754662
0
VERTEX
8
0
6
CONTINUOUS
62
252
70
192
10
4.300000
20
-27.921427
30
31.810514
0
VERTEX
8
0
6
CONTINUOUS
62
252
70
192
10
4.300000
20
-28.249326
30
30.909618
0
VERTEX
8
0
6
CONTINUOUS
62
252
70
192
10
4.300000
20
-28.728682
30
30.079348
0
VERTEX
8
0
6
CONTINUOUS
62
252
70
192
10
4.300000
20
-29.344931
30
29.344931
0
VERTEX
8
0
6
CONTINUOUS
62
252
70
192
10
4.300000
20
-30.079348
30
28.728682
0
VERTEX
8
0
6
CONTINUOUS
62
252
70
192
10
4.300000
20
-30.909618
30
28.249326
0
VERTEX
8
0
6
CONTINUOUS
62
252
70
192
10
4.300000
20
-31.810514
30
27.921427
0
VERTEX
8
0
6
CONTINUOUS
62
252
70
192
10
4.300000
20
-32.754662
30
27.754948
0
VERTEX
8
0
6
CONTINUOUS
62
252
70
192
10
4.300000
20
-33.713375
30
27.754948
0
VERTEX
8
0
6
CONTINUOUS
62
252
70
192
10
4.300000
20
-34.657523
30
27.921427
0
VERTEX
8
0
6
CONTINUOUS
62
252
70
192
10
4.300000
20
-35.558419
30
28.249326
0
VERTEX
8
0
6
CONTINUOUS
62
252
70
192
10
4.300000
20
-36.388689
30
28.728682
0
VERTEX
8
0
6
CONTINUOUS
62
252
70
192
10
4.300000
20
-37.123106
30
29.344931
0
VERTEX
8
0
6
CONTINUOUS
62
252
70
192
10
4.300000
20
-39.750000
30
31.971825
0
VERTEX
8
0
6
CONTINUOUS
62
252
70
192
10
4.300000
20
-39.750000
30
-31.971825
0
VERTEX
8
0
6
CONTINUOUS
62
252
70
192
10
4.300000
20
-37.123106
30
-29.344931
0
VERTEX
8
0
6
CONTINUOUS
62
252
70
192
10
4.300000
20
-36.388689
30
-28.728682
0
VERTEX
8
0
6
CONTINUOUS
62
252
70
192
10
4.300000
20
-35.558419
30
-28.249326
0
VERTEX
8
0
6
CONTINUOUS
62
252
70
192
10
4.300000
20
-34.657523
30
-27.921427
0
VERTEX
8
0
6
CONTINUOUS
62
252
70
192
10
4.300000
20
-33.713375
30
-27.754948
0
VERTEX
8
0
6
CONTINUOUS
62
252
70
192
10
4.300000
20
-32.754662
30
-27.754948
0
VERTEX
8
0
6
CONTINUOUS
62
252
70
192
10
4.300000
20
-31.810514
30
-27.921427
0
VERTEX
8
0
6
CONTINUOUS
62
252
70
192
10
4.300000
20
-30.909618
30
-28.249326
0
VERTEX
8
0
6
CONTINUOUS
62
252
70
192
10
4.300000
20
-30.079348
30
-28.728682
0
VERTEX
8
0
6
CONTINUOUS
62
252
70
192
10
4.300000
20
-29.344931
30
-29.344931
0
VERTEX
8
0
6
CONTINUOUS
62
252
70
192
10
4.300000
20
-28.728682
30
-30.079348
0
VERTEX
8
0
6
CONTINUOUS
62
252
70
192
10
4.300000
20
-28.249326
30
-30.909618
0
VERTEX
8
0
6
CONTINUOUS
62
252
70
192
10
4.300000
20
-27.921427
30
-31.810514
0
VERTEX
8
0
6
CONTINUOUS
62
252
70
192
10
4.300000
20
-27.754948
30
-32.754662
0
VERTEX
8
0
6
CONTINUOUS
62
252
70
192
10
4.300000
20
-27.754948
30
-33.713375
0
VERTEX
8
0
6
CONTINUOUS
62
252
70
192
10
4.300000
20
-27.921427
30
-34.657523
0
VERTEX
8
0
6
CONTINUOUS
62
252
70
192
10
4.300000
20
-28.249326
30
-35.558419
0
VERTEX
8
0
6
CONTINUOUS
62
252
70
192
10
4.300000
20
-28.728682
30
-36.388689
0
VERTEX
8
0
6
CONTINUOUS
62
252
70
192
10
4.300000
20
-29.344931
30
-37.123106
0
VERTEX
8
0
6
CONTINUOUS
62
252
70
192
10
4.300000
20
-31.971825
30
-39.750000
0
VERTEX
8
0
6
CONTINUOUS
62
252
70
128
10
0.000000
20
0.000000
30
0.000000
71
2
72
89
73
1
0
VERTEX
8
0
6
CONTINUOUS
62
252
70
128
10
0.000000
20
0.000000
30
0.000000
71
1
72
89
73
90
0
VERTEX
8
0
6
CONTINUOUS
62
252
70
128
10
0.000000
20
0.000000
30
0.000000
71
1
72
90
73
91
0
VERTEX
8
0
6
CONTINUOUS
62
252
70
128
10
0.000000
20
0.000000
30
0.000000
71
3
72
82
73
2
0
VERTEX
8
0
6
CONTINUOUS
62
252
70
128
10
0.000000
20
0.000000
30
0.000000
71
2
72
82
73
83
0
VERTEX
8
0
6
CONTINUOUS
62
252
70
128
10
0.000000
20
0.000000
30
0.000000
71
2
72
83
73
84
0
VERTEX
8
0
6
CONTINUOUS
62
252
70
128
10
0.000000
20
0.000000
30
0.000000
71
4
72
74
73
3
0
VERTEX
8
0
6
CONTINUOUS
62
252
70
128
10
0.000000
20
0.000000
30
0.000000
71
3
72
74
73
75
0
VERTEX
8
0
6
CONTINUOUS
62
252
70
128
10
0.000000
20
0.000000
30
0.000000
71
3
72
75
73
76
0
VERTEX
8
0
6
CONTINUOUS
62
252
70
128
10
0.000000
20
0.000000
30
0.000000
71
5
72
63
73
4
0
VERTEX
8
0
6
CONTINUOUS
62
252
70
128
10
0.000000
20
0.000000
30
0.000000
71
4
72
63
73
64
0
VERTEX
8
0
6
CONTINUOUS
62
252
70
128
10
0.000000
20
0.000000
30
0.000000
71
4
72
64
73
65
0
VERTEX
8
0
6
CONTINUOUS
62
252
70
128
10
0.000000
20
0.000000
30
0.000000
71
6
72
53
73
5
0
VERTEX
8
0
6
CONTINUOUS
62
252
70
128
10
0.000000
20
0.000000
30
0.000000
71
5
72
53
73
54
0
VERTEX
8
0
6
CONTINUOUS
62
252
70
128
10
0.000000
20
0.000000
30
0.000000
71
5
72
54
73
55
0
VERTEX
8
0
6
CONTINUOUS
62
252
70
128
10
0.000000
20
0.000000
30
0.000000
71
7
72
42
73
6
0
VERTEX
8
0
6
CONTINUOUS
62
252
70
128
10
0.000000
20
0.000000
30
0.000000
71
6
72
42
73
43
0
VERTEX
8
0
6
CONTINUOUS
62
252
70
128
10
0.000000
20
0.000000
30
0.000000
71
6
72
43
73
44
0
VERTEX
8
0
6
CONTINUOUS
62
252
70
128
10
0.000000
20
0.000000
30
0.000000
71
8
72
32
73
7
0
VERTEX
8
0
6
CONTINUOUS
62
252
70
128
10
0.000000
20
0.000000
30
0.000000
71
7
72
32
73
33
0
VERTEX
8
0
6
CONTINUOUS
62
252
70
128
10
0.000000
20
0.000000
30
0.000000
71
7
72
33
73
34
0
VERTEX
8
0
6
CONTINUOUS
62
252
70
128
10
0.000000
20
0.000000
30
0.000000
71
9
72
23
73
8
0
VERTEX
8
0
6
CONTINUOUS
62
252
70
128
10
0.000000
20
0.000000
30
0.000000
71
8
72
23
73
24
0
VERTEX
8
0
6
CONTINUOUS
62
252
70
128
10
0.000000
20
0.000000
30
0.000000
71
8
72
24
73
25
0
VERTEX
8
0
6
CONTINUOUS
62
252
70
128
10
0.000000
20
0.000000
30
0.000000
71
10
72
16
73
9
0
VERTEX
8
0
6
CONTINUOUS
62
252
70
128
10
0.000000
20
0.000000
30
0.000000
71
9
72
16
73
17
0
VERTEX
8
0
6
CONTINUOUS
62
252
70
128
10
0.000000
20
0.000000
30
0.000000
71
9
72
17
73
18
0
VERTEX
8
0
6
CONTINUOUS
62
252
70
128
10
0.000000
20
0.000000
30
0.000000
71
11
72
12
73
10
0
VERTEX
8
0
6
CONTINUOUS
62
252
70
128
10
0.000000
20
0.000000
30
0.000000
71
10
72
12
73
13
0
VERTEX
8
0
6
CONTINUOUS
62
252
70
128
10
0.000000
20
0.000000
30
0.000000
71
10
72
13
73
14
0
VERTEX
8
0
6
CONTINUOUS
62
252
70
128
10
0.000000
20
0.000000
30
0.000000
71
14
72
15
73
10
0
VERTEX
8
0
6
CONTINUOUS
62
252
70
128
10
0.000000
20
0.000000
30
0.000000
71
10
72
15
73
16
0
VERTEX
8
0
6
CONTINUOUS
62
252
70
128
10
0.000000
20
0.000000
30
0.000000
71
18
72
19
73
9
0
VERTEX
8
0
6
CONTINUOUS
62
252
70
128
10
0.000000
20
0.000000
30
0.000000
71
9
72
19
73
20
0
VERTEX
8
0
6
CONTINUOUS
62
252
70
128
10
0.000000
20
0.000000
30
0.000000
71
9
72
20
73
21
0
VERTEX
8
0
6
CONTINUOUS
62
252
70
128
10
0.000000
20
0.000000
30
0.000000
71
21
72
22
73
9
0
VERTEX
8
0
6
CONTINUOUS
62
252
70
128
10
0.000000
20
0.000000
30
0.000000
71
9
72
22
73
23
0
VERTEX
8
0
6
CONTINUOUS
62
252
70
128
10
0.000000
20
0.000000
30
0.000000
71
25
72
26
73
8
0
VERTEX
8
0
6
CONTINUOUS
62
252
70
128
10
0.000000
20
0.000000
30
0.000000
71
8
72
26
73
27
0
VERTEX
8
0
6
CONTINUOUS
62
252
70
128
10
0.000000
20
0.000000
30
0.000000
71
8
72
27
73
28
0
VERTEX
8
0
6
CONTINUOUS
62
252
70
128
10
0.000000
20
0.000000
30
0.000000
71
28
72
29
73
8
0
VERTEX
8
0
6
CONTINUOUS
62
252
70
128
10
0.000000
20
0.000000
30
0.000000
71
8
72
29
73
30
0
VERTEX
8
0
6
CONTINUOUS
62
252
70
128
10
0.000000
20
0.000000
30
0.000000
71
8
72
30
73
31
0
VERTEX
8
0
6
CONTINUOUS
62
252
70
128
10
0.000000
20
0.000000
30
0.000000
71
31
72
32
73
8
0
VERTEX
8
0
6
CONTINUOUS
62
252
70
128
10
0.000000
20
0.000000
30
0.000000
71
34
72
35
73
7
0
VERTEX
8
0
6
CONTINUOUS
62
252
70
128
10
0.000000
20
0.000000
30
0.000000
71
7
72
35
73
36
0
VERTEX
8
0
6
CONTINUOUS
62
252
70
128
10
0.000000
20
0.000000
30
0.000000
71
7
72
36
73
37
0
VERTEX
8
0
6
CONTINUOUS
62
252
70
128
10
0.000000
20
0.000000
30
0.000000
71
37
72
38
73
7
0
VERTEX
8
0
6
CONTINUOUS
62
252
70
128
10
0.000000
20
0.000000
30
0.000000
71
7
72
38
73
39
0
VERTEX
8
0
6
CONTINUOUS
62
252
70
128
10
0.000000
20
0.000000
30
0.000000
71
7
72
39
73
40
0
VERTEX
8
0
6
CONTINUOUS
62
252
70
128
10
0.000000
20
0.000000
30
0.000000
71
40
72
41
73
7
0
VERTEX
8
0
6
CONTINUOUS
62
252
70
128
10
0.000000
20
0.000000
30
0.000000
71
7
72
41
73
42
0
VERTEX
8
0
6
CONTINUOUS
62
252
70
128
10
0.000000
20
0.000000
30
0.000000
71
44
72
45
73
6
0
VERTEX
8
0
6
CONTINUOUS
62
252
70
128
10
0.000000
20
0.000000
30
0.000000
71
6
72
45
73
46
0
VERTEX
8
0
6
CONTINUOUS
62
252
70
128
10
0.000000
20
0.000000
30
0.000000
71
6
72
46
73
47
0
VERTEX
8
0
6
CONTINUOUS
62
252
70
128
10
0.000000
20
0.000000
30
0.000000
71
47
72
48
73
6
0
VERTEX
8
0
6
CONTINUOUS
62
252
70
128
10
0.000000
20
0.000000
30
0.000000
71
6
72
48
73
49
0
VERTEX
8
0
6
CONTINUOUS
62
252
70
128
10
0.000000
20
0.000000
30
0.000000
71
6
72
49
73
50
0
VERTEX
8
0
6
CONTINUOUS
62
252
70
128
10
0.000000
20
0.000000
30
0.000000
71
50
72
51
73
6
0
VERTEX
8
0
6
CONTINUOUS
62
252
70
128
10
0.000000
20
0.000000
30
0.000000
71
6
72
51
73
52
0
VERTEX
8
0
6
CONTINUOUS
62
252
70
128
10
0.000000
20
0.000000
30
0.000000
71
6
72
52
73
53
0
VERTEX
8
0
6
CONTINUOUS
62
252
70
128
10
0.000000
20
0.000000
30
0.000000
71
55
72
56
73
5
0
VERTEX
8
0
6
CONTINUOUS
62
252
70
128
10
0.000000
20
0.000000
30
0.000000
71
5
72
56
73
57
0
VERTEX
8
0
6
CONTINUOUS
62
252
70
128
10
0.000000
20
0.000000
30
0.000000
71
5
72
57
73
58
0
VERTEX
8
0
6
CONTINUOUS
62
252
70
128
10
0.000000
20
0.000000
30
0.000000
71
58
72
59
73
5
0
VERTEX
8
0
6
CONTINUOUS
62
252
70
128
10
0.000000
20
0.000000
30
0.000000
71
5
72
59
73
60
0
VERTEX
8
0
6
CONTINUOUS
62
252
70
128
10
0.000000
20
0.000000
30
0.000000
71
5
72
60
73
61
0
VERTEX
8
0
6
CONTINUOUS
62
252
70
128
10
0.000000
20
0.000000
30
0.000000
71
61
72
62
73
5
0
VERTEX
8
0
6
CONTINUOUS
62
252
70
128
10
0.000000
20
0.000000
30
0.000000
71
5
72
62
73
63
0
VERTEX
8
0
6
CONTINUOUS
62
252
70
128
10
0.000000
20
0.000000
30
0.000000
71
65
72
66
73
4
0
VERTEX
8
0
6
CONTINUOUS
62
252
70
128
10
0.000000
20
0.000000
30
0.000000
71
4
72
66
73
67
0
VERTEX
8
0
6
CONTINUOUS
62
252
70
128
10
0.000000
20
0.000000
30
0.000000
71
4
72
67
73
68
0
VERTEX
8
0
6
CONTINUOUS
62
252
70
128
10
0.000000
20
0.000000
30
0.000000
71
68
72
69
73
4
0
VERTEX
8
0
6
CONTINUOUS
62
252
70
128
10
0.000000
20
0.000000
30
0.000000
71
4
72
69
73
70
0
VERTEX
8
0
6
CONTINUOUS
62
252
70
128
10
0.000000
20
0.000000
30
0.000000
71
4
72
70
73
71
0
VERTEX
8
0
6
CONTINUOUS
62
252
70
128
10
0.000000
20
0.000000
30
0.000000
71
71
72
72
73
4
0
VERTEX
8
0
6
CONTINUOUS
62
252
70
128
10
0.000000
20
0.000000
30
0.000000
71
4
72
72
73
73
0
VERTEX
8
0
6
CONTINUOUS
62
252
70
128
10
0.000000
20
0.000000
30
0.000000
71
4
72
73
73
74
0
VERTEX
8
0
6
CONTINUOUS
62
252
70
128
10
0.000000
20
0.000000
30
0.000000
71
76
72
77
73
3
0
VERTEX
8
0
6
CONTINUOUS
62
252
70
128
10
0.000000
20
0.000000
30
0.000000
71
3
72
77
73
78
0
VERTEX
8
0
6
CONTINUOUS
62
252
70
128
10
0.000000
20
0.000000
30
0.000000
71
3
72
78
73
79
0
VERTEX
8
0
6
CONTINUOUS
62
252
70
128
10
0.000000
20
0.000000
30
0.000000
71
79
72
80
73
3
0
VERTEX
8
0
6
CONTINUOUS
62
252
70
128
10
0.000000
20
0.000000
30
0.000000
71
3
72
80
73
81
0
VERTEX
8
0
6
CONTINUOUS
62
252
70
128
10
0.000000
20
0.000000
30
0.000000
71
3
72
81
73
82
0
VERTEX
8
0
6
CONTINUOUS
62
252
70
128
10
0.000000
20
0.000000
30
0.000000
71
84
72
85
73
2
0
VERTEX
8
0
6
CONTINUOUS
62
252
70
128
10
0.000000
20
0.000000
30
0.000000
71
2
72
85
73
86
0
VERTEX
8
0
6
CONTINUOUS
62
252
70
128
10
0.000000
20
0.000000
30
0.000000
71
2
72
86
73
87
0
VERTEX
8
0
6
CONTINUOUS
62
252
70
128
10
0.000000
20
0.000000
30
0.000000
71
87
72
88
73
2
0
VERTEX
8
0
6
CONTINUOUS
62
252
70
128
10
0.000000
20
0.000000
30
0.000000
71
2
72
88
73
89
0
VERTEX
8
0
6
CONTINUOUS
62
252
70
128
10
0.000000
20
0.000000
30
0.000000
71
91
72
92
73
1
0
VERTEX
8
0
6
CONTINUOUS
62
252
70
128
10
0.000000
20
0.000000
30
0.000000
71
1
72
92
73
93
0
VERTEX
8
0
6
CONTINUOUS
62
252
70
128
10
0.000000
20
0.000000
30
0.000000
71
1
72
93
73
94
0
SEQEND
0
POLYLINE
66
1
8
0
6
CONTINUOUS
62
252
70
64
75
0
10
0.000000
20
0.000000
30
0.000000
0
VERTEX
8
0
6
CONTINUOUS
62
252
70
192
10
4.300000
20
39.750000
30
31.971825
0
VERTEX
8
0
6
CONTINUOUS
62
252
70
192
10
1.200000
20
39.750000
30
31.971825
0
VERTEX
8
0
6
CONTINUOUS
62
252
70
192
10
1.200000
20
37.123106
30
29.344931
0
VERTEX
8
0
6
CONTINUOUS
62
252
70
192
10
4.300000
20
37.123106
30
29.344931
0
VERTEX
8
0
6
CONTINUOUS
62
252
70
128
10
0.000000
20
0.000000
30
0.000000
71
2
72
3
73
1
0
VERTEX
8
0
6
CONTINUOUS
62
252
70
128
10
0.000000
20
0.000000
30
0.000000
71
1
72
3
73
4
0
SEQEND
0
POLYLINE
66
1
8
0
6
CONTINUOUS
62
252
70
64
75
0
10
0.000000
20
0.000000
30
0.000000
0
VERTEX
8
0
6
CONTINUOUS
62
252
70
192
10
1.200000
20
31.971825
30
39.750000
0
VERTEX
8
0
6
CONTINUOUS
62
252
70
192
10
4.300000
20
31.971825
30
39.750000
0
VERTEX
8
0
6
CONTINUOUS
62
252
70
192
10
4.300000
20
29.344931
30
37.123106
0
VERTEX
8
0
6
CONTINUOUS
62
252
70
192
10
1.200000
20
29.344931
30
37.123106
0
VERTEX
8
0
6
CONTINUOUS
62
252
70
128
10
0.000000
20
0.000000
30
0.000000
71
2
72
3
73
1
0
VERTEX
8
0
6
CONTINUOUS
62
252
70
128
10
0.000000
20
0.000000
30
0.000000
71
1
72
3
73
4
0
SEQEND
0
POLYLINE
66
1
8
0
6
CONTINUOUS
62
252
70
64
75
0
10
0.000000
20
0.000000
30
0.000000
0
VERTEX
8
0
6
CONTINUOUS
62
252
70
192
10
1.200000
20
37.123106
30
29.344931
0
VERTEX
8
0
6
CONTINUOUS
62
252
70
192
10
1.200000
20
36.388689
30
28.728682
0
VERTEX
8
0
6
CONTINUOUS
62
252
70
192
10
1.200000
20
35.558419
30
28.249326
0
VERTEX
8
0
6
CONTINUOUS
62
252
70
192
10
1.200000
20
34.657523
30
27.921427
0
VERTEX
8
0
6
CONTINUOUS
62
252
70
192
10
1.200000
20
33.713375
30
27.754948
0
VERTEX
8
0
6
CONTINUOUS
62
252
70
192
10
1.200000
20
32.754662
30
27.754948
0
VERTEX
8
0
6
CONTINUOUS
62
252
70
192
10
1.200000
20
31.810514
30
27.921427
0
VERTEX
8
0
6
CONTINUOUS
62
252
70
192
10
1.200000
20
30.909618
30
28.249326
0
VERTEX
8
0
6
CONTINUOUS
62
252
70
192
10
1.200000
20
30.079348
30
28.728682
0
VERTEX
8
0
6
CONTINUOUS
62
252
70
192
10
1.200000
20
29.344931
30
29.344931
0
VERTEX
8
0
6
CONTINUOUS
62
252
70
192
10
1.200000
20
28.728682
30
30.079348
0
VERTEX
8
0
6
CONTINUOUS
62
252
70
192
10
1.200000
20
28.249326
30
30.909618
0
VERTEX
8
0
6
CONTINUOUS
62
252
70
192
10
1.200000
20
27.921427
30
31.810514
0
VERTEX
8
0
6
CONTINUOUS
62
252
70
192
10
1.200000
20
27.754948
30
32.754662
0
VERTEX
8
0
6
CONTINUOUS
62
252
70
192
10
1.200000
20
27.754948
30
33.713375
0
VERTEX
8
0
6
CONTINUOUS
62
252
70
192
10
1.200000
20
27.921427
30
34.657523
0
VERTEX
8
0
6
CONTINUOUS
62
252
70
192
10
1.200000
20
28.249326
30
35.558419
0
VERTEX
8
0
6
CONTINUOUS
62
252
70
192
10
1.200000
20
28.728682
30
36.388689
0
VERTEX
8
0
6
CONTINUOUS
62
252
70
192
10
1.200000
20
29.344931
30
37.123106
0
VERTEX
8
0
6
CONTINUOUS
62
252
70
192
10
4.300000
20
29.344931
30
37.123106
0
VERTEX
8
0
6
CONTINUOUS
62
252
70
192
10
4.300000
20
28.728682
30
36.388689
0
VERTEX
8
0
6
CONTINUOUS
62
252
70
192
10
4.300000
20
28.249326
30
35.558419
0
VERTEX
8
0
6
CONTINUOUS
62
252
70
192
10
4.300000
20
27.921427
30
34.657523
0
VERTEX
8
0
6
CONTINUOUS
62
252
70
192
10
4.300000
20
27.754948
30
33.713375
0
VERTEX
8
0
6
CONTINUOUS
62
252
70
192
10
4.300000
20
27.754948
30
32.754662
0
VERTEX
8
0
6
CONTINUOUS
62
252
70
192
10
4.300000
20
27.921427
30
31.810514
0
VERTEX
8
0
6
CONTINUOUS
62
252
70
192
10
4.300000
20
28.249326
30
30.909618
0
VERTEX
8
0
6
CONTINUOUS
62
252
70
192
10
4.300000
20
28.728682
30
30.079348
0
VERTEX
8
0
6
CONTINUOUS
62
252
70
192
10
4.300000
20
29.344931
30
29.344931
0
VERTEX
8
0
6
CONTINUOUS
62
252
70
192
10
4.300000
20
30.079348
30
28.728682
0
VERTEX
8
0
6
CONTINUOUS
62
252
70
192
10
4.300000
20
30.909618
30
28.249326
0
VERTEX
8
0
6
CONTINUOUS
62
252
70
192
10
4.300000
20
31.810514
30
27.921427
0
VERTEX
8
0
6
CONTINUOUS
62
252
70
192
10
4.300000
20
32.754662
30
27.754948
0
VERTEX
8
0
6
CONTINUOUS
62
252
70
192
10
4.300000
20
33.713375
30
27.754948
0
VERTEX
8
0
6
CONTINUOUS
62
252
70
192
10
4.300000
20
34.657523
30
27.921427
0
VERTEX
8
0
6
CONTINUOUS
62
252
70
192
10
4.300000
20
35.558419
30
28.249326
0
VERTEX
8
0
6
CONTINUOUS
62
252
70
192
10
4.300000
20
36.388689
30
28.728682
0
VERTEX
8
0
6
CONTINUOUS
62
252
70
192
10
4.300000
20
37.123106
30
29.344931
0
VERTEX
8
0
6
CONTINUOUS
62
252
70
128
10
0.000000
20
0.000000
30
0.000000
71
38
72
1
73
37
0
VERTEX
8
0
6
CONTINUOUS
62
252
70
128
10
0.000000
20
0.000000
30
0.000000
71
37
72
1
73
2
0
VERTEX
8
0
6
CONTINUOUS
62
252
70
128
10
0.000000
20
0.000000
30
0.000000
71
37
72
2
73
36
0
VERTEX
8
0
6
CONTINUOUS
62
252
70
128
10
0.000000
20
0.000000
30
0.000000
71
36
72
2
73
3
0
VERTEX
8
0
6
CONTINUOUS
62
252
70
128
10
0.000000
20
0.000000
30
0.000000
71
36
72
3
73
35
0
VERTEX
8
0
6
CONTINUOUS
62
252
70
128
10
0.000000
20
0.000000
30
0.000000
71
35
72
3
73
4
0
VERTEX
8
0
6
CONTINUOUS
62
252
70
128
10
0.000000
20
0.000000
30
0.000000
71
35
72
4
73
34
0
VERTEX
8
0
6
CONTINUOUS
62
252
70
128
10
0.000000
20
0.000000
30
0.000000
71
34
72
4
73
5
0
VERTEX
8
0
6
CONTINUOUS
62
252
70
128
10
0.000000
20
0.000000
30
0.000000
71
34
72
5
73
33
0
VERTEX
8
0
6
CONTINUOUS
62
252
70
128
10
0.000000
20
0.000000
30
0.000000
71
33
72
5
73
6
0
VERTEX
8
0
6
CONTINUOUS
62
252
70
128
10
0.000000
20
0.000000
30
0.000000
71
33
72
6
73
32
0
VERTEX
8
0
6
CONTINUOUS
62
252
70
128
10
0.000000
20
0.000000
30
0.000000
71
32
72
6
73
7
0
VERTEX
8
0
6
CONTINUOUS
62
252
70
128
10
0.000000
20
0.000000
30
0.000000
71
32
72
7
73
31
0
VERTEX
8
0
6
CONTINUOUS
62
252
70
128
10
0.000000
20
0.000000
30
0.000000
71
31
72
7
73
8
0
VERTEX
8
0
6
CONTINUOUS
62
252
70
128
10
0.000000
20
0.000000
30
0.000000
71
31
72
8
73
30
0
VERTEX
8
0
6
CONTINUOUS
62
252
70
128
10
0.000000
20
0.000000
30
0.000000
71
30
72
8
73
9
0
VERTEX
8
0
6
CONTINUOUS
62
252
70
128
10
0.000000
20
0.000000
30
0.000000
71
30
72
9
73
29
0
VERTEX
8
0
6
CONTINUOUS
62
252
70
128
10
0.000000
20
0.000000
30
0.000000
71
29
72
9
73
10
0
VERTEX
8
0
6
CONTINUOUS
62
252
70
128
10
0.000000
20
0.000000
30
0.000000
71
29
72
10
73
28
0
VERTEX
8
0
6
CONTINUOUS
62
252
70
128
10
0.000000
20
0.000000
30
0.000000
71
28
72
10
73
11
0
VERTEX
8
0
6
CONTINUOUS
62
252
70
128
10
0.000000
20
0.000000
30
0.000000
71
28
72
11
73
27
0
VERTEX
8
0
6
CONTINUOUS
62
252
70
128
10
0.000000
20
0.000000
30
0.000000
71
27
72
11
73
12
0
VERTEX
8
0
6
CONTINUOUS
62
252
70
128
10
0.000000
20
0.000000
30
0.000000
71
27
72
12
73
26
0
VERTEX
8
0
6
CONTINUOUS
62
252
70
128
10
0.000000
20
0.000000
30
0.000000
71
26
72
12
73
13
0
VERTEX
8
0
6
CONTINUOUS
62
252
70
128
10
0.000000
20
0.000000
30
0.000000
71
26
72
13
73
25
0
VERTEX
8
0
6
CONTINUOUS
62
252
70
128
10
0.000000
20
0.000000
30
0.000000
71
25
72
13
73
14
0
VERTEX
8
0
6
CONTINUOUS
62
252
70
128
10
0.000000
20
0.000000
30
0.000000
71
25
72
14
73
24
0
VERTEX
8
0
6
CONTINUOUS
62
252
70
128
10
0.000000
20
0.000000
30
0.000000
71
24
72
14
73
15
0
VERTEX
8
0
6
CONTINUOUS
62
252
70
128
10
0.000000
20
0.000000
30
0.000000
71
24
72
15
73
23
0
VERTEX
8
0
6
CONTINUOUS
62
252
70
128
10
0.000000
20
0.000000
30
0.000000
71
23
72
15
73
16
0
VERTEX
8
0
6
CONTINUOUS
62
252
70
128
10
0.000000
20
0.000000
30
0.000000
71
23
72
16
73
22
0
VERTEX
8
0
6
CONTINUOUS
62
252
70
128
10
0.000000
20
0.000000
30
0.000000
71
22
72
16
73
17
0
VERTEX
8
0
6
CONTINUOUS
62
252
70
128
10
0.000000
20
0.000000
30
0.000000
71
22
72
17
73
21
0
VERTEX
8
0
6
CONTINUOUS
62
252
70
128
10
0.000000
20
0.000000
30
0.000000
71
21
72
17
73
18
0
VERTEX
8
0
6
CONTINUOUS
62
252
70
128
10
0.000000
20
0.000000
30
0.000000
71
21
72
18
73
20
0
VERTEX
8
0
6
CONTINUOUS
62
252
70
128
10
0.000000
20
0.000000
30
0.000000
71
20
72
18
73
19
0
SEQEND
0
POLYLINE
66
1
8
0
6
CONTINUOUS
62
252
70
64
75
0
10
0.000000
20
0.000000
30
0.000000
0
VERTEX
8
0
6
CONTINUOUS
62
252
70
192
10
1.200000
20
36.133157
30
36.133157
0
VERTEX
8
0
6
CONTINUOUS
62
252
70
192
10
1.200000
20
36.592542
30
35.585682
0
VERTEX
8
0
6
CONTINUOUS
62
252
70
192
10
1.200000
20
36.949881
30
34.966754
0
VERTEX
8
0
6
CONTINUOUS
62
252
70
192
10
1.200000
20
37.194315
30
34.295177
0
VERTEX
8
0
6
CONTINUOUS
62
252
70
192
10
1.200000
20
37.318417
30
33.591357
0
VERTEX
8
0
6
CONTINUOUS
62
252
70
192
10
1.200000
20
37.318417
30
32.876680
0
VERTEX
8
0
6
CONTINUOUS
62
252
70
192
10
1.200000
20
37.194315
30
32.172861
0
VERTEX
8
0
6
CONTINUOUS
62
252
70
192
10
1.200000
20
36.949881
30
31.501284
0
VERTEX
8
0
6
CONTINUOUS
62
252
70
192
10
1.200000
20
36.592542
30
30.882355
0
VERTEX
8
0
6
CONTINUOUS
62
252
70
192
10
1.200000
20
36.133157
30
30.334881
0
VERTEX
8
0
6
CONTINUOUS
62
252
70
192
10
1.200000
20
35.585682
30
29.875495
0
VERTEX
8
0
6
CONTINUOUS
62
252
70
192
10
1.200000
20
34.966754
30
29.518157
0
VERTEX
8
0
6
CONTINUOUS
62
252
70
192
10
1.200000
20
34.295177
30
29.273723
0
VERTEX
8
0
6
CONTINUOUS
62
252
70
192
10
1.200000
20
33.591357
30
29.149620
0
VERTEX
8
0
6
CONTINUOUS
62
252
70
192
10
1.200000
20
32.876680
30
29.149620
0
VERTEX
8
0
6
CONTINUOUS
62
252
70
192
10
1.200000
20
32.172861
30
29.273723
0
VERTEX
8
0
6
CONTINUOUS
62
252
70
192
10
1.200000
20
31.501284
30
29.518157
0
VERTEX
8
0
6
CONTINUOUS
62
252
70
192
10
1.200000
20
30.882355
30
29.875495
0
VERTEX
8
0
6
CONTINUOUS
62
252
70
192
10
1.200000
20
30.334881
30
30.334881
0
VERTEX
8
0
6
CONTINUOUS
62
252
70
192
10
1.200000
20
29.875495
30
30.882355
0
VERTEX
8
0
6
CONTINUOUS
62
252
70
192
10
1.200000
20
29.518157
30
31.501284
0
VERTEX
8
0
6
CONTINUOUS
62
252
70
192
10
1.200000
20
29.273723
30
32.172861
0
VERTEX
8
0
6
CONTINUOUS
62
252
70
192
10
1.200000
20
29.149620
30
32.876680
0
VERTEX
8
0
6
CONTINUOUS
62
252
70
192
10
1.200000
20
29.149620
30
33.591357
0
VERTEX
8
0
6
CONTINUOUS
62
252
70
192
10
1.200000
20
29.273723
30
34.295177
0
VERTEX
8
0
6
CONTINUOUS
62
252
70
192
10
1.200000
20
29.518157
30
34.966754
0
VERTEX
8
0
6
CONTINUOUS
62
252
70
192
10
1.200000
20
29.875495
30
35.585682
0
VERTEX
8
0
6
CONTINUOUS
62
252
70
192
10
1.200000
20
30.334881
30
36.133157
0
VERTEX
8
0
6
CONTINUOUS
62
252
70
192
10
1.200000
20
30.882355
30
36.592542
0
VERTEX
8
0
6
CONTINUOUS
62
252
70
192
10
1.200000
20
31.501284
30
36.949881
0
VERTEX
8
0
6
CONTINUOUS
62
252
70
192
10
1.200000
20
32.172861
30
37.194315
0
VERTEX
8
0
6
CONTINUOUS
62
252
70
192
10
1.200000
20
32.876680
30
37.318417
0
VERTEX
8
0
6
CONTINUOUS
62
252
70
192
10
1.200000
20
33.591357
30
37.318417
0
VERTEX
8
0
6
CONTINUOUS
62
252
70
192
10
1.200000
20
34.295177
30
37.194315
0
VERTEX
8
0
6
CONTINUOUS
62
252
70
192
10
1.200000
20
34.966754
30
36.949881
0
VERTEX
8
0
6
CONTINUOUS
62
252
70
192
10
1.200000
20
35.585682
30
36.592542
0
VERTEX
8
0
6
CONTINUOUS
62
252
70
192
10
1.200000
20
39.750000
30
31.971825
0
VERTEX
8
0
6
CONTINUOUS
62
252
70
192
10
1.200000
20
39.750000
30
32.750000
0
VERTEX
8
0
6
CONTINUOUS
62
252
70
192
10
1.200000
20
39.643654
30
33.965537
0
VERTEX
8
0
6
CONTINUOUS
62
252
70
192
10
1.200000
20
39.327848
30
35.144141
0
VERTEX
8
0
6
CONTINUOUS
62
252
70
192
10
1.200000
20
38.812178
30
36.250000
0
VERTEX
8
0
6
CONTINUOUS
62
252
70
192
10
1.200000
20
38.112311
30
37.249513
0
VERTEX
8
0
6
CONTINUOUS
62
252
70
192
10
1.200000
20
37.249513
30
38.112311
0
VERTEX
8
0
6
CONTINUOUS
62
252
70
192
10
1.200000
20
36.250000
30
38.812178
0
VERTEX
8
0
6
CONTINUOUS
62
252
70
192
10
1.200000
20
35.144141
30
39.327848
0
VERTEX
8
0
6
CONTINUOUS
62
252
70
192
10
1.200000
20
33.965537
30
39.643654
0
VERTEX
8
0
6
CONTINUOUS
62
252
70
192
10
1.200000
20
32.750000
30
39.750000
0
VERTEX
8
0
6
CONTINUOUS
62
252
70
192
10
1.200000
20
31.971825
30
39.750000
0
VERTEX
8
0
6
CONTINUOUS
62
252
70
192
10
1.200000
20
29.344931
30
37.123106
0
VERTEX
8
0
6
CONTINUOUS
62
252
70
192
10
1.200000
20
28.728682
30
36.388689
0
VERTEX
8
0
6
CONTINUOUS
62
252
70
192
10
1.200000
20
28.249326
30
35.558419
0
VERTEX
8
0
6
CONTINUOUS
62
252
70
192
10
1.200000
20
27.921427
30
34.657523
0
VERTEX
8
0
6
CONTINUOUS
62
252
70
192
10
1.200000
20
27.754948
30
33.713375
0
VERTEX
8
0
6
CONTINUOUS
62
252
70
192
10
1.200000
20
27.754948
30
32.754662
0
VERTEX
8
0
6
CONTINUOUS
62
252
70
192
10
1.200000
20
27.921427
30
31.810514
0
VERTEX
8
0
6
CONTINUOUS
62
252
70
192
10
1.200000
20
28.249326
30
30.909618
0
VERTEX
8
0
6
CONTINUOUS
62
252
70
192
10
1.200000
20
28.728682
30
30.079348
0
VERTEX
8
0
6
CONTINUOUS
62
252
70
192
10
1.200000
20
29.344931
30
29.344931
0
VERTEX
8
0
6
CONTINUOUS
62
252
70
192
10
1.200000
20
30.079348
30
28.728682
0
VERTEX
8
0
6
CONTINUOUS
62
252
70
192
10
1.200000
20
30.909618
30
28.249326
0
VERTEX
8
0
6
CONTINUOUS
62
252
70
192
10
1.200000
20
31.810514
30
27.921427
0
VERTEX
8
0
6
CONTINUOUS
62
252
70
192
10
1.200000
20
32.754662
30
27.754948
0
VERTEX
8
0
6
CONTINUOUS
62
252
70
192
10
1.200000
20
33.713375
30
27.754948
0
VERTEX
8
0
6
CONTINUOUS
62
252
70
192
10
1.200000
20
34.657523
30
27.921427
0
VERTEX
8
0
6
CONTINUOUS
62
252
70
192
10
1.200000
20
35.558419
30
28.249326
0
VERTEX
8
0
6
CONTINUOUS
62
252
70
192
10
1.200000
20
36.388689
30
28.728682
0
VERTEX
8
0
6
CONTINUOUS
62
252
70
192
10
1.200000
20
37.123106
30
29.344931
0
VERTEX
8
0
6
CONTINUOUS
62
252
70
128
10
0.000000
20
0.000000
30
0.000000
71
2
72
42
73
1
0
VERTEX
8
0
6
CONTINUOUS
62
252
70
128
10
0.000000
20
0.000000
30
0.000000
71
1
72
42
73
43
0
VERTEX
8
0
6
CONTINUOUS
62
252
70
128
10
0.000000
20
0.000000
30
0.000000
71
1
72
43
73
36
0
VERTEX
8
0
6
CONTINUOUS
62
252
70
128
10
0.000000
20
0.000000
30
0.000000
71
36
72
43
73
44
0
VERTEX
8
0
6
CONTINUOUS
62
252
70
128
10
0.000000
20
0.000000
30
0.000000
71
36
72
44
73
35
0
VERTEX
8
0
6
CONTINUOUS
62
252
70
128
10
0.000000
20
0.000000
30
0.000000
71
35
72
44
73
45
0
VERTEX
8
0
6
CONTINUOUS
62
252
70
128
10
0.000000
20
0.000000
30
0.000000
71
35
72
45
73
34
0
VERTEX
8
0
6
CONTINUOUS
62
252
70
128
10
0.000000
20
0.000000
30
0.000000
71
34
72
45
73
33
0
VERTEX
8
0
6
CONTINUOUS
62
252
70
128
10
0.000000
20
0.000000
30
0.000000
71
33
72
45
73
46
0
VERTEX
8
0
6
CONTINUOUS
62
252
70
128
10
0.000000
20
0.000000
30
0.000000
71
33
72
46
73
32
0
VERTEX
8
0
6
CONTINUOUS
62
252
70
128
10
0.000000
20
0.000000
30
0.000000
71
32
72
46
73
47
0
VERTEX
8
0
6
CONTINUOUS
62
252
70
128
10
0.000000
20
0.000000
30
0.000000
71
32
72
47
73
31
0
VERTEX
8
0
6
CONTINUOUS
62
252
70
128
10
0.000000
20
0.000000
30
0.000000
71
31
72
47
73
48
0
VERTEX
8
0
6
CONTINUOUS
62
252
70
128
10
0.000000
20
0.000000
30
0.000000
71
31
72
48
73
30
0
VERTEX
8
0
6
CONTINUOUS
62
252
70
128
10
0.000000
20
0.000000
30
0.000000
71
30
72
48
73
49
0
VERTEX
8
0
6
CONTINUOUS
62
252
70
128
10
0.000000
20
0.000000
30
0.000000
71
30
72
49
73
29
0
VERTEX
8
0
6
CONTINUOUS
62
252
70
128
10
0.000000
20
0.000000
30
0.000000
71
29
72
49
73
28
0
VERTEX
8
0
6
CONTINUOUS
62
252
70
128
10
0.000000
20
0.000000
30
0.000000
71
28
72
49
73
50
0
VERTEX
8
0
6
CONTINUOUS
62
252
70
128
10
0.000000
20
0.000000
30
0.000000
71
28
72
50
73
27
0
VERTEX
8
0
6
CONTINUOUS
62
252
70
128
10
0.000000
20
0.000000
30
0.000000
71
27
72
50
73
51
0
VERTEX
8
0
6
CONTINUOUS
62
252
70
128
10
0.000000
20
0.000000
30
0.000000
71
27
72
51
73
26
0
VERTEX
8
0
6
CONTINUOUS
62
252
70
128
10
0.000000
20
0.000000
30
0.000000
71
26
72
51
73
52
0
VERTEX
8
0
6
CONTINUOUS
62
252
70
128
10
0.000000
20
0.000000
30
0.000000
71
26
72
52
73
25
0
VERTEX
8
0
6
CONTINUOUS
62
252
70
128
10
0.000000
20
0.000000
30
0.000000
71
25
72
52
73
53
0
VERTEX
8
0
6
CONTINUOUS
62
252
70
128
10
0.000000
20
0.000000
30
0.000000
71
25
72
53
73
24
0
VERTEX
8
0
6
CONTINUOUS
62
252
70
128
10
0.000000
20
0.000000
30
0.000000
71
24
72
53
73
54
0
VERTEX
8
0
6
CONTINUOUS
62
252
70
128
10
0.000000
20
0.000000
30
0.000000
71
24
72
54
73
23
0
VERTEX
8
0
6
CONTINUOUS
62
252
70
128
10
0.000000
20
0.000000
30
0.000000
71
23
72
54
73
55
0
VERTEX
8
0
6
CONTINUOUS
62
252
70
128
10
0.000000
20
0.000000
30
0.000000
71
23
72
55
73
22
0
VERTEX
8
0
6
CONTINUOUS
62
252
70
128
10
0.000000
20
0.000000
30
0.000000
71
22
72
55
73
56
0
VERTEX
8
0
6
CONTINUOUS
62
252
70
128
10
0.000000
20
0.000000
30
0.000000
71
22
72
56
73
21
0
VERTEX
8
0
6
CONTINUOUS
62
252
70
128
10
0.000000
20
0.000000
30
0.000000
71
21
72
56
73
57
0
VERTEX
8
0
6
CONTINUOUS
62
252
70
128
10
0.000000
20
0.000000
30
0.000000
71
21
72
57
73
20
0
VERTEX
8
0
6
CONTINUOUS
62
252
70
128
10
0.000000
20
0.000000
30
0.000000
71
20
72
57
73
58
0
VERTEX
8
0
6
CONTINUOUS
62
252
70
128
10
0.000000
20
0.000000
30
0.000000
71
20
72
58
73
19
0
VERTEX
8
0
6
CONTINUOUS
62
252
70
128
10
0.000000
20
0.000000
30
0.000000
71
19
72
58
73
18
0
VERTEX
8
0
6
CONTINUOUS
62
252
70
128
10
0.000000
20
0.000000
30
0.000000
71
18
72
58
73
59
0
VERTEX
8
0
6
CONTINUOUS
62
252
70
128
10
0.000000
20
0.000000
30
0.000000
71
18
72
59
73
17
0
VERTEX
8
0
6
CONTINUOUS
62
252
70
128
10
0.000000
20
0.000000
30
0.000000
71
17
72
59
73
60
0
VERTEX
8
0
6
CONTINUOUS
62
252
70
128
10
0.000000
20
0.000000
30
0.000000
71
17
72
60
73
16
0
VERTEX
8
0
6
CONTINUOUS
62
252
70
128
10
0.000000
20
0.000000
30
0.000000
71
16
72
60
73
61
0
VERTEX
8
0
6
CONTINUOUS
62
252
70
128
10
0.000000
20
0.000000
30
0.000000
71
16
72
61
73
15
0
VERTEX
8
0
6
CONTINUOUS
62
252
70
128
10
0.000000
20
0.000000
30
0.000000
71
15
72
61
73
62
0
VERTEX
8
0
6
CONTINUOUS
62
252
70
128
10
0.000000
20
0.000000
30
0.000000
71
15
72
62
73
14
0
VERTEX
8
0
6
CONTINUOUS
62
252
70
128
10
0.000000
20
0.000000
30
0.000000
71
14
72
62
73
63
0
VERTEX
8
0
6
CONTINUOUS
62
252
70
128
10
0.000000
20
0.000000
30
0.000000
71
14
72
63
73
13
0
VERTEX
8
0
6
CONTINUOUS
62
252
70
128
10
0.000000
20
0.000000
30
0.000000
71
13
72
63
73
64
0
VERTEX
8
0
6
CONTINUOUS
62
252
70
128
10
0.000000
20
0.000000
30
0.000000
71
13
72
64
73
12
0
VERTEX
8
0
6
CONTINUOUS
62
252
70
128
10
0.000000
20
0.000000
30
0.000000
71
12
72
64
73
65
0
VERTEX
8
0
6
CONTINUOUS
62
252
70
128
10
0.000000
20
0.000000
30
0.000000
71
12
72
65
73
11
0
VERTEX
8
0
6
CONTINUOUS
62
252
70
128
10
0.000000
20
0.000000
30
0.000000
71
11
72
65
73
66
0
VERTEX
8
0
6
CONTINUOUS
62
252
70
128
10
0.000000
20
0.000000
30
0.000000
71
11
72
66
73
10
0
VERTEX
8
0
6
CONTINUOUS
62
252
70
128
10
0.000000
20
0.000000
30
0.000000
71
10
72
66
73
67
0
VERTEX
8
0
6
CONTINUOUS
62
252
70
128
10
0.000000
20
0.000000
30
0.000000
71
10
72
67
73
9
0
VERTEX
8
0
6
CONTINUOUS
62
252
70
128
10
0.000000
20
0.000000
30
0.000000
71
9
72
67
73
8
0
VERTEX
8
0
6
CONTINUOUS
62
252
70
128
10
0.000000
20
0.000000
30
0.000000
71
8
72
67
73
37
0
VERTEX
8
0
6
CONTINUOUS
62
252
70
128
10
0.000000
20
0.000000
30
0.000000
71
8
72
37
73
7
0
VERTEX
8
0
6
CONTINUOUS
62
252
70
128
10
0.000000
20
0.000000
30
0.000000
71
7
72
37
73
38
0
VERTEX
8
0
6
CONTINUOUS
62
252
70
128
10
0.000000
20
0.000000
30
0.000000
71
7
72
38
73
6
0
VERTEX
8
0
6
CONTINUOUS
62
252
70
128
10
0.000000
20
0.000000
30
0.000000
71
6
72
38
73
39
0
VERTEX
8
0
6
CONTINUOUS
62
252
70
128
10
0.000000
20
0.000000
30
0.000000
71
6
72
39
73
5
0
VERTEX
8
0
6
CONTINUOUS
62
252
70
128
10
0.000000
20
0.000000
30
0.000000
71
5
72
39
73
40
0
VERTEX
8
0
6
CONTINUOUS
62
252
70
128
10
0.000000
20
0.000000
30
0.000000
71
5
72
40
73
4
0
VERTEX
8
0
6
CONTINUOUS
62
252
70
128
10
0.000000
20
0.000000
30
0.000000
71
4
72
40
73
3
0
VERTEX
8
0
6
CONTINUOUS
62
252
70
128
10
0.000000
20
0.000000
30
0.000000
71
3
72
40
73
41
0
VERTEX
8
0
6
CONTINUOUS
62
252
70
128
10
0.000000
20
0.000000
30
0.000000
71
3
72
41
73
2
0
VERTEX
8
0
6
CONTINUOUS
62
252
70
128
10
0.000000
20
0.000000
30
0.000000
71
2
72
41
73
42
0
SEQEND
0
POLYLINE
66
1
8
0
6
CONTINUOUS
62
252
70
64
75
0
10
0.000000
20
0.000000
30
0.000000
0
VERTEX
8
0
6
CONTINUOUS
62
252
70
192
10
1.200000
20
39.750000
30
32.750000
0
VERTEX
8
0
6
CONTINUOUS
62
252
70
192
10
1.200000
20
39.750000
30
31.971825
0
VERTEX
8
0
6
CONTINUOUS
62
252
70
192
10
4.300000
20
39.750000
30
31.971825
0
VERTEX
8
0
6
CONTINUOUS
62
252
70
192
10
4.300000
20
39.750000
30
-31.971825
0
VERTEX
8
0
6
CONTINUOUS
62
252
70
192
10
1.200000
20
39.750000
30
-31.971825
0
VERTEX
8
0
6
CONTINUOUS
62
252
70
192
10
1.200000
20
39.750000
30
-32.750000
0
VERTEX
8
0
6
CONTINUOUS
62
252
70
192
10
0.000000
20
39.750000
30
-32.750000
0
VERTEX
8
0
6
CONTINUOUS
62
252
70
192
10
-0.000000
20
39.750000
30
32.750000
0
VERTEX
8
0
6
CONTINUOUS
62
252
70
128
10
0.000000
20
0.000000
30
0.000000
71
1
72
2
73
8
0
VERTEX
8
0
6
CONTINUOUS
62
252
70
128
10
0.000000
20
0.000000
30
0.000000
71
8
72
2
73
7
0
VERTEX
8
0
6
CONTINUOUS
62
252
70
128
10
0.000000
20
0.000000
30
0.000000
71
7
72
2
73
5
0
VERTEX
8
0
6
CONTINUOUS
62
252
70
128
10
0.000000
20
0.000000
30
0.000000
71
7
72
5
73
6
0
VERTEX
8
0
6
CONTINUOUS
62
252
70
128
10
0.000000
20
0.000000
30
0.000000
71
2
72
3
73
5
0
VERTEX
8
0
6
CONTINUOUS
62
252
70
128
10
0.000000
20
0.000000
30
0.000000
71
5
72
3
73
4
0
SEQEND
0
POLYLINE
66
1
8
0
6
CONTINUOUS
62
252
70
64
75
0
10
0.000000
20
0.000000
30
0.000000
0
VERTEX
8
0
6
CONTINUOUS
62
252
70
192
10
4.300000
20
31.971825
30
-39.750000
0
VERTEX
8
0
6
CONTINUOUS
62
252
70
192
10
1.200000
20
31.971825
30
-39.750000
0
VERTEX
8
0
6
CONTINUOUS
62
252
70
192
10
1.200000
20
29.344931
30
-37.123106
0
VERTEX
8
0
6
CONTINUOUS
62
252
70
192
10
4.300000
20
29.344931
30
-37.123106
0
VERTEX
8
0
6
CONTINUOUS
62
252
70
128
10
0.000000
20
0.000000
30
0.000000
71
2
72
3
73
1
0
VERTEX
8
0
6
CONTINUOUS
62
252
70
128
10
0.000000
20
0.000000
30
0.000000
71
1
72
3
73
4
0
SEQEND
0
POLYLINE
66
1
8
0
6
CONTINUOUS
62
252
70
64
75
0
10
0.000000
20
0.000000
30
0.000000
0
VERTEX
8
0
6
CONTINUOUS
62
252
70
192
10
1.200000
20
39.750000
30
-31.971825
0
VERTEX
8
0
6
CONTINUOUS
62
252
70
192
10
4.300000
20
39.750000
30
-31.971825
0
VERTEX
8
0
6
CONTINUOUS
62
252
70
192
10
4.300000
20
37.123106
30
-29.344931
0
VERTEX
8
0
6
CONTINUOUS
62
252
70
192
10
1.200000
20
37.123106
30
-29.344931
0
VERTEX
8
0
6
CONTINUOUS
62
252
70
128
10
0.000000
20
0.000000
30
0.000000
71
1
72
2
73
4
0
VERTEX
8
0
6
CONTINUOUS
62
252
70
128
10
0.000000
20
0.000000
30
0.000000
71
4
72
2
73
3
0
SEQEND
0
POLYLINE
66
1
8
0
6
CONTINUOUS
62
252
70
64
75
0
10
0.000000
20
0.000000
30
0.000000
0
VERTEX
8
0
6
CONTINUOUS
62
252
70
192
10
1.200000
20
29.344931
30
-37.123106
0
VERTEX
8
0
6
CONTINUOUS
62
252
70
192
10
1.200000
20
28.728682
30
-36.388689
0
VERTEX
8
0
6
CONTINUOUS
62
252
70
192
10
1.200000
20
28.249326
30
-35.558419
0
VERTEX
8
0
6
CONTINUOUS
62
252
70
192
10
1.200000
20
27.921427
30
-34.657523
0
VERTEX
8
0
6
CONTINUOUS
62
252
70
192
10
1.200000
20
27.754948
30
-33.713375
0
VERTEX
8
0
6
CONTINUOUS
62
252
70
192
10
1.200000
20
27.754948
30
-32.754662
0
VERTEX
8
0
6
CONTINUOUS
62
252
70
192
10
1.200000
20
27.921427
30
-31.810514
0
VERTEX
8
0
6
CONTINUOUS
62
252
70
192
10
1.200000
20
28.249326
30
-30.909618
0
VERTEX
8
0
6
CONTINUOUS
62
252
70
192
10
1.200000
20
28.728682
30
-30.079348
0
VERTEX
8
0
6
CONTINUOUS
62
252
70
192
10
1.200000
20
29.344931
30
-29.344931
0
VERTEX
8
0
6
CONTINUOUS
62
252
70
192
10
1.200000
20
30.079348
30
-28.728682
0
VERTEX
8
0
6
CONTINUOUS
62
252
70
192
10
1.200000
20
30.909618
30
-28.249326
0
VERTEX
8
0
6
CONTINUOUS
62
252
70
192
10
1.200000
20
31.810514
30
-27.921427
0
VERTEX
8
0
6
CONTINUOUS
62
252
70
192
10
1.200000
20
32.754662
30
-27.754948
0
VERTEX
8
0
6
CONTINUOUS
62
252
70
192
10
1.200000
20
33.713375
30
-27.754948
0
VERTEX
8
0
6
CONTINUOUS
62
252
70
192
10
1.200000
20
34.657523
30
-27.921427
0
VERTEX
8
0
6
CONTINUOUS
62
252
70
192
10
1.200000
20
35.558419
30
-28.249326
0
VERTEX
8
0
6
CONTINUOUS
62
252
70
192
10
1.200000
20
36.388689
30
-28.728682
0
VERTEX
8
0
6
CONTINUOUS
62
252
70
192
10
1.200000
20
37.123106
30
-29.344931
0
VERTEX
8
0
6
CONTINUOUS
62
252
70
192
10
4.300000
20
37.123106
30
-29.344931
0
VERTEX
8
0
6
CONTINUOUS
62
252
70
192
10
4.300000
20
36.388689
30
-28.728682
0
VERTEX
8
0
6
CONTINUOUS
62
252
70
192
10
4.300000
20
35.558419
30
-28.249326
0
VERTEX
8
0
6
CONTINUOUS
62
252
70
192
10
4.300000
20
34.657523
30
-27.921427
0
VERTEX
8
0
6
CONTINUOUS
62
252
70
192
10
4.300000
20
33.713375
30
-27.754948
0
VERTEX
8
0
6
CONTINUOUS
62
252
70
192
10
4.300000
20
32.754662
30
-27.754948
0
VERTEX
8
0
6
CONTINUOUS
62
252
70
192
10
4.300000
20
31.810514
30
-27.921427
0
VERTEX
8
0
6
CONTINUOUS
62
252
70
192
10
4.300000
20
30.909618
30
-28.249326
0
VERTEX
8
0
6
CONTINUOUS
62
252
70
192
10
4.300000
20
30.079348
30
-28.728682
0
VERTEX
8
0
6
CONTINUOUS
62
252
70
192
10
4.300000
20
29.344931
30
-29.344931
0
VERTEX
8
0
6
CONTINUOUS
62
252
70
192
10
4.300000
20
28.728682
30
-30.079348
0
VERTEX
8
0
6
CONTINUOUS
62
252
70
192
10
4.300000
20
28.249326
30
-30.909618
0
VERTEX
8
0
6
CONTINUOUS
62
252
70
192
10
4.300000
20
27.921427
30
-31.810514
0
VERTEX
8
0
6
CONTINUOUS
62
252
70
192
10
4.300000
20
27.754948
30
-32.754662
0
VERTEX
8
0
6
CONTINUOUS
62
252
70
192
10
4.300000
20
27.754948
30
-33.713375
0
VERTEX
8
0
6
CONTINUOUS
62
252
70
192
10
4.300000
20
27.921427
30
-34.657523
0
VERTEX
8
0
6
CONTINUOUS
62
252
70
192
10
4.300000
20
28.249326
30
-35.558419
0
VERTEX
8
0
6
CONTINUOUS
62
252
70
192
10
4.300000
20
28.728682
30
-36.388689
0
VERTEX
8
0
6
CONTINUOUS
62
252
70
192
10
4.300000
20
29.344931
30
-37.123106
0
VERTEX
8
0
6
CONTINUOUS
62
252
70
128
10
0.000000
20
0.000000
30
0.000000
71
38
72
1
73
37
0
VERTEX
8
0
6
CONTINUOUS
62
252
70
128
10
0.000000
20
0.000000
30
0.000000
71
37
72
1
73
2
0
VERTEX
8
0
6
CONTINUOUS
62
252
70
128
10
0.000000
20
0.000000
30
0.000000
71
37
72
2
73
36
0
VERTEX
8
0
6
CONTINUOUS
62
252
70
128
10
0.000000
20
0.000000
30
0.000000
71
36
72
2
73
3
0
VERTEX
8
0
6
CONTINUOUS
62
252
70
128
10
0.000000
20
0.000000
30
0.000000
71
36
72
3
73
35
0
VERTEX
8
0
6
CONTINUOUS
62
252
70
128
10
0.000000
20
0.000000
30
0.000000
71
35
72
3
73
4
0
VERTEX
8
0
6
CONTINUOUS
62
252
70
128
10
0.000000
20
0.000000
30
0.000000
71
35
72
4
73
34
0
VERTEX
8
0
6
CONTINUOUS
62
252
70
128
10
0.000000
20
0.000000
30
0.000000
71
34
72
4
73
5
0
VERTEX
8
0
6
CONTINUOUS
62
252
70
128
10
0.000000
20
0.000000
30
0.000000
71
34
72
5
73
33
0
VERTEX
8
0
6
CONTINUOUS
62
252
70
128
10
0.000000
20
0.000000
30
0.000000
71
33
72
5
73
6
0
VERTEX
8
0
6
CONTINUOUS
62
252
70
128
10
0.000000
20
0.000000
30
0.000000
71
33
72
6
73
32
0
VERTEX
8
0
6
CONTINUOUS
62
252
70
128
10
0.000000
20
0.000000
30
0.000000
71
32
72
6
73
7
0
VERTEX
8
0
6
CONTINUOUS
62
252
70
128
10
0.000000
20
0.000000
30
0.000000
71
32
72
7
73
31
0
VERTEX
8
0
6
CONTINUOUS
62
252
70
128
10
0.000000
20
0.000000
30
0.000000
71
31
72
7
73
8
0
VERTEX
8
0
6
CONTINUOUS
62
252
70
128
10
0.000000
20
0.000000
30
0.000000
71
31
72
8
73
30
0
VERTEX
8
0
6
CONTINUOUS
62
252
70
128
10
0.000000
20
0.000000
30
0.000000
71
30
72
8
73
9
0
VERTEX
8
0
6
CONTINUOUS
62
252
70
128
10
0.000000
20
0.000000
30
0.000000
71
30
72
9
73
29
0
VERTEX
8
0
6
CONTINUOUS
62
252
70
128
10
0.000000
20
0.000000
30
0.000000
71
29
72
9
73
10
0
VERTEX
8
0
6
CONTINUOUS
62
252
70
128
10
0.000000
20
0.000000
30
0.000000
71
29
72
10
73
28
0
VERTEX
8
0
6
CONTINUOUS
62
252
70
128
10
0.000000
20
0.000000
30
0.000000
71
28
72
10
73
11
0
VERTEX
8
0
6
CONTINUOUS
62
252
70
128
10
0.000000
20
0.000000
30
0.000000
71
28
72
11
73
27
0
VERTEX
8
0
6
CONTINUOUS
62
252
70
128
10
0.000000
20
0.000000
30
0.000000
71
27
72
11
73
12
0
VERTEX
8
0
6
CONTINUOUS
62
252
70
128
10
0.000000
20
0.000000
30
0.000000
71
27
72
12
73
26
0
VERTEX
8
0
6
CONTINUOUS
62
252
70
128
10
0.000000
20
0.000000
30
0.000000
71
26
72
12
73
13
0
VERTEX
8
0
6
CONTINUOUS
62
252
70
128
10
0.000000
20
0.000000
30
0.000000
71
26
72
13
73
25
0
VERTEX
8
0
6
CONTINUOUS
62
252
70
128
10
0.000000
20
0.000000
30
0.000000
71
25
72
13
73
14
0
VERTEX
8
0
6
CONTINUOUS
62
252
70
128
10
0.000000
20
0.000000
30
0.000000
71
25
72
14
73
24
0
VERTEX
8
0
6
CONTINUOUS
62
252
70
128
10
0.000000
20
0.000000
30
0.000000
71
24
72
14
73
15
0
VERTEX
8
0
6
CONTINUOUS
62
252
70
128
10
0.000000
20
0.000000
30
0.000000
71
24
72
15
73
23
0
VERTEX
8
0
6
CONTINUOUS
62
252
70
128
10
0.000000
20
0.000000
30
0.000000
71
23
72
15
73
16
0
VERTEX
8
0
6
CONTINUOUS
62
252
70
128
10
0.000000
20
0.000000
30
0.000000
71
23
72
16
73
22
0
VERTEX
8
0
6
CONTINUOUS
62
252
70
128
10
0.000000
20
0.000000
30
0.000000
71
22
72
16
73
17
0
VERTEX
8
0
6
CONTINUOUS
62
252
70
128
10
0.000000
20
0.000000
30
0.000000
71
22
72
17
73
21
0
VERTEX
8
0
6
CONTINUOUS
62
252
70
128
10
0.000000
20
0.000000
30
0.000000
71
21
72
17
73
18
0
VERTEX
8
0
6
CONTINUOUS
62
252
70
128
10
0.000000
20
0.000000
30
0.000000
71
21
72
18
73
20
0
VERTEX
8
0
6
CONTINUOUS
62
252
70
128
10
0.000000
20
0.000000
30
0.000000
71
20
72
18
73
19
0
SEQEND
0
POLYLINE
66
1
8
0
6
CONTINUOUS
62
252
70
64
75
0
10
0.000000
20
0.000000
30
0.000000
0
VERTEX
8
0
6
CONTINUOUS
62
252
70
192
10
1.200000
20
36.133157
30
-36.133157
0
VERTEX
8
0
6
CONTINUOUS
62
252
70
192
10
1.200000
20
35.585682
30
-36.592542
0
VERTEX
8
0
6
CONTINUOUS
62
252
70
192
10
1.200000
20
34.966754
30
-36.949881
0
VERTEX
8
0
6
CONTINUOUS
62
252
70
192
10
1.200000
20
34.295177
30
-37.194315
0
VERTEX
8
0
6
CONTINUOUS
62
252
70
192
10
1.200000
20
33.591357
30
-37.318417
0
VERTEX
8
0
6
CONTINUOUS
62
252
70
192
10
1.200000
20
32.876680
30
-37.318417
0
VERTEX
8
0
6
CONTINUOUS
62
252
70
192
10
1.200000
20
32.172861
30
-37.194315
0
VERTEX
8
0
6
CONTINUOUS
62
252
70
192
10
1.200000
20
31.501284
30
-36.949881
0
VERTEX
8
0
6
CONTINUOUS
62
252
70
192
10
1.200000
20
30.882355
30
-36.592542
0
VERTEX
8
0
6
CONTINUOUS
62
252
70
192
10
1.200000
20
30.334881
30
-36.133157
0
VERTEX
8
0
6
CONTINUOUS
62
252
70
192
10
1.200000
20
29.875495
30
-35.585682
0
VERTEX
8
0
6
CONTINUOUS
62
252
70
192
10
1.200000
20
29.518157
30
-34.966754
0
VERTEX
8
0
6
CONTINUOUS
62
252
70
192
10
1.200000
20
29.273723
30
-34.295177
0
VERTEX
8
0
6
CONTINUOUS
62
252
70
192
10
1.200000
20
29.149620
30
-33.591357
0
VERTEX
8
0
6
CONTINUOUS
62
252
70
192
10
1.200000
20
29.149620
30
-32.876680
0
VERTEX
8
0
6
CONTINUOUS
62
252
70
192
10
1.200000
20
29.273723
30
-32.172861
0
VERTEX
8
0
6
CONTINUOUS
62
252
70
192
10
1.200000
20
29.518157
30
-31.501284
0
VERTEX
8
0
6
CONTINUOUS
62
252
70
192
10
1.200000
20
29.875495
30
-30.882355
0
VERTEX
8
0
6
CONTINUOUS
62
252
70
192
10
1.200000
20
30.334881
30
-30.334881
0
VERTEX
8
0
6
CONTINUOUS
62
252
70
192
10
1.200000
20
30.882355
30
-29.875495
0
VERTEX
8
0
6
CONTINUOUS
62
252
70
192
10
1.200000
20
31.501284
30
-29.518157
0
VERTEX
8
0
6
CONTINUOUS
62
252
70
192
10
1.200000
20
32.172861
30
-29.273723
0
VERTEX
8
0
6
CONTINUOUS
62
252
70
192
10
1.200000
20
32.876680
30
-29.149620
0
VERTEX
8
0
6
CONTINUOUS
62
252
70
192
10
1.200000
20
33.591357
30
-29.149620
0
VERTEX
8
0
6
CONTINUOUS
62
252
70
192
10
1.200000
20
34.295177
30
-29.273723
0
VERTEX
8
0
6
CONTINUOUS
62
252
70
192
10
1.200000
20
34.966754
30
-29.518157
0
VERTEX
8
0
6
CONTINUOUS
62
252
70
192
10
1.200000
20
35.585682
30
-29.875495
0
VERTEX
8
0
6
CONTINUOUS
62
252
70
192
10
1.200000
20
36.133157
30
-30.334881
0
VERTEX
8
0
6
CONTINUOUS
62
252
70
192
10
1.200000
20
36.592542
30
-30.882355
0
VERTEX
8
0
6
CONTINUOUS
62
252
70
192
10
1.200000
20
36.949881
30
-31.501284
0
VERTEX
8
0
6
CONTINUOUS
62
252
70
192
10
1.200000
20
37.194315
30
-32.172861
0
VERTEX
8
0
6
CONTINUOUS
62
252
70
192
10
1.200000
20
37.318417
30
-32.876680
0
VERTEX
8
0
6
CONTINUOUS
62
252
70
192
10
1.200000
20
37.318417
30
-33.591357
0
VERTEX
8
0
6
CONTINUOUS
62
252
70
192
10
1.200000
20
37.194315
30
-34.295177
0
VERTEX
8
0
6
CONTINUOUS
62
252
70
192
10
1.200000
20
36.949881
30
-34.966754
0
VERTEX
8
0
6
CONTINUOUS
62
252
70
192
10
1.200000
20
36.592542
30
-35.585682
0
VERTEX
8
0
6
CONTINUOUS
62
252
70
192
10
1.200000
20
31.971825
30
-39.750000
0
VERTEX
8
0
6
CONTINUOUS
62
252
70
192
10
1.200000
20
32.750000
30
-39.750000
0
VERTEX
8
0
6
CONTINUOUS
62
252
70
192
10
1.200000
20
33.965537
30
-39.643654
0
VERTEX
8
0
6
CONTINUOUS
62
252
70
192
10
1.200000
20
35.144141
30
-39.327848
0
VERTEX
8
0
6
CONTINUOUS
62
252
70
192
10
1.200000
20
36.250000
30
-38.812178
0
VERTEX
8
0
6
CONTINUOUS
62
252
70
192
10
1.200000
20
37.249513
30
-38.112311
0
VERTEX
8
0
6
CONTINUOUS
62
252
70
192
10
1.200000
20
38.112311
30
-37.249513
0
VERTEX
8
0
6
CONTINUOUS
62
252
70
192
10
1.200000
20
38.812178
30
-36.250000
0
VERTEX
8
0
6
CONTINUOUS
62
252
70
192
10
1.200000
20
39.327848
30
-35.144141
0
VERTEX
8
0
6
CONTINUOUS
62
252
70
192
10
1.200000
20
39.643654
30
-33.965537
0
VERTEX
8
0
6
CONTINUOUS
62
252
70
192
10
1.200000
20
39.750000
30
-32.750000
0
VERTEX
8
0
6
CONTINUOUS
62
252
70
192
10
1.200000
20
39.750000
30
-31.971825
0
VERTEX
8
0
6
CONTINUOUS
62
252
70
192
10
1.200000
20
37.123106
30
-29.344931
0
VERTEX
8
0
6
CONTINUOUS
62
252
70
192
10
1.200000
20
36.388689
30
-28.728682
0
VERTEX
8
0
6
CONTINUOUS
62
252
70
192
10
1.200000
20
35.558419
30
-28.249326
0
VERTEX
8
0
6
CONTINUOUS
62
252
70
192
10
1.200000
20
34.657523
30
-27.921427
0
VERTEX
8
0
6
CONTINUOUS
62
252
70
192
10
1.200000
20
33.713375
30
-27.754948
0
VERTEX
8
0
6
CONTINUOUS
62
252
70
192
10
1.200000
20
32.754662
30
-27.754948
0
VERTEX
8
0
6
CONTINUOUS
62
252
70
192
10
1.200000
20
31.810514
30
-27.921427
0
VERTEX
8
0
6
CONTINUOUS
62
252
70
192
10
1.200000
20
30.909618
30
-28.249326
0
VERTEX
8
0
6
CONTINUOUS
62
252
70
192
10
1.200000
20
30.079348
30
-28.728682
0
VERTEX
8
0
6
CONTINUOUS
62
252
70
192
10
1.200000
20
29.344931
30
-29.344931
0
VERTEX
8
0
6
CONTINUOUS
62
252
70
192
10
1.200000
20
28.728682
30
-30.079348
0
VERTEX
8
0
6
CONTINUOUS
62
252
70
192
10
1.200000
20
28.249326
30
-30.909618
0
VERTEX
8
0
6
CONTINUOUS
62
252
70
192
10
1.200000
20
27.921427
30
-31.810514
0
VERTEX
8
0
6
CONTINUOUS
62
252
70
192
10
1.200000
20
27.754948
30
-32.754662
0
VERTEX
8
0
6
CONTINUOUS
62
252
70
192
10
1.200000
20
27.754948
30
-33.713375
0
VERTEX
8
0
6
CONTINUOUS
62
252
70
192
10
1.200000
20
27.921427
30
-34.657523
0
VERTEX
8
0
6
CONTINUOUS
62
252
70
192
10
1.200000
20
28.249326
30
-35.558419
0
VERTEX
8
0
6
CONTINUOUS
62
252
70
192
10
1.200000
20
28.728682
30
-36.388689
0
VERTEX
8
0
6
CONTINUOUS
62
252
70
192
10
1.200000
20
29.344931
30
-37.123106
0
VERTEX
8
0
6
CONTINUOUS
62
252
70
128
10
0.000000
20
0.000000
30
0.000000
71
2
72
42
73
1
0
VERTEX
8
0
6
CONTINUOUS
62
252
70
128
10
0.000000
20
0.000000
30
0.000000
71
1
72
42
73
43
0
VERTEX
8
0
6
CONTINUOUS
62
252
70
128
10
0.000000
20
0.000000
30
0.000000
71
1
72
43
73
36
0
VERTEX
8
0
6
CONTINUOUS
62
252
70
128
10
0.000000
20
0.000000
30
0.000000
71
36
72
43
73
44
0
VERTEX
8
0
6
CONTINUOUS
62
252
70
128
10
0.000000
20
0.000000
30
0.000000
71
36
72
44
73
35
0
VERTEX
8
0
6
CONTINUOUS
62
252
70
128
10
0.000000
20
0.000000
30
0.000000
71
35
72
44
73
45
0
VERTEX
8
0
6
CONTINUOUS
62
252
70
128
10
0.000000
20
0.000000
30
0.000000
71
35
72
45
73
34
0
VERTEX
8
0
6
CONTINUOUS
62
252
70
128
10
0.000000
20
0.000000
30
0.000000
71
34
72
45
73
33
0
VERTEX
8
0
6
CONTINUOUS
62
252
70
128
10
0.000000
20
0.000000
30
0.000000
71
33
72
45
73
46
0
VERTEX
8
0
6
CONTINUOUS
62
252
70
128
10
0.000000
20
0.000000
30
0.000000
71
33
72
46
73
32
0
VERTEX
8
0
6
CONTINUOUS
62
252
70
128
10
0.000000
20
0.000000
30
0.000000
71
32
72
46
73
47
0
VERTEX
8
0
6
CONTINUOUS
62
252
70
128
10
0.000000
20
0.000000
30
0.000000
71
32
72
47
73
31
0
VERTEX
8
0
6
CONTINUOUS
62
252
70
128
10
0.000000
20
0.000000
30
0.000000
71
31
72
47
73
48
0
VERTEX
8
0
6
CONTINUOUS
62
252
70
128
10
0.000000
20
0.000000
30
0.000000
71
31
72
48
73
30
0
VERTEX
8
0
6
CONTINUOUS
62
252
70
128
10
0.000000
20
0.000000
30
0.000000
71
30
72
48
73
49
0
VERTEX
8
0
6
CONTINUOUS
62
252
70
128
10
0.000000
20
0.000000
30
0.000000
71
30
72
49
73
29
0
VERTEX
8
0
6
CONTINUOUS
62
252
70
128
10
0.000000
20
0.000000
30
0.000000
71
29
72
49
73
28
0
VERTEX
8
0
6
CONTINUOUS
62
252
70
128
10
0.000000
20
0.000000
30
0.000000
71
28
72
49
73
50
0
VERTEX
8
0
6
CONTINUOUS
62
252
70
128
10
0.000000
20
0.000000
30
0.000000
71
28
72
50
73
27
0
VERTEX
8
0
6
CONTINUOUS
62
252
70
128
10
0.000000
20
0.000000
30
0.000000
71
27
72
50
73
51
0
VERTEX
8
0
6
CONTINUOUS
62
252
70
128
10
0.000000
20
0.000000
30
0.000000
71
27
72
51
73
26
0
VERTEX
8
0
6
CONTINUOUS
62
252
70
128
10
0.000000
20
0.000000
30
0.000000
71
26
72
51
73
52
0
VERTEX
8
0
6
CONTINUOUS
62
252
70
128
10
0.000000
20
0.000000
30
0.000000
71
26
72
52
73
25
0
VERTEX
8
0
6
CONTINUOUS
62
252
70
128
10
0.000000
20
0.000000
30
0.000000
71
25
72
52
73
53
0
VERTEX
8
0
6
CONTINUOUS
62
252
70
128
10
0.000000
20
0.000000
30
0.000000
71
25
72
53
73
24
0
VERTEX
8
0
6
CONTINUOUS
62
252
70
128
10
0.000000
20
0.000000
30
0.000000
71
24
72
53
73
54
0
VERTEX
8
0
6
CONTINUOUS
62
252
70
128
10
0.000000
20
0.000000
30
0.000000
71
24
72
54
73
23
0
VERTEX
8
0
6
CONTINUOUS
62
252
70
128
10
0.000000
20
0.000000
30
0.000000
71
23
72
54
73
55
0
VERTEX
8
0
6
CONTINUOUS
62
252
70
128
10
0.000000
20
0.000000
30
0.000000
71
23
72
55
73
22
0
VERTEX
8
0
6
CONTINUOUS
62
252
70
128
10
0.000000
20
0.000000
30
0.000000
71
22
72
55
73
56
0
VERTEX
8
0
6
CONTINUOUS
62
252
70
128
10
0.000000
20
0.000000
30
0.000000
71
22
72
56
73
21
0
VERTEX
8
0
6
CONTINUOUS
62
252
70
128
10
0.000000
20
0.000000
30
0.000000
71
21
72
56
73
57
0
VERTEX
8
0
6
CONTINUOUS
62
252
70
128
10
0.000000
20
0.000000
30
0.000000
71
21
72
57
73
20
0
VERTEX
8
0
6
CONTINUOUS
62
252
70
128
10
0.000000
20
0.000000
30
0.000000
71
20
72
57
73
58
0
VERTEX
8
0
6
CONTINUOUS
62
252
70
128
10
0.000000
20
0.000000
30
0.000000
71
20
72
58
73
19
0
VERTEX
8
0
6
CONTINUOUS
62
252
70
128
10
0.000000
20
0.000000
30
0.000000
71
19
72
58
73
18
0
VERTEX
8
0
6
CONTINUOUS
62
252
70
128
10
0.000000
20
0.000000
30
0.000000
71
18
72
58
73
59
0
VERTEX
8
0
6
CONTINUOUS
62
252
70
128
10
0.000000
20
0.000000
30
0.000000
71
18
72
59
73
17
0
VERTEX
8
0
6
CONTINUOUS
62
252
70
128
10
0.000000
20
0.000000
30
0.000000
71
17
72
59
73
60
0
VERTEX
8
0
6
CONTINUOUS
62
252
70
128
10
0.000000
20
0.000000
30
0.000000
71
17
72
60
73
16
0
VERTEX
8
0
6
CONTINUOUS
62
252
70
128
10
0.000000
20
0.000000
30
0.000000
71
16
72
60
73
61
0
VERTEX
8
0
6
CONTINUOUS
62
252
70
128
10
0.000000
20
0.000000
30
0.000000
71
16
72
61
73
15
0
VERTEX
8
0
6
CONTINUOUS
62
252
70
128
10
0.000000
20
0.000000
30
0.000000
71
15
72
61
73
62
0
VERTEX
8
0
6
CONTINUOUS
62
252
70
128
10
0.000000
20
0.000000
30
0.000000
71
15
72
62
73
14
0
VERTEX
8
0
6
CONTINUOUS
62
252
70
128
10
0.000000
20
0.000000
30
0.000000
71
14
72
62
73
63
0
VERTEX
8
0
6
CONTINUOUS
62
252
70
128
10
0.000000
20
0.000000
30
0.000000
71
14
72
63
73
13
0
VERTEX
8
0
6
CONTINUOUS
62
252
70
128
10
0.000000
20
0.000000
30
0.000000
71
13
72
63
73
64
0
VERTEX
8
0
6
CONTINUOUS
62
252
70
128
10
0.000000
20
0.000000
30
0.000000
71
13
72
64
73
12
0
VERTEX
8
0
6
CONTINUOUS
62
252
70
128
10
0.000000
20
0.000000
30
0.000000
71
12
72
64
73
65
0
VERTEX
8
0
6
CONTINUOUS
62
252
70
128
10
0.000000
20
0.000000
30
0.000000
71
12
72
65
73
11
0
VERTEX
8
0
6
CONTINUOUS
62
252
70
128
10
0.000000
20
0.000000
30
0.000000
71
11
72
65
73
66
0
VERTEX
8
0
6
CONTINUOUS
62
252
70
128
10
0.000000
20
0.000000
30
0.000000
71
11
72
66
73
10
0
VERTEX
8
0
6
CONTINUOUS
62
252
70
128
10
0.000000
20
0.000000
30
0.000000
71
10
72
66
73
67
0
VERTEX
8
0
6
CONTINUOUS
62
252
70
128
10
0.000000
20
0.000000
30
0.000000
71
10
72
67
73
9
0
VERTEX
8
0
6
CONTINUOUS
62
252
70
128
10
0.000000
20
0.000000
30
0.000000
71
9
72
67
73
8
0
VERTEX
8
0
6
CONTINUOUS
62
252
70
128
10
0.000000
20
0.000000
30
0.000000
71
8
72
67
73
37
0
VERTEX
8
0
6
CONTINUOUS
62
252
70
128
10
0.000000
20
0.000000
30
0.000000
71
8
72
37
73
7
0
VERTEX
8
0
6
CONTINUOUS
62
252
70
128
10
0.000000
20
0.000000
30
0.000000
71
7
72
37
73
38
0
VERTEX
8
0
6
CONTINUOUS
62
252
70
128
10
0.000000
20
0.000000
30
0.000000
71
7
72
38
73
6
0
VERTEX
8
0
6
CONTINUOUS
62
252
70
128
10
0.000000
20
0.000000
30
0.000000
71
6
72
38
73
39
0
VERTEX
8
0
6
CONTINUOUS
62
252
70
128
10
0.000000
20
0.000000
30
0.000000
71
6
72
39
73
5
0
VERTEX
8
0
6
CONTINUOUS
62
252
70
128
10
0.000000
20
0.000000
30
0.000000
71
5
72
39
73
40
0
VERTEX
8
0
6
CONTINUOUS
62
252
70
128
10
0.000000
20
0.000000
30
0.000000
71
5
72
40
73
4
0
VERTEX
8
0
6
CONTINUOUS
62
252
70
128
10
0.000000
20
0.000000
30
0.000000
71
4
72
40
73
3
0
VERTEX
8
0
6
CONTINUOUS
62
252
70
128
10
0.000000
20
0.000000
30
0.000000
71
3
72
40
73
41
0
VERTEX
8
0
6
CONTINUOUS
62
252
70
128
10
0.000000
20
0.000000
30
0.000000
71
3
72
41
73
2
0
VERTEX
8
0
6
CONTINUOUS
62
252
70
128
10
0.000000
20
0.000000
30
0.000000
71
2
72
41
73
42
0
SEQEND
0
POLYLINE
66
1
8
0
6
CONTINUOUS
62
252
70
64
75
0
10
0.000000
20
0.000000
30
0.000000
0
VERTEX
8
0
6
CONTINUOUS
62
252
70
192
10
1.200000
20
32.750000
30
-39.750000
0
VERTEX
8
0
6
CONTINUOUS
62
252
70
192
10
1.200000
20
31.971825
30
-39.750000
0
VERTEX
8
0
6
CONTINUOUS
62
252
70
192
10
4.300000
20
31.971825
30
-39.750000
0
VERTEX
8
0
6
CONTINUOUS
62
252
70
192
10
4.300000
20
24.000000
30
-39.750000
0
VERTEX
8
0
6
CONTINUOUS
62
252
70
192
10
12.000000
20
24.000000
30
-39.750000
0
VERTEX
8
0
6
CONTINUOUS
62
252
70
192
10
12.000000
20
-24.000000
30
-39.750000
0
VERTEX
8
0
6
CONTINUOUS
62
252
70
192
10
4.300000
20
-24.000000
30
-39.750000
0
VERTEX
8
0
6
CONTINUOUS
62
252
70
192
10
4.300000
20
-31.971825
30
-39.750000
0
VERTEX
8
0
6
CONTINUOUS
62
252
70
192
10
1.200000
20
-31.971825
30
-39.750000
0
VERTEX
8
0
6
CONTINUOUS
62
252
70
192
10
1.200000
20
-32.750000
30
-39.750000
0
VERTEX
8
0
6
CONTINUOUS
62
252
70
192
10
0.000000
20
-32.750000
30
-39.750000
0
VERTEX
8
0
6
CONTINUOUS
62
252
70
192
10
0.000000
20
32.750000
30
-39.750000
0
VERTEX
8
0
6
CONTINUOUS
62
252
70
128
10
0.000000
20
0.000000
30
0.000000
71
1
72
2
73
12
0
VERTEX
8
0
6
CONTINUOUS
62
252
70
128
10
0.000000
20
0.000000
30
0.000000
71
12
72
2
73
11
0
VERTEX
8
0
6
CONTINUOUS
62
252
70
128
10
0.000000
20
0.000000
30
0.000000
71
11
72
2
73
9
0
VERTEX
8
0
6
CONTINUOUS
62
252
70
128
10
0.000000
20
0.000000
30
0.000000
71
11
72
9
73
10
0
VERTEX
8
0
6
CONTINUOUS
62
252
70
128
10
0.000000
20
0.000000
30
0.000000
71
3
72
4
73
2
0
VERTEX
8
0
6
CONTINUOUS
62
252
70
128
10
0.000000
20
0.000000
30
0.000000
71
2
72
4
73
7
0
VERTEX
8
0
6
CONTINUOUS
62
252
70
128
10
0.000000
20
0.000000
30
0.000000
71
2
72
7
73
9
0
VERTEX
8
0
6
CONTINUOUS
62
252
70
128
10
0.000000
20
0.000000
30
0.000000
71
9
72
7
73
8
0
VERTEX
8
0
6
CONTINUOUS
62
252
70
128
10
0.000000
20
0.000000
30
0.000000
71
4
72
5
73
7
0
VERTEX
8
0
6
CONTINUOUS
62
252
70
128
10
0.000000
20
0.000000
30
0.000000
71
7
72
5
73
6
0
SEQEND
0
POLYLINE
66
1
8
0
6
CONTINUOUS
62
252
70
64
75
0
10
0.000000
20
0.000000
30
0.000000
0
VERTEX
8
0
6
CONTINUOUS
62
252
70
192
10
4.300000
20
-39.750000
30
-31.971825
0
VERTEX
8
0
6
CONTINUOUS
62
252
70
192
10
1.200000
20
-39.750000
30
-31.971825
0
VERTEX
8
0
6
CONTINUOUS
62
252
70
192
10
1.200000
20
-37.123106
30
-29.344931
0
VERTEX
8
0
6
CONTINUOUS
62
252
70
192
10
4.300000
20
-37.123106
30
-29.344931
0
VERTEX
8
0
6
CONTINUOUS
62
252
70
128
10
0.000000
20
0.000000
30
0.000000
71
1
72
2
73
4
0
VERTEX
8
0
6
CONTINUOUS
62
252
70
128
10
0.000000
20
0.000000
30
0.000000
71
4
72
2
73
3
0
SEQEND
0
POLYLINE
66
1
8
0
6
CONTINUOUS
62
252
70
64
75
0
10
0.000000
20
0.000000
30
0.000000
0
VERTEX
8
0
6
CONTINUOUS
62
252
70
192
10
1.200000
20
-31.971825
30
-39.750000
0
VERTEX
8
0
6
CONTINUOUS
62
252
70
192
10
4.300000
20
-31.971825
30
-39.750000
0
VERTEX
8
0
6
CONTINUOUS
62
252
70
192
10
4.300000
20
-29.344931
30
-37.123106
0
VERTEX
8
0
6
CONTINUOUS
62
252
70
192
10
1.200000
20
-29.344931
30
-37.123106
0
VERTEX
8
0
6
CONTINUOUS
62
252
70
128
10
0.000000
20
0.000000
30
0.000000
71
1
72
2
73
4
0
VERTEX
8
0
6
CONTINUOUS
62
252
70
128
10
0.000000
20
0.000000
30
0.000000
71
4
72
2
73
3
0
SEQEND
0
POLYLINE
66
1
8
0
6
CONTINUOUS
62
252
70
64
75
0
10
0.000000
20
0.000000
30
0.000000
0
VERTEX
8
0
6
CONTINUOUS
62
252
70
192
10
1.200000
20
-37.123106
30
-29.344931
0
VERTEX
8
0
6
CONTINUOUS
62
252
70
192
10
1.200000
20
-36.388689
30
-28.728682
0
VERTEX
8
0
6
CONTINUOUS
62
252
70
192
10
1.200000
20
-35.558419
30
-28.249326
0
VERTEX
8
0
6
CONTINUOUS
62
252
70
192
10
1.200000
20
-34.657523
30
-27.921427
0
VERTEX
8
0
6
CONTINUOUS
62
252
70
192
10
1.200000
20
-33.713375
30
-27.754948
0
VERTEX
8
0
6
CONTINUOUS
62
252
70
192
10
1.200000
20
-32.754662
30
-27.754948
0
VERTEX
8
0
6
CONTINUOUS
62
252
70
192
10
1.200000
20
-31.810514
30
-27.921427
0
VERTEX
8
0
6
CONTINUOUS
62
252
70
192
10
1.200000
20
-30.909618
30
-28.249326
0
VERTEX
8
0
6
CONTINUOUS
62
252
70
192
10
1.200000
20
-30.079348
30
-28.728682
0
VERTEX
8
0
6
CONTINUOUS
62
252
70
192
10
1.200000
20
-29.344931
30
-29.344931
0
VERTEX
8
0
6
CONTINUOUS
62
252
70
192
10
1.200000
20
-28.728682
30
-30.079348
0
VERTEX
8
0
6
CONTINUOUS
62
252
70
192
10
1.200000
20
-28.249326
30
-30.909618
0
VERTEX
8
0
6
CONTINUOUS
62
252
70
192
10
1.200000
20
-27.921427
30
-31.810514
0
VERTEX
8
0
6
CONTINUOUS
62
252
70
192
10
1.200000
20
-27.754948
30
-32.754662
0
VERTEX
8
0
6
CONTINUOUS
62
252
70
192
10
1.200000
20
-27.754948
30
-33.713375
0
VERTEX
8
0
6
CONTINUOUS
62
252
70
192
10
1.200000
20
-27.921427
30
-34.657523
0
VERTEX
8
0
6
CONTINUOUS
62
252
70
192
10
1.200000
20
-28.249326
30
-35.558419
0
VERTEX
8
0
6
CONTINUOUS
62
252
70
192
10
1.200000
20
-28.728682
30
-36.388689
0
VERTEX
8
0
6
CONTINUOUS
62
252
70
192
10
1.200000
20
-29.344931
30
-37.123106
0
VERTEX
8
0
6
CONTINUOUS
62
252
70
192
10
4.300000
20
-29.344931
30
-37.123106
0
VERTEX
8
0
6
CONTINUOUS
62
252
70
192
10
4.300000
20
-28.728682
30
-36.388689
0
VERTEX
8
0
6
CONTINUOUS
62
252
70
192
10
4.300000
20
-28.249326
30
-35.558419
0
VERTEX
8
0
6
CONTINUOUS
62
252
70
192
10
4.300000
20
-27.921427
30
-34.657523
0
VERTEX
8
0
6
CONTINUOUS
62
252
70
192
10
4.300000
20
-27.754948
30
-33.713375
0
VERTEX
8
0
6
CONTINUOUS
62
252
70
192
10
4.300000
20
-27.754948
30
-32.754662
0
VERTEX
8
0
6
CONTINUOUS
62
252
70
192
10
4.300000
20
-27.921427
30
-31.810514
0
VERTEX
8
0
6
CONTINUOUS
62
252
70
192
10
4.300000
20
-28.249326
30
-30.909618
0
VERTEX
8
0
6
CONTINUOUS
62
252
70
192
10
4.300000
20
-28.728682
30
-30.079348
0
VERTEX
8
0
6
CONTINUOUS
62
252
70
192
10
4.300000
20
-29.344931
30
-29.344931
0
VERTEX
8
0
6
CONTINUOUS
62
252
70
192
10
4.300000
20
-30.079348
30
-28.728682
0
VERTEX
8
0
6
CONTINUOUS
62
252
70
192
10
4.300000
20
-30.909618
30
-28.249326
0
VERTEX
8
0
6
CONTINUOUS
62
252
70
192
10
4.300000
20
-31.810514
30
-27.921427
0
VERTEX
8
0
6
CONTINUOUS
62
252
70
192
10
4.300000
20
-32.754662
30
-27.754948
0
VERTEX
8
0
6
CONTINUOUS
62
252
70
192
10
4.300000
20
-33.713375
30
-27.754948
0
VERTEX
8
0
6
CONTINUOUS
62
252
70
192
10
4.300000
20
-34.657523
30
-27.921427
0
VERTEX
8
0
6
CONTINUOUS
62
252
70
192
10
4.300000
20
-35.558419
30
-28.249326
0
VERTEX
8
0
6
CONTINUOUS
62
252
70
192
10
4.300000
20
-36.388689
30
-28.728682
0
VERTEX
8
0
6
CONTINUOUS
62
252
70
192
10
4.300000
20
-37.123106
30
-29.344931
0
VERTEX
8
0
6
CONTINUOUS
62
252
70
128
10
0.000000
20
0.000000
30
0.000000
71
38
72
1
73
37
0
VERTEX
8
0
6
CONTINUOUS
62
252
70
128
10
0.000000
20
0.000000
30
0.000000
71
37
72
1
73
2
0
VERTEX
8
0
6
CONTINUOUS
62
252
70
128
10
0.000000
20
0.000000
30
0.000000
71
37
72
2
73
36
0
VERTEX
8
0
6
CONTINUOUS
62
252
70
128
10
0.000000
20
0.000000
30
0.000000
71
36
72
2
73
3
0
VERTEX
8
0
6
CONTINUOUS
62
252
70
128
10
0.000000
20
0.000000
30
0.000000
71
36
72
3
73
35
0
VERTEX
8
0
6
CONTINUOUS
62
252
70
128
10
0.000000
20
0.000000
30
0.000000
71
35
72
3
73
4
0
VERTEX
8
0
6
CONTINUOUS
62
252
70
128
10
0.000000
20
0.000000
30
0.000000
71
35
72
4
73
34
0
VERTEX
8
0
6
CONTINUOUS
62
252
70
128
10
0.000000
20
0.000000
30
0.000000
71
34
72
4
73
5
0
VERTEX
8
0
6
CONTINUOUS
62
252
70
128
10
0.000000
20
0.000000
30
0.000000
71
34
72
5
73
33
0
VERTEX
8
0
6
CONTINUOUS
62
252
70
128
10
0.000000
20
0.000000
30
0.000000
71
33
72
5
73
6
0
VERTEX
8
0
6
CONTINUOUS
62
252
70
128
10
0.000000
20
0.000000
30
0.000000
71
33
72
6
73
32
0
VERTEX
8
0
6
CONTINUOUS
62
252
70
128
10
0.000000
20
0.000000
30
0.000000
71
32
72
6
73
7
0
VERTEX
8
0
6
CONTINUOUS
62
252
70
128
10
0.000000
20
0.000000
30
0.000000
71
32
72
7
73
31
0
VERTEX
8
0
6
CONTINUOUS
62
252
70
128
10
0.000000
20
0.000000
30
0.000000
71
31
72
7
73
8
0
VERTEX
8
0
6
CONTINUOUS
62
252
70
128
10
0.000000
20
0.000000
30
0.000000
71
31
72
8
73
30
0
VERTEX
8
0
6
CONTINUOUS
62
252
70
128
10
0.000000
20
0.000000
30
0.000000
71
30
72
8
73
9
0
VERTEX
8
0
6
CONTINUOUS
62
252
70
128
10
0.000000
20
0.000000
30
0.000000
71
30
72
9
73
29
0
VERTEX
8
0
6
CONTINUOUS
62
252
70
128
10
0.000000
20
0.000000
30
0.000000
71
29
72
9
73
10
0
VERTEX
8
0
6
CONTINUOUS
62
252
70
128
10
0.000000
20
0.000000
30
0.000000
71
29
72
10
73
28
0
VERTEX
8
0
6
CONTINUOUS
62
252
70
128
10
0.000000
20
0.000000
30
0.000000
71
28
72
10
73
11
0
VERTEX
8
0
6
CONTINUOUS
62
252
70
128
10
0.000000
20
0.000000
30
0.000000
71
28
72
11
73
27
0
VERTEX
8
0
6
CONTINUOUS
62
252
70
128
10
0.000000
20
0.000000
30
0.000000
71
27
72
11
73
12
0
VERTEX
8
0
6
CONTINUOUS
62
252
70
128
10
0.000000
20
0.000000
30
0.000000
71
27
72
12
73
26
0
VERTEX
8
0
6
CONTINUOUS
62
252
70
128
10
0.000000
20
0.000000
30
0.000000
71
26
72
12
73
13
0
VERTEX
8
0
6
CONTINUOUS
62
252
70
128
10
0.000000
20
0.000000
30
0.000000
71
26
72
13
73
25
0
VERTEX
8
0
6
CONTINUOUS
62
252
70
128
10
0.000000
20
0.000000
30
0.000000
71
25
72
13
73
14
0
VERTEX
8
0
6
CONTINUOUS
62
252
70
128
10
0.000000
20
0.000000
30
0.000000
71
25
72
14
73
24
0
VERTEX
8
0
6
CONTINUOUS
62
252
70
128
10
0.000000
20
0.000000
30
0.000000
71
24
72
14
73
15
0
VERTEX
8
0
6
CONTINUOUS
62
252
70
128
10
0.000000
20
0.000000
30
0.000000
71
24
72
15
73
23
0
VERTEX
8
0
6
CONTINUOUS
62
252
70
128
10
0.000000
20
0.000000
30
0.000000
71
23
72
15
73
16
0
VERTEX
8
0
6
CONTINUOUS
62
252
70
128
10
0.000000
20
0.000000
30
0.000000
71
23
72
16
73
22
0
VERTEX
8
0
6
CONTINUOUS
62
252
70
128
10
0.000000
20
0.000000
30
0.000000
71
22
72
16
73
17
0
VERTEX
8
0
6
CONTINUOUS
62
252
70
128
10
0.000000
20
0.000000
30
0.000000
71
22
72
17
73
21
0
VERTEX
8
0
6
CONTINUOUS
62
252
70
128
10
0.000000
20
0.000000
30
0.000000
71
21
72
17
73
18
0
VERTEX
8
0
6
CONTINUOUS
62
252
70
128
10
0.000000
20
0.000000
30
0.000000
71
21
72
18
73
20
0
VERTEX
8
0
6
CONTINUOUS
62
252
70
128
10
0.000000
20
0.000000
30
0.000000
71
20
72
18
73
19
0
SEQEND
0
POLYLINE
66
1
8
0
6
CONTINUOUS
62
252
70
64
75
0
10
0.000000
20
0.000000
30
0.000000
0
VERTEX
8
0
6
CONTINUOUS
62
252
70
192
10
1.200000
20
-36.133157
30
-36.133157
0
VERTEX
8
0
6
CONTINUOUS
62
252
70
192
10
1.200000
20
-36.592542
30
-35.585682
0
VERTEX
8
0
6
CONTINUOUS
62
252
70
192
10
1.200000
20
-36.949881
30
-34.966754
0
VERTEX
8
0
6
CONTINUOUS
62
252
70
192
10
1.200000
20
-37.194315
30
-34.295177
0
VERTEX
8
0
6
CONTINUOUS
62
252
70
192
10
1.200000
20
-37.318417
30
-33.591357
0
VERTEX
8
0
6
CONTINUOUS
62
252
70
192
10
1.200000
20
-37.318417
30
-32.876680
0
VERTEX
8
0
6
CONTINUOUS
62
252
70
192
10
1.200000
20
-37.194315
30
-32.172861
0
VERTEX
8
0
6
CONTINUOUS
62
252
70
192
10
1.200000
20
-36.949881
30
-31.501284
0
VERTEX
8
0
6
CONTINUOUS
62
252
70
192
10
1.200000
20
-36.592542
30
-30.882355
0
VERTEX
8
0
6
CONTINUOUS
62
252
70
192
10
1.200000
20
-36.133157
30
-30.334881
0
VERTEX
8
0
6
CONTINUOUS
62
252
70
192
10
1.200000
20
-35.585682
30
-29.875495
0
VERTEX
8
0
6
CONTINUOUS
62
252
70
192
10
1.200000
20
-34.966754
30
-29.518157
0
VERTEX
8
0
6
CONTINUOUS
62
252
70
192
10
1.200000
20
-34.295177
30
-29.273723
0
VERTEX
8
0
6
CONTINUOUS
62
252
70
192
10
1.200000
20
-33.591357
30
-29.149620
0
VERTEX
8
0
6
CONTINUOUS
62
252
70
192
10
1.200000
20
-32.876680
30
-29.149620
0
VERTEX
8
0
6
CONTINUOUS
62
252
70
192
10
1.200000
20
-32.172861
30
-29.273723
0
VERTEX
8
0
6
CONTINUOUS
62
252
70
192
10
1.200000
20
-31.501284
30
-29.518157
0
VERTEX
8
0
6
CONTINUOUS
62
252
70
192
10
1.200000
20
-30.882355
30
-29.875495
0
VERTEX
8
0
6
CONTINUOUS
62
252
70
192
10
1.200000
20
-30.334881
30
-30.334881
0
VERTEX
8
0
6
CONTINUOUS
62
252
70
192
10
1.200000
20
-29.875495
30
-30.882355
0
VERTEX
8
0
6
CONTINUOUS
62
252
70
192
10
1.200000
20
-29.518157
30
-31.501284
0
VERTEX
8
0
6
CONTINUOUS
62
252
70
192
10
1.200000
20
-29.273723
30
-32.172861
0
VERTEX
8
0
6
CONTINUOUS
62
252
70
192
10
1.200000
20
-29.149620
30
-32.876680
0
VERTEX
8
0
6
CONTINUOUS
62
252
70
192
10
1.200000
20
-29.149620
30
-33.591357
0
VERTEX
8
0
6
CONTINUOUS
62
252
70
192
10
1.200000
20
-29.273723
30
-34.295177
0
VERTEX
8
0
6
CONTINUOUS
62
252
70
192
10
1.200000
20
-29.518157
30
-34.966754
0
VERTEX
8
0
6
CONTINUOUS
62
252
70
192
10
1.200000
20
-29.875495
30
-35.585682
0
VERTEX
8
0
6
CONTINUOUS
62
252
70
192
10
1.200000
20
-30.334881
30
-36.133157
0
VERTEX
8
0
6
CONTINUOUS
62
252
70
192
10
1.200000
20
-30.882355
30
-36.592542
0
VERTEX
8
0
6
CONTINUOUS
62
252
70
192
10
1.200000
20
-31.501284
30
-36.949881
0
VERTEX
8
0
6
CONTINUOUS
62
252
70
192
10
1.200000
20
-32.172861
30
-37.194315
0
VERTEX
8
0
6
CONTINUOUS
62
252
70
192
10
1.200000
20
-32.876680
30
-37.318417
0
VERTEX
8
0
6
CONTINUOUS
62
252
70
192
10
1.200000
20
-33.591357
30
-37.318417
0
VERTEX
8
0
6
CONTINUOUS
62
252
70
192
10
1.200000
20
-34.295177
30
-37.194315
0
VERTEX
8
0
6
CONTINUOUS
62
252
70
192
10
1.200000
20
-34.966754
30
-36.949881
0
VERTEX
8
0
6
CONTINUOUS
62
252
70
192
10
1.200000
20
-35.585682
30
-36.592542
0
VERTEX
8
0
6
CONTINUOUS
62
252
70
192
10
1.200000
20
-39.750000
30
-31.971825
0
VERTEX
8
0
6
CONTINUOUS
62
252
70
192
10
1.200000
20
-39.750000
30
-32.750000
0
VERTEX
8
0
6
CONTINUOUS
62
252
70
192
10
1.200000
20
-39.643654
30
-33.965537
0
VERTEX
8
0
6
CONTINUOUS
62
252
70
192
10
1.200000
20
-39.327848
30
-35.144141
0
VERTEX
8
0
6
CONTINUOUS
62
252
70
192
10
1.200000
20
-38.812178
30
-36.250000
0
VERTEX
8
0
6
CONTINUOUS
62
252
70
192
10
1.200000
20
-38.112311
30
-37.249513
0
VERTEX
8
0
6
CONTINUOUS
62
252
70
192
10
1.200000
20
-37.249513
30
-38.112311
0
VERTEX
8
0
6
CONTINUOUS
62
252
70
192
10
1.200000
20
-36.250000
30
-38.812178
0
VERTEX
8
0
6
CONTINUOUS
62
252
70
192
10
1.200000
20
-35.144141
30
-39.327848
0
VERTEX
8
0
6
CONTINUOUS
62
252
70
192
10
1.200000
20
-33.965537
30
-39.643654
0
VERTEX
8
0
6
CONTINUOUS
62
252
70
192
10
1.200000
20
-32.750000
30
-39.750000
0
VERTEX
8
0
6
CONTINUOUS
62
252
70
192
10
1.200000
20
-31.971825
30
-39.750000
0
VERTEX
8
0
6
CONTINUOUS
62
252
70
192
10
1.200000
20
-29.344931
30
-37.123106
0
VERTEX
8
0
6
CONTINUOUS
62
252
70
192
10
1.200000
20
-28.728682
30
-36.388689
0
VERTEX
8
0
6
CONTINUOUS
62
252
70
192
10
1.200000
20
-28.249326
30
-35.558419
0
VERTEX
8
0
6
CONTINUOUS
62
252
70
192
10
1.200000
20
-27.921427
30
-34.657523
0
VERTEX
8
0
6
CONTINUOUS
62
252
70
192
10
1.200000
20
-27.754948
30
-33.713375
0
VERTEX
8
0
6
CONTINUOUS
62
252
70
192
10
1.200000
20
-27.754948
30
-32.754662
0
VERTEX
8
0
6
CONTINUOUS
62
252
70
192
10
1.200000
20
-27.921427
30
-31.810514
0
VERTEX
8
0
6
CONTINUOUS
62
252
70
192
10
1.200000
20
-28.249326
30
-30.909618
0
VERTEX
8
0
6
CONTINUOUS
62
252
70
192
10
1.200000
20
-28.728682
30
-30.079348
0
VERTEX
8
0
6
CONTINUOUS
62
252
70
192
10
1.200000
20
-29.344931
30
-29.344931
0
VERTEX
8
0
6
CONTINUOUS
62
252
70
192
10
1.200000
20
-30.079348
30
-28.728682
0
VERTEX
8
0
6
CONTINUOUS
62
252
70
192
10
1.200000
20
-30.909618
30
-28.249326
0
VERTEX
8
0
6
CONTINUOUS
62
252
70
192
10
1.200000
20
-31.810514
30
-27.921427
0
VERTEX
8
0
6
CONTINUOUS
62
252
70
192
10
1.200000
20
-32.754662
30
-27.754948
0
VERTEX
8
0
6
CONTINUOUS
62
252
70
192
10
1.200000
20
-33.713375
30
-27.754948
0
VERTEX
8
0
6
CONTINUOUS
62
252
70
192
10
1.200000
20
-34.657523
30
-27.921427
0
VERTEX
8
0
6
CONTINUOUS
62
252
70
192
10
1.200000
20
-35.558419
30
-28.249326
0
VERTEX
8
0
6
CONTINUOUS
62
252
70
192
10
1.200000
20
-36.388689
30
-28.728682
0
VERTEX
8
0
6
CONTINUOUS
62
252
70
192
10
1.200000
20
-37.123106
30
-29.344931
0
VERTEX
8
0
6
CONTINUOUS
62
252
70
128
10
0.000000
20
0.000000
30
0.000000
71
2
72
42
73
1
0
VERTEX
8
0
6
CONTINUOUS
62
252
70
128
10
0.000000
20
0.000000
30
0.000000
71
1
72
42
73
43
0
VERTEX
8
0
6
CONTINUOUS
62
252
70
128
10
0.000000
20
0.000000
30
0.000000
71
1
72
43
73
36
0
VERTEX
8
0
6
CONTINUOUS
62
252
70
128
10
0.000000
20
0.000000
30
0.000000
71
36
72
43
73
44
0
VERTEX
8
0
6
CONTINUOUS
62
252
70
128
10
0.000000
20
0.000000
30
0.000000
71
36
72
44
73
35
0
VERTEX
8
0
6
CONTINUOUS
62
252
70
128
10
0.000000
20
0.000000
30
0.000000
71
35
72
44
73
45
0
VERTEX
8
0
6
CONTINUOUS
62
252
70
128
10
0.000000
20
0.000000
30
0.000000
71
35
72
45
73
34
0
VERTEX
8
0
6
CONTINUOUS
62
252
70
128
10
0.000000
20
0.000000
30
0.000000
71
34
72
45
73
33
0
VERTEX
8
0
6
CONTINUOUS
62
252
70
128
10
0.000000
20
0.000000
30
0.000000
71
33
72
45
73
46
0
VERTEX
8
0
6
CONTINUOUS
62
252
70
128
10
0.000000
20
0.000000
30
0.000000
71
33
72
46
73
32
0
VERTEX
8
0
6
CONTINUOUS
62
252
70
128
10
0.000000
20
0.000000
30
0.000000
71
32
72
46
73
47
0
VERTEX
8
0
6
CONTINUOUS
62
252
70
128
10
0.000000
20
0.000000
30
0.000000
71
32
72
47
73
31
0
VERTEX
8
0
6
CONTINUOUS
62
252
70
128
10
0.000000
20
0.000000
30
0.000000
71
31
72
47
73
48
0
VERTEX
8
0
6
CONTINUOUS
62
252
70
128
10
0.000000
20
0.000000
30
0.000000
71
31
72
48
73
30
0
VERTEX
8
0
6
CONTINUOUS
62
252
70
128
10
0.000000
20
0.000000
30
0.000000
71
30
72
48
73
49
0
VERTEX
8
0
6
CONTINUOUS
62
252
70
128
10
0.000000
20
0.000000
30
0.000000
71
30
72
49
73
29
0
VERTEX
8
0
6
CONTINUOUS
62
252
70
128
10
0.000000
20
0.000000
30
0.000000
71
29
72
49
73
28
0
VERTEX
8
0
6
CONTINUOUS
62
252
70
128
10
0.000000
20
0.000000
30
0.000000
71
28
72
49
73
50
0
VERTEX
8
0
6
CONTINUOUS
62
252
70
128
10
0.000000
20
0.000000
30
0.000000
71
28
72
50
73
27
0
VERTEX
8
0
6
CONTINUOUS
62
252
70
128
10
0.000000
20
0.000000
30
0.000000
71
27
72
50
73
51
0
VERTEX
8
0
6
CONTINUOUS
62
252
70
128
10
0.000000
20
0.000000
30
0.000000
71
27
72
51
73
26
0
VERTEX
8
0
6
CONTINUOUS
62
252
70
128
10
0.000000
20
0.000000
30
0.000000
71
26
72
51
73
52
0
VERTEX
8
0
6
CONTINUOUS
62
252
70
128
10
0.000000
20
0.000000
30
0.000000
71
26
72
52
73
25
0
VERTEX
8
0
6
CONTINUOUS
62
252
70
128
10
0.000000
20
0.000000
30
0.000000
71
25
72
52
73
53
0
VERTEX
8
0
6
CONTINUOUS
62
252
70
128
10
0.000000
20
0.000000
30
0.000000
71
25
72
53
73
24
0
VERTEX
8
0
6
CONTINUOUS
62
252
70
128
10
0.000000
20
0.000000
30
0.000000
71
24
72
53
73
54
0
VERTEX
8
0
6
CONTINUOUS
62
252
70
128
10
0.000000
20
0.000000
30
0.000000
71
24
72
54
73
23
0
VERTEX
8
0
6
CONTINUOUS
62
252
70
128
10
0.000000
20
0.000000
30
0.000000
71
23
72
54
73
55
0
VERTEX
8
0
6
CONTINUOUS
62
252
70
128
10
0.000000
20
0.000000
30
0.000000
71
23
72
55
73
22
0
VERTEX
8
0
6
CONTINUOUS
62
252
70
128
10
0.000000
20
0.000000
30
0.000000
71
22
72
55
73
56
0
VERTEX
8
0
6
CONTINUOUS
62
252
70
128
10
0.000000
20
0.000000
30
0.000000
71
22
72
56
73
21
0
VERTEX
8
0
6
CONTINUOUS
62
252
70
128
10
0.000000
20
0.000000
30
0.000000
71
21
72
56
73
57
0
VERTEX
8
0
6
CONTINUOUS
62
252
70
128
10
0.000000
20
0.000000
30
0.000000
71
21
72
57
73
20
0
VERTEX
8
0
6
CONTINUOUS
62
252
70
128
10
0.000000
20
0.000000
30
0.000000
71
20
72
57
73
58
0
VERTEX
8
0
6
CONTINUOUS
62
252
70
128
10
0.000000
20
0.000000
30
0.000000
71
20
72
58
73
19
0
VERTEX
8
0
6
CONTINUOUS
62
252
70
128
10
0.000000
20
0.000000
30
0.000000
71
19
72
58
73
18
0
VERTEX
8
0
6
CONTINUOUS
62
252
70
128
10
0.000000
20
0.000000
30
0.000000
71
18
72
58
73
59
0
VERTEX
8
0
6
CONTINUOUS
62
252
70
128
10
0.000000
20
0.000000
30
0.000000
71
18
72
59
73
17
0
VERTEX
8
0
6
CONTINUOUS
62
252
70
128
10
0.000000
20
0.000000
30
0.000000
71
17
72
59
73
60
0
VERTEX
8
0
6
CONTINUOUS
62
252
70
128
10
0.000000
20
0.000000
30
0.000000
71
17
72
60
73
16
0
VERTEX
8
0
6
CONTINUOUS
62
252
70
128
10
0.000000
20
0.000000
30
0.000000
71
16
72
60
73
61
0
VERTEX
8
0
6
CONTINUOUS
62
252
70
128
10
0.000000
20
0.000000
30
0.000000
71
16
72
61
73
15
0
VERTEX
8
0
6
CONTINUOUS
62
252
70
128
10
0.000000
20
0.000000
30
0.000000
71
15
72
61
73
62
0
VERTEX
8
0
6
CONTINUOUS
62
252
70
128
10
0.000000
20
0.000000
30
0.000000
71
15
72
62
73
14
0
VERTEX
8
0
6
CONTINUOUS
62
252
70
128
10
0.000000
20
0.000000
30
0.000000
71
14
72
62
73
63
0
VERTEX
8
0
6
CONTINUOUS
62
252
70
128
10
0.000000
20
0.000000
30
0.000000
71
14
72
63
73
13
0
VERTEX
8
0
6
CONTINUOUS
62
252
70
128
10
0.000000
20
0.000000
30
0.000000
71
13
72
63
73
64
0
VERTEX
8
0
6
CONTINUOUS
62
252
70
128
10
0.000000
20
0.000000
30
0.000000
71
13
72
64
73
12
0
VERTEX
8
0
6
CONTINUOUS
62
252
70
128
10
0.000000
20
0.000000
30
0.000000
71
12
72
64
73
65
0
VERTEX
8
0
6
CONTINUOUS
62
252
70
128
10
0.000000
20
0.000000
30
0.000000
71
12
72
65
73
11
0
VERTEX
8
0
6
CONTINUOUS
62
252
70
128
10
0.000000
20
0.000000
30
0.000000
71
11
72
65
73
66
0
VERTEX
8
0
6
CONTINUOUS
62
252
70
128
10
0.000000
20
0.000000
30
0.000000
71
11
72
66
73
10
0
VERTEX
8
0
6
CONTINUOUS
62
252
70
128
10
0.000000
20
0.000000
30
0.000000
71
10
72
66
73
67
0
VERTEX
8
0
6
CONTINUOUS
62
252
70
128
10
0.000000
20
0.000000
30
0.000000
71
10
72
67
73
9
0
VERTEX
8
0
6
CONTINUOUS
62
252
70
128
10
0.000000
20
0.000000
30
0.000000
71
9
72
67
73
8
0
VERTEX
8
0
6
CONTINUOUS
62
252
70
128
10
0.000000
20
0.000000
30
0.000000
71
8
72
67
73
37
0
VERTEX
8
0
6
CONTINUOUS
62
252
70
128
10
0.000000
20
0.000000
30
0.000000
71
8
72
37
73
7
0
VERTEX
8
0
6
CONTINUOUS
62
252
70
128
10
0.000000
20
0.000000
30
0.000000
71
7
72
37
73
38
0
VERTEX
8
0
6
CONTINUOUS
62
252
70
128
10
0.000000
20
0.000000
30
0.000000
71
7
72
38
73
6
0
VERTEX
8
0
6
CONTINUOUS
62
252
70
128
10
0.000000
20
0.000000
30
0.000000
71
6
72
38
73
39
0
VERTEX
8
0
6
CONTINUOUS
62
252
70
128
10
0.000000
20
0.000000
30
0.000000
71
6
72
39
73
5
0
VERTEX
8
0
6
CONTINUOUS
62
252
70
128
10
0.000000
20
0.000000
30
0.000000
71
5
72
39
73
40
0
VERTEX
8
0
6
CONTINUOUS
62
252
70
128
10
0.000000
20
0.000000
30
0.000000
71
5
72
40
73
4
0
VERTEX
8
0
6
CONTINUOUS
62
252
70
128
10
0.000000
20
0.000000
30
0.000000
71
4
72
40
73
3
0
VERTEX
8
0
6
CONTINUOUS
62
252
70
128
10
0.000000
20
0.000000
30
0.000000
71
3
72
40
73
41
0
VERTEX
8
0
6
CONTINUOUS
62
252
70
128
10
0.000000
20
0.000000
30
0.000000
71
3
72
41
73
2
0
VERTEX
8
0
6
CONTINUOUS
62
252
70
128
10
0.000000
20
0.000000
30
0.000000
71
2
72
41
73
42
0
SEQEND
0
POLYLINE
66
1
8
0
6
CONTINUOUS
62
252
70
64
75
0
10
0.000000
20
0.000000
30
0.000000
0
VERTEX
8
0
6
CONTINUOUS
62
252
70
192
10
37.000000
20
16.777006
30
34.478241
0
VERTEX
8
0
6
CONTINUOUS
62
252
70
192
10
37.000000
20
34.478241
30
16.777006
0
VERTEX
8
0
6
CONTINUOUS
62
252
70
192
10
4.300000
20
35.620150
30
17.250000
0
VERTEX
8
0
6
CONTINUOUS
62
252
70
192
10
4.300000
20
17.250000
30
35.620150
0
VERTEX
8
0
6
CONTINUOUS
62
252
70
128
10
0.000000
20
0.000000
30
0.000000
71
1
72
2
73
4
0
VERTEX
8
0
6
CONTINUOUS
62
252
70
128
10
0.000000
20
0.000000
30
0.000000
71
4
72
2
73
3
0
SEQEND
0
POLYLINE
66
1
8
0
6
CONTINUOUS
62
252
70
64
75
0
10
0.000000
20
0.000000
30
0.000000
0
VERTEX
8
0
6
CONTINUOUS
62
252
70
192
10
37.000000
20
34.478241
30
16.777006
0
VERTEX
8
0
6
CONTINUOUS
62
252
70
192
10
37.000000
20
34.478241
30
-16.777006
0
VERTEX
8
0
6
CONTINUOUS
62
252
70
192
10
4.300000
20
35.620150
30
-17.250000
0
VERTEX
8
0
6
CONTINUOUS
62
252
70
192
10
4.300000
20
35.620150
30
17.250000
0
VERTEX
8
0
6
CONTINUOUS
62
252
70
128
10
0.000000
20
0.000000
30
0.000000
71
1
72
2
73
4
0
VERTEX
8
0
6
CONTINUOUS
62
252
70
128
10
0.000000
20
0.000000
30
0.000000
71
4
72
2
73
3
0
SEQEND
0
POLYLINE
66
1
8
0
6
CONTINUOUS
62
252
70
64
75
0
10
0.000000
20
0.000000
30
0.000000
0
VERTEX
8
0
6
CONTINUOUS
62
252
70
192
10
12.000000
20
-24.000000
30
-28.489882
0
VERTEX
8
0
6
CONTINUOUS
62
252
70
192
10
12.000000
20
-17.138622
30
-35.351260
0
VERTEX
8
0
6
CONTINUOUS
62
252
70
192
10
37.000000
20
-16.777006
30
-34.478241
0
VERTEX
8
0
6
CONTINUOUS
62
252
70
192
10
37.000000
20
-34.478241
30
-16.777006
0
VERTEX
8
0
6
CONTINUOUS
62
252
70
192
10
4.300000
20
-35.620150
30
-17.250000
0
VERTEX
8
0
6
CONTINUOUS
62
252
70
192
10
4.300000
20
-24.000000
30
-28.870150
0
VERTEX
8
0
6
CONTINUOUS
62
252
70
128
10
0.000000
20
0.000000
30
0.000000
71
2
72
3
73
1
0
VERTEX
8
0
6
CONTINUOUS
62
252
70
128
10
0.000000
20
0.000000
30
0.000000
71
1
72
3
73
4
0
VERTEX
8
0
6
CONTINUOUS
62
252
70
128
10
0.000000
20
0.000000
30
0.000000
71
1
72
4
73
5
0
VERTEX
8
0
6
CONTINUOUS
62
252
70
128
10
0.000000
20
0.000000
30
0.000000
71
5
72
6
73
1
0
SEQEND
0
POLYLINE
66
1
8
0
6
CONTINUOUS
62
252
70
64
75
0
10
0.000000
20
0.000000
30
0.000000
0
VERTEX
8
0
6
CONTINUOUS
62
252
70
192
10
37.000000
20
-34.478241
30
-16.777006
0
VERTEX
8
0
6
CONTINUOUS
62
252
70
192
10
37.000000
20
-34.478241
30
16.777006
0
VERTEX
8
0
6
CONTINUOUS
62
252
70
192
10
4.300000
20
-35.620150
30
17.250000
0
VERTEX
8
0
6
CONTINUOUS
62
252
70
192
10
4.300000
20
-35.620150
30
-17.250000
0
VERTEX
8
0
6
CONTINUOUS
62
252
70
128
10
0.000000
20
0.000000
30
0.000000
71
1
72
2
73
4
0
VERTEX
8
0
6
CONTINUOUS
62
252
70
128
10
0.000000
20
0.000000
30
0.000000
71
4
72
2
73
3
0
SEQEND
0
POLYLINE
66
1
8
0
6
CONTINUOUS
62
252
70
64
75
0
10
0.000000
20
0.000000
30
0.000000
0
VERTEX
8
0
6
CONTINUOUS
62
252
70
192
10
37.000000
20
-34.478241
30
16.777006
0
VERTEX
8
0
6
CONTINUOUS
62
252
70
192
10
37.000000
20
-16.777006
30
34.478241
0
VERTEX
8
0
6
CONTINUOUS
62
252
70
192
10
4.300000
20
-17.250000
30
35.620150
0
VERTEX
8
0
6
CONTINUOUS
62
252
70
192
10
4.300000
20
-35.620150
30
17.250000
0
VERTEX
8
0
6
CONTINUOUS
62
252
70
128
10
0.000000
20
0.000000
30
0.000000
71
1
72
2
73
4
0
VERTEX
8
0
6
CONTINUOUS
62
252
70
128
10
0.000000
20
0.000000
30
0.000000
71
4
72
2
73
3
0
SEQEND
0
POLYLINE
66
1
8
0
6
CONTINUOUS
62
252
70
64
75
0
10
0.000000
20
0.000000
30
0.000000
0
VERTEX
8
0
6
CONTINUOUS
62
252
70
192
10
37.000000
20
-16.777006
30
34.478241
0
VERTEX
8
0
6
CONTINUOUS
62
252
70
192
10
37.000000
20
16.777006
30
34.478241
0
VERTEX
8
0
6
CONTINUOUS
62
252
70
192
10
4.300000
20
17.250000
30
35.620150
0
VERTEX
8
0
6
CONTINUOUS
62
252
70
192
10
4.300000
20
-17.250000
30
35.620150
0
VERTEX
8
0
6
CONTINUOUS
62
252
70
128
10
0.000000
20
0.000000
30
0.000000
71
1
72
2
73
4
0
VERTEX
8
0
6
CONTINUOUS
62
252
70
128
10
0.000000
20
0.000000
30
0.000000
71
4
72
2
73
3
0
SEQEND
0
POLYLINE
66
1
8
0
6
CONTINUOUS
62
252
70
64
75
0
10
0.000000
20
0.000000
30
0.000000
0
VERTEX
8
0
6
CONTINUOUS
62
252
70
192
10
37.000000
20
0.000000
30
-7.000000
0
VERTEX
8
0
6
CONTINUOUS
62
252
70
192
10
37.000000
20
-1.215537
30
-6.893654
0
VERTEX
8
0
6
CONTINUOUS
62
252
70
192
10
37.000000
20
-2.394141
30
-6.577848
0
VERTEX
8
0
6
CONTINUOUS
62
252
70
192
10
37.000000
20
-3.500000
30
-6.062178
0
VERTEX
8
0
6
CONTINUOUS
62
252
70
192
10
37.000000
20
-4.499513
30
-5.362311
0
VERTEX
8
0
6
CONTINUOUS
62
252
70
192
10
37.000000
20
-5.362311
30
-4.499513
0
VERTEX
8
0
6
CONTINUOUS
62
252
70
192
10
37.000000
20
-6.062178
30
-3.500000
0
VERTEX
8
0
6
CONTINUOUS
62
252
70
192
10
37.000000
20
-6.577848
30
-2.394141
0
VERTEX
8
0
6
CONTINUOUS
62
252
70
192
10
37.000000
20
-6.893654
30
-1.215537
0
VERTEX
8
0
6
CONTINUOUS
62
252
70
192
10
37.000000
20
-7.000000
30
0.000000
0
VERTEX
8
0
6
CONTINUOUS
62
252
70
192
10
37.000000
20
-6.893654
30
1.215537
0
VERTEX
8
0
6
CONTINUOUS
62
252
70
192
10
37.000000
20
-6.577848
30
2.394141
0
VERTEX
8
0
6
CONTINUOUS
62
252
70
192
10
37.000000
20
-6.062178
30
3.500000
0
VERTEX
8
0
6
CONTINUOUS
62
252
70
192
10
37.000000
20
-5.362311
30
4.499513
0
VERTEX
8
0
6
CONTINUOUS
62
252
70
192
10
37.000000
20
-4.499513
30
5.362311
0
VERTEX
8
0
6
CONTINUOUS
62
252
70
192
10
37.000000
20
-3.500000
30
6.062178
0
VERTEX
8
0
6
CONTINUOUS
62
252
70
192
10
37.000000
20
-2.394141
30
6.577848
0
VERTEX
8
0
6
CONTINUOUS
62
252
70
192
10
37.000000
20
-1.215537
30
6.893654
0
VERTEX
8
0
6
CONTINUOUS
62
252
70
192
10
37.000000
20
-0.000000
30
7.000000
0
VERTEX
8
0
6
CONTINUOUS
62
252
70
192
10
37.000000
20
1.215537
30
6.893654
0
VERTEX
8
0
6
CONTINUOUS
62
252
70
192
10
37.000000
20
2.394141
30
6.577848
0
VERTEX
8
0
6
CONTINUOUS
62
252
70
192
10
37.000000
20
3.500000
30
6.062178
0
VERTEX
8
0
6
CONTINUOUS
62
252
70
192
10
37.000000
20
4.499513
30
5.362311
0
VERTEX
8
0
6
CONTINUOUS
62
252
70
192
10
37.000000
20
5.362311
30
4.499513
0
VERTEX
8
0
6
CONTINUOUS
62
252
70
192
10
37.000000
20
6.062178
30
3.500000
0
VERTEX
8
0
6
CONTINUOUS
62
252
70
192
10
37.000000
20
6.577848
30
2.394141
0
VERTEX
8
0
6
CONTINUOUS
62
252
70
192
10
37.000000
20
6.893654
30
1.215537
0
VERTEX
8
0
6
CONTINUOUS
62
252
70
192
10
37.000000
20
7.000000
30
0.000000
0
VERTEX
8
0
6
CONTINUOUS
62
252
70
192
10
37.000000
20
6.893654
30
-1.215537
0
VERTEX
8
0
6
CONTINUOUS
62
252
70
192
10
37.000000
20
6.577848
30
-2.394141
0
VERTEX
8
0
6
CONTINUOUS
62
252
70
192
10
37.000000
20
6.062178
30
-3.500000
0
VERTEX
8
0
6
CONTINUOUS
62
252
70
192
10
37.000000
20
5.362311
30
-4.499513
0
VERTEX
8
0
6
CONTINUOUS
62
252
70
192
10
37.000000
20
4.499513
30
-5.362311
0
VERTEX
8
0
6
CONTINUOUS
62
252
70
192
10
37.000000
20
3.500000
30
-6.062178
0
VERTEX
8
0
6
CONTINUOUS
62
252
70
192
10
37.000000
20
2.394141
30
-6.577848
0
VERTEX
8
0
6
CONTINUOUS
62
252
70
192
10
37.000000
20
1.215537
30
-6.893654
0
VERTEX
8
0
6
CONTINUOUS
62
252
70
192
10
37.000000
20
34.478241
30
16.777006
0
VERTEX
8
0
6
CONTINUOUS
62
252
70
192
10
37.000000
20
16.777006
30
34.478241
0
VERTEX
8
0
6
CONTINUOUS
62
252
70
192
10
37.000000
20
-16.777006
30
34.478241
0
VERTEX
8
0
6
CONTINUOUS
62
252
70
192
10
37.000000
20
-34.478241
30
16.777006
0
VERTEX
8
0
6
CONTINUOUS
62
252
70
192
10
37.000000
20
-34.478241
30
-16.777006
0
VERTEX
8
0
6
CONTINUOUS
62
252
70
192
10
37.000000
20
-16.777006
30
-34.478241
0
VERTEX
8
0
6
CONTINUOUS
62
252
70
192
10
37.000000
20
16.777006
30
-34.478241
0
VERTEX
8
0
6
CONTINUOUS
62
252
70
192
10
37.000000
20
34.478241
30
-16.777006
0
VERTEX
8
0
6
CONTINUOUS
62
252
70
128
10
0.000000
20
0.000000
30
0.000000
71
2
72
42
73
1
0
VERTEX
8
0
6
CONTINUOUS
62
252
70
128
10
0.000000
20
0.000000
30
0.000000
71
1
72
42
73
43
0
VERTEX
8
0
6
CONTINUOUS
62
252
70
128
10
0.000000
20
0.000000
30
0.000000
71
1
72
43
73
36
0
VERTEX
8
0
6
CONTINUOUS
62
252
70
128
10
0.000000
20
0.000000
30
0.000000
71
36
72
43
73
35
0
VERTEX
8
0
6
CONTINUOUS
62
252
70
128
10
0.000000
20
0.000000
30
0.000000
71
35
72
43
73
34
0
VERTEX
8
0
6
CONTINUOUS
62
252
70
128
10
0.000000
20
0.000000
30
0.000000
71
34
72
43
73
33
0
VERTEX
8
0
6
CONTINUOUS
62
252
70
128
10
0.000000
20
0.000000
30
0.000000
71
33
72
43
73
32
0
VERTEX
8
0
6
CONTINUOUS
62
252
70
128
10
0.000000
20
0.000000
30
0.000000
71
32
72
43
73
44
0
VERTEX
8
0
6
CONTINUOUS
62
252
70
128
10
0.000000
20
0.000000
30
0.000000
71
32
72
44
73
31
0
VERTEX
8
0
6
CONTINUOUS
62
252
70
128
10
0.000000
20
0.000000
30
0.000000
71
31
72
44
73
30
0
VERTEX
8
0
6
CONTINUOUS
62
252
70
128
10
0.000000
20
0.000000
30
0.000000
71
30
72
44
73
29
0
VERTEX
8
0
6
CONTINUOUS
62
252
70
128
10
0.000000
20
0.000000
30
0.000000
71
29
72
44
73
28
0
VERTEX
8
0
6
CONTINUOUS
62
252
70
128
10
0.000000
20
0.000000
30
0.000000
71
28
72
44
73
37
0
VERTEX
8
0
6
CONTINUOUS
62
252
70
128
10
0.000000
20
0.000000
30
0.000000
71
28
72
37
73
27
0
VERTEX
8
0
6
CONTINUOUS
62
252
70
128
10
0.000000
20
0.000000
30
0.000000
71
27
72
37
73
26
0
VERTEX
8
0
6
CONTINUOUS
62
252
70
128
10
0.000000
20
0.000000
30
0.000000
71
26
72
37
73
25
0
VERTEX
8
0
6
CONTINUOUS
62
252
70
128
10
0.000000
20
0.000000
30
0.000000
71
25
72
37
73
24
0
VERTEX
8
0
6
CONTINUOUS
62
252
70
128
10
0.000000
20
0.000000
30
0.000000
71
24
72
37
73
38
0
VERTEX
8
0
6
CONTINUOUS
62
252
70
128
10
0.000000
20
0.000000
30
0.000000
71
24
72
38
73
23
0
VERTEX
8
0
6
CONTINUOUS
62
252
70
128
10
0.000000
20
0.000000
30
0.000000
71
23
72
38
73
22
0
VERTEX
8
0
6
CONTINUOUS
62
252
70
128
10
0.000000
20
0.000000
30
0.000000
71
22
72
38
73
21
0
VERTEX
8
0
6
CONTINUOUS
62
252
70
128
10
0.000000
20
0.000000
30
0.000000
71
21
72
38
73
20
0
VERTEX
8
0
6
CONTINUOUS
62
252
70
128
10
0.000000
20
0.000000
30
0.000000
71
20
72
38
73
19
0
VERTEX
8
0
6
CONTINUOUS
62
252
70
128
10
0.000000
20
0.000000
30
0.000000
71
19
72
38
73
39
0
VERTEX
8
0
6
CONTINUOUS
62
252
70
128
10
0.000000
20
0.000000
30
0.000000
71
19
72
39
73
18
0
VERTEX
8
0
6
CONTINUOUS
62
252
70
128
10
0.000000
20
0.000000
30
0.000000
71
18
72
39
73
17
0
VERTEX
8
0
6
CONTINUOUS
62
252
70
128
10
0.000000
20
0.000000
30
0.000000
71
17
72
39
73
16
0
VERTEX
8
0
6
CONTINUOUS
62
252
70
128
10
0.000000
20
0.000000
30
0.000000
71
16
72
39
73
15
0
VERTEX
8
0
6
CONTINUOUS
62
252
70
128
10
0.000000
20
0.000000
30
0.000000
71
15
72
39
73
14
0
VERTEX
8
0
6
CONTINUOUS
62
252
70
128
10
0.000000
20
0.000000
30
0.000000
71
14
72
39
73
40
0
VERTEX
8
0
6
CONTINUOUS
62
252
70
128
10
0.000000
20
0.000000
30
0.000000
71
14
72
40
73
13
0
VERTEX
8
0
6
CONTINUOUS
62
252
70
128
10
0.000000
20
0.000000
30
0.000000
71
13
72
40
73
12
0
VERTEX
8
0
6
CONTINUOUS
62
252
70
128
10
0.000000
20
0.000000
30
0.000000
71
12
72
40
73
11
0
VERTEX
8
0
6
CONTINUOUS
62
252
70
128
10
0.000000
20
0.000000
30
0.000000
71
11
72
40
73
10
0
VERTEX
8
0
6
CONTINUOUS
62
252
70
128
10
0.000000
20
0.000000
30
0.000000
71
10
72
40
73
41
0
VERTEX
8
0
6
CONTINUOUS
62
252
70
128
10
0.000000
20
0.000000
30
0.000000
71
10
72
41
73
9
0
VERTEX
8
0
6
CONTINUOUS
62
252
70
128
10
0.000000
20
0.000000
30
0.000000
71
9
72
41
73
8
0
VERTEX
8
0
6
CONTINUOUS
62
252
70
128
10
0.000000
20
0.000000
30
0.000000
71
8
72
41
73
7
0
VERTEX
8
0
6
CONTINUOUS
62
252
70
128
10
0.000000
20
0.000000
30
0.000000
71
7
72
41
73
6
0
VERTEX
8
0
6
CONTINUOUS
62
252
70
128
10
0.000000
20
0.000000
30
0.000000
71
6
72
41
73
42
0
VERTEX
8
0
6
CONTINUOUS
62
252
70
128
10
0.000000
20
0.000000
30
0.000000
71
6
72
42
73
5
0
VERTEX
8
0
6
CONTINUOUS
62
252
70
128
10
0.000000
20
0.000000
30
0.000000
71
5
72
42
73
4
0
VERTEX
8
0
6
CONTINUOUS
62
252
70
128
10
0.000000
20
0.000000
30
0.000000
71
4
72
42
73
3
0
VERTEX
8
0
6
CONTINUOUS
62
252
70
128
10
0.000000
20
0.000000
30
0.000000
71
3
72
42
73
2
0
SEQEND
0
POLYLINE
66
1
8
0
6
CONTINUOUS
62
252
70
64
75
0
10
0.000000
20
0.000000
30
0.000000
0
VERTEX
8
0
6
CONTINUOUS
62
252
70
192
10
1.200000
20
-39.750000
30
32.750000
0
VERTEX
8
0
6
CONTINUOUS
62
252
70
192
10
1.200000
20
-39.643654
30
33.965537
0
VERTEX
8
0
6
CONTINUOUS
62
252
70
192
10
1.200000
20
-39.327848
30
35.144141
0
VERTEX
8
0
6
CONTINUOUS
62
252
70
192
10
1.200000
20
-38.812178
30
36.250000
0
VERTEX
8
0
6
CONTINUOUS
62
252
70
192
10
1.200000
20
-38.112311
30
37.249513
0
VERTEX
8
0
6
CONTINUOUS
62
252
70
192
10
1.200000
20
-37.249513
30
38.112311
0
VERTEX
8
0
6
CONTINUOUS
62
252
70
192
10
1.200000
20
-36.250000
30
38.812178
0
VERTEX
8
0
6
CONTINUOUS
62
252
70
192
10
1.200000
20
-35.144141
30
39.327848
0
VERTEX
8
0
6
CONTINUOUS
62
252
70
192
10
1.200000
20
-33.965537
30
39.643654
0
VERTEX
8
0
6
CONTINUOUS
62
252
70
192
10
1.200000
20
-32.750000
30
39.750000
0
VERTEX
8
0
6
CONTINUOUS
62
252
70
192
10
-0.000000
20
-32.750000
30
39.750000
0
VERTEX
8
0
6
CONTINUOUS
62
252
70
192
10
-0.000000
20
-33.965537
30
39.643654
0
VERTEX
8
0
6
CONTINUOUS
62
252
70
192
10
-0.000000
20
-35.144141
30
39.327848
0
VERTEX
8
0
6
CONTINUOUS
62
252
70
192
10
-0.000000
20
-36.250000
30
38.812178
0
VERTEX
8
0
6
CONTINUOUS
62
252
70
192
10
-0.000000
20
-37.249513
30
38.112311
0
VERTEX
8
0
6
CONTINUOUS
62
252
70
192
10
-0.000000
20
-38.112311
30
37.249513
0
VERTEX
8
0
6
CONTINUOUS
62
252
70
192
10
-0.000000
20
-38.812178
30
36.250000
0
VERTEX
8
0
6
CONTINUOUS
62
252
70
192
10
-0.000000
20
-39.327848
30
35.144141
0
VERTEX
8
0
6
CONTINUOUS
62
252
70
192
10
-0.000000
20
-39.643654
30
33.965537
0
VERTEX
8
0
6
CONTINUOUS
62
252
70
192
10
-0.000000
20
-39.750000
30
32.750000
0
VERTEX
8
0
6
CONTINUOUS
62
252
70
128
10
0.000000
20
0.000000
30
0.000000
71
20
72
1
73
19
0
VERTEX
8
0
6
CONTINUOUS
62
252
70
128
10
0.000000
20
0.000000
30
0.000000
71
19
72
1
73
2
0
VERTEX
8
0
6
CONTINUOUS
62
252
70
128
10
0.000000
20
0.000000
30
0.000000
71
19
72
2
73
18
0
VERTEX
8
0
6
CONTINUOUS
62
252
70
128
10
0.000000
20
0.000000
30
0.000000
71
18
72
2
73
3
0
VERTEX
8
0
6
CONTINUOUS
62
252
70
128
10
0.000000
20
0.000000
30
0.000000
71
18
72
3
73
17
0
VERTEX
8
0
6
CONTINUOUS
62
252
70
128
10
0.000000
20
0.000000
30
0.000000
71
17
72
3
73
4
0
VERTEX
8
0
6
CONTINUOUS
62
252
70
128
10
0.000000
20
0.000000
30
0.000000
71
17
72
4
73
16
0
VERTEX
8
0
6
CONTINUOUS
62
252
70
128
10
0.000000
20
0.000000
30
0.000000
71
16
72
4
73
5
0
VERTEX
8
0
6
CONTINUOUS
62
252
70
128
10
0.000000
20
0.000000
30
0.000000
71
16
72
5
73
15
0
VERTEX
8
0
6
CONTINUOUS
62
252
70
128
10
0.000000
20
0.000000
30
0.000000
71
15
72
5
73
6
0
VERTEX
8
0
6
CONTINUOUS
62
252
70
128
10
0.000000
20
0.000000
30
0.000000
71
15
72
6
73
14
0
VERTEX
8
0
6
CONTINUOUS
62
252
70
128
10
0.000000
20
0.000000
30
0.000000
71
14
72
6
73
7
0
VERTEX
8
0
6
CONTINUOUS
62
252
70
128
10
0.000000
20
0.000000
30
0.000000
71
14
72
7
73
13
0
VERTEX
8
0
6
CONTINUOUS
62
252
70
128
10
0.000000
20
0.000000
30
0.000000
71
13
72
7
73
8
0
VERTEX
8
0
6
CONTINUOUS
62
252
70
128
10
0.000000
20
0.000000
30
0.000000
71
13
72
8
73
12
0
VERTEX
8
0
6
CONTINUOUS
62
252
70
128
10
0.000000
20
0.000000
30
0.000000
71
12
72
8
73
9
0
VERTEX
8
0
6
CONTINUOUS
62
252
70
128
10
0.000000
20
0.000000
30
0.000000
71
12
72
9
73
11
0
VERTEX
8
0
6
CONTINUOUS
62
252
70
128
10
0.000000
20
0.000000
30
0.000000
71
11
72
9
73
10
0
SEQEND
0
POLYLINE
66
1
8
0
6
CONTINUOUS
62
252
70
64
75
0
10
0.000000
20
0.000000
30
0.000000
0
VERTEX
8
0
6
CONTINUOUS
62
252
70
192
10
1.200000
20
32.750000
30
39.750000
0
VERTEX
8
0
6
CONTINUOUS
62
252
70
192
10
1.200000
20
33.965537
30
39.643654
0
VERTEX
8
0
6
CONTINUOUS
62
252
70
192
10
1.200000
20
35.144141
30
39.327848
0
VERTEX
8
0
6
CONTINUOUS
62
252
70
192
10
1.200000
20
36.250000
30
38.812178
0
VERTEX
8
0
6
CONTINUOUS
62
252
70
192
10
1.200000
20
37.249513
30
38.112311
0
VERTEX
8
0
6
CONTINUOUS
62
252
70
192
10
1.200000
20
38.112311
30
37.249513
0
VERTEX
8
0
6
CONTINUOUS
62
252
70
192
10
1.200000
20
38.812178
30
36.250000
0
VERTEX
8
0
6
CONTINUOUS
62
252
70
192
10
1.200000
20
39.327848
30
35.144141
0
VERTEX
8
0
6
CONTINUOUS
62
252
70
192
10
1.200000
20
39.643654
30
33.965537
0
VERTEX
8
0
6
CONTINUOUS
62
252
70
192
10
1.200000
20
39.750000
30
32.750000
0
VERTEX
8
0
6
CONTINUOUS
62
252
70
192
10
-0.000000
20
39.750000
30
32.750000
0
VERTEX
8
0
6
CONTINUOUS
62
252
70
192
10
-0.000000
20
39.643654
30
33.965537
0
VERTEX
8
0
6
CONTINUOUS
62
252
70
192
10
-0.000000
20
39.327848
30
35.144141
0
VERTEX
8
0
6
CONTINUOUS
62
252
70
192
10
-0.000000
20
38.812178
30
36.250000
0
VERTEX
8
0
6
CONTINUOUS
62
252
70
192
10
-0.000000
20
38.112311
30
37.249513
0
VERTEX
8
0
6
CONTINUOUS
62
252
70
192
10
-0.000000
20
37.249513
30
38.112311
0
VERTEX
8
0
6
CONTINUOUS
62
252
70
192
10
-0.000000
20
36.250000
30
38.812178
0
VERTEX
8
0
6
CONTINUOUS
62
252
70
192
10
-0.000000
20
35.144141
30
39.327848
0
VERTEX
8
0
6
CONTINUOUS
62
252
70
192
10
-0.000000
20
33.965537
30
39.643654
0
VERTEX
8
0
6
CONTINUOUS
62
252
70
192
10
-0.000000
20
32.750000
30
39.750000
0
VERTEX
8
0
6
CONTINUOUS
62
252
70
128
10
0.000000
20
0.000000
30
0.000000
71
20
72
1
73
19
0
VERTEX
8
0
6
CONTINUOUS
62
252
70
128
10
0.000000
20
0.000000
30
0.000000
71
19
72
1
73
2
0
VERTEX
8
0
6
CONTINUOUS
62
252
70
128
10
0.000000
20
0.000000
30
0.000000
71
19
72
2
73
18
0
VERTEX
8
0
6
CONTINUOUS
62
252
70
128
10
0.000000
20
0.000000
30
0.000000
71
18
72
2
73
3
0
VERTEX
8
0
6
CONTINUOUS
62
252
70
128
10
0.000000
20
0.000000
30
0.000000
71
18
72
3
73
17
0
VERTEX
8
0
6
CONTINUOUS
62
252
70
128
10
0.000000
20
0.000000
30
0.000000
71
17
72
3
73
4
0
VERTEX
8
0
6
CONTINUOUS
62
252
70
128
10
0.000000
20
0.000000
30
0.000000
71
17
72
4
73
16
0
VERTEX
8
0
6
CONTINUOUS
62
252
70
128
10
0.000000
20
0.000000
30
0.000000
71
16
72
4
73
5
0
VERTEX
8
0
6
CONTINUOUS
62
252
70
128
10
0.000000
20
0.000000
30
0.000000
71
16
72
5
73
15
0
VERTEX
8
0
6
CONTINUOUS
62
252
70
128
10
0.000000
20
0.000000
30
0.000000
71
15
72
5
73
6
0
VERTEX
8
0
6
CONTINUOUS
62
252
70
128
10
0.000000
20
0.000000
30
0.000000
71
15
72
6
73
14
0
VERTEX
8
0
6
CONTINUOUS
62
252
70
128
10
0.000000
20
0.000000
30
0.000000
71
14
72
6
73
7
0
VERTEX
8
0
6
CONTINUOUS
62
252
70
128
10
0.000000
20
0.000000
30
0.000000
71
14
72
7
73
13
0
VERTEX
8
0
6
CONTINUOUS
62
252
70
128
10
0.000000
20
0.000000
30
0.000000
71
13
72
7
73
8
0
VERTEX
8
0
6
CONTINUOUS
62
252
70
128
10
0.000000
20
0.000000
30
0.000000
71
13
72
8
73
12
0
VERTEX
8
0
6
CONTINUOUS
62
252
70
128
10
0.000000
20
0.000000
30
0.000000
71
12
72
8
73
9
0
VERTEX
8
0
6
CONTINUOUS
62
252
70
128
10
0.000000
20
0.000000
30
0.000000
71
12
72
9
73
11
0
VERTEX
8
0
6
CONTINUOUS
62
252
70
128
10
0.000000
20
0.000000
30
0.000000
71
11
72
9
73
10
0
SEQEND
0
POLYLINE
66
1
8
0
6
CONTINUOUS
62
252
70
64
75
0
10
0.000000
20
0.000000
30
0.000000
0
VERTEX
8
0
6
CONTINUOUS
62
252
70
192
10
1.200000
20
39.750000
30
-32.750000
0
VERTEX
8
0
6
CONTINUOUS
62
252
70
192
10
1.200000
20
39.643654
30
-33.965537
0
VERTEX
8
0
6
CONTINUOUS
62
252
70
192
10
1.200000
20
39.327848
30
-35.144141
0
VERTEX
8
0
6
CONTINUOUS
62
252
70
192
10
1.200000
20
38.812178
30
-36.250000
0
VERTEX
8
0
6
CONTINUOUS
62
252
70
192
10
1.200000
20
38.112311
30
-37.249513
0
VERTEX
8
0
6
CONTINUOUS
62
252
70
192
10
1.200000
20
37.249513
30
-38.112311
0
VERTEX
8
0
6
CONTINUOUS
62
252
70
192
10
1.200000
20
36.250000
30
-38.812178
0
VERTEX
8
0
6
CONTINUOUS
62
252
70
192
10
1.200000
20
35.144141
30
-39.327848
0
VERTEX
8
0
6
CONTINUOUS
62
252
70
192
10
1.200000
20
33.965537
30
-39.643654
0
VERTEX
8
0
6
CONTINUOUS
62
252
70
192
10
1.200000
20
32.750000
30
-39.750000
0
VERTEX
8
0
6
CONTINUOUS
62
252
70
192
10
0.000000
20
32.750000
30
-39.750000
0
VERTEX
8
0
6
CONTINUOUS
62
252
70
192
10
0.000000
20
33.965537
30
-39.643654
0
VERTEX
8
0
6
CONTINUOUS
62
252
70
192
10
0.000000
20
35.144141
30
-39.327848
0
VERTEX
8
0
6
CONTINUOUS
62
252
70
192
10
0.000000
20
36.250000
30
-38.812178
0
VERTEX
8
0
6
CONTINUOUS
62
252
70
192
10
0.000000
20
37.249513
30
-38.112311
0
VERTEX
8
0
6
CONTINUOUS
62
252
70
192
10
0.000000
20
38.112311
30
-37.249513
0
VERTEX
8
0
6
CONTINUOUS
62
252
70
192
10
0.000000
20
38.812178
30
-36.250000
0
VERTEX
8
0
6
CONTINUOUS
62
252
70
192
10
0.000000
20
39.327848
30
-35.144141
0
VERTEX
8
0
6
CONTINUOUS
62
252
70
192
10
0.000000
20
39.643654
30
-33.965537
0
VERTEX
8
0
6
CONTINUOUS
62
252
70
192
10
0.000000
20
39.750000
30
-32.750000
0
VERTEX
8
0
6
CONTINUOUS
62
252
70
128
10
0.000000
20
0.000000
30
0.000000
71
20
72
1
73
19
0
VERTEX
8
0
6
CONTINUOUS
62
252
70
128
10
0.000000
20
0.000000
30
0.000000
71
19
72
1
73
2
0
VERTEX
8
0
6
CONTINUOUS
62
252
70
128
10
0.000000
20
0.000000
30
0.000000
71
19
72
2
73
18
0
VERTEX
8
0
6
CONTINUOUS
62
252
70
128
10
0.000000
20
0.000000
30
0.000000
71
18
72
2
73
3
0
VERTEX
8
0
6
CONTINUOUS
62
252
70
128
10
0.000000
20
0.000000
30
0.000000
71
18
72
3
73
17
0
VERTEX
8
0
6
CONTINUOUS
62
252
70
128
10
0.000000
20
0.000000
30
0.000000
71
17
72
3
73
4
0
VERTEX
8
0
6
CONTINUOUS
62
252
70
128
10
0.000000
20
0.000000
30
0.000000
71
17
72
4
73
16
0
VERTEX
8
0
6
CONTINUOUS
62
252
70
128
10
0.000000
20
0.000000
30
0.000000
71
16
72
4
73
5
0
VERTEX
8
0
6
CONTINUOUS
62
252
70
128
10
0.000000
20
0.000000
30
0.000000
71
16
72
5
73
15
0
VERTEX
8
0
6
CONTINUOUS
62
252
70
128
10
0.000000
20
0.000000
30
0.000000
71
15
72
5
73
6
0
VERTEX
8
0
6
CONTINUOUS
62
252
70
128
10
0.000000
20
0.000000
30
0.000000
71
15
72
6
73
14
0
VERTEX
8
0
6
CONTINUOUS
62
252
70
128
10
0.000000
20
0.000000
30
0.000000
71
14
72
6
73
7
0
VERTEX
8
0
6
CONTINUOUS
62
252
70
128
10
0.000000
20
0.000000
30
0.000000
71
14
72
7
73
13
0
VERTEX
8
0
6
CONTINUOUS
62
252
70
128
10
0.000000
20
0.000000
30
0.000000
71
13
72
7
73
8
0
VERTEX
8
0
6
CONTINUOUS
62
252
70
128
10
0.000000
20
0.000000
30
0.000000
71
13
72
8
73
12
0
VERTEX
8
0
6
CONTINUOUS
62
252
70
128
10
0.000000
20
0.000000
30
0.000000
71
12
72
8
73
9
0
VERTEX
8
0
6
CONTINUOUS
62
252
70
128
10
0.000000
20
0.000000
30
0.000000
71
12
72
9
73
11
0
VERTEX
8
0
6
CONTINUOUS
62
252
70
128
10
0.000000
20
0.000000
30
0.000000
71
11
72
9
73
10
0
SEQEND
0
POLYLINE
66
1
8
0
6
CONTINUOUS
62
252
70
64
75
0
10
0.000000
20
0.000000
30
0.000000
0
VERTEX
8
0
6
CONTINUOUS
62
252
70
192
10
1.200000
20
-32.750000
30
-39.750000
0
VERTEX
8
0
6
CONTINUOUS
62
252
70
192
10
1.200000
20
-33.965537
30
-39.643654
0
VERTEX
8
0
6
CONTINUOUS
62
252
70
192
10
1.200000
20
-35.144141
30
-39.327848
0
VERTEX
8
0
6
CONTINUOUS
62
252
70
192
10
1.200000
20
-36.250000
30
-38.812178
0
VERTEX
8
0
6
CONTINUOUS
62
252
70
192
10
1.200000
20
-37.249513
30
-38.112311
0
VERTEX
8
0
6
CONTINUOUS
62
252
70
192
10
1.200000
20
-38.112311
30
-37.249513
0
VERTEX
8
0
6
CONTINUOUS
62
252
70
192
10
1.200000
20
-38.812178
30
-36.250000
0
VERTEX
8
0
6
CONTINUOUS
62
252
70
192
10
1.200000
20
-39.327848
30
-35.144141
0
VERTEX
8
0
6
CONTINUOUS
62
252
70
192
10
1.200000
20
-39.643654
30
-33.965537
0
VERTEX
8
0
6
CONTINUOUS
62
252
70
192
10
1.200000
20
-39.750000
30
-32.750000
0
VERTEX
8
0
6
CONTINUOUS
62
252
70
192
10
0.000000
20
-39.750000
30
-32.750000
0
VERTEX
8
0
6
CONTINUOUS
62
252
70
192
10
0.000000
20
-39.643654
30
-33.965537
0
VERTEX
8
0
6
CONTINUOUS
62
252
70
192
10
0.000000
20
-39.327848
30
-35.144141
0
VERTEX
8
0
6
CONTINUOUS
62
252
70
192
10
0.000000
20
-38.812178
30
-36.250000
0
VERTEX
8
0
6
CONTINUOUS
62
252
70
192
10
0.000000
20
-38.112311
30
-37.249513
0
VERTEX
8
0
6
CONTINUOUS
62
252
70
192
10
0.000000
20
-37.249513
30
-38.112311
0
VERTEX
8
0
6
CONTINUOUS
62
252
70
192
10
0.000000
20
-36.250000
30
-38.812178
0
VERTEX
8
0
6
CONTINUOUS
62
252
70
192
10
0.000000
20
-35.144141
30
-39.327848
0
VERTEX
8
0
6
CONTINUOUS
62
252
70
192
10
0.000000
20
-33.965537
30
-39.643654
0
VERTEX
8
0
6
CONTINUOUS
62
252
70
192
10
0.000000
20
-32.750000
30
-39.750000
0
VERTEX
8
0
6
CONTINUOUS
62
252
70
128
10
0.000000
20
0.000000
30
0.000000
71
20
72
1
73
19
0
VERTEX
8
0
6
CONTINUOUS
62
252
70
128
10
0.000000
20
0.000000
30
0.000000
71
19
72
1
73
2
0
VERTEX
8
0
6
CONTINUOUS
62
252
70
128
10
0.000000
20
0.000000
30
0.000000
71
19
72
2
73
18
0
VERTEX
8
0
6
CONTINUOUS
62
252
70
128
10
0.000000
20
0.000000
30
0.000000
71
18
72
2
73
3
0
VERTEX
8
0
6
CONTINUOUS
62
252
70
128
10
0.000000
20
0.000000
30
0.000000
71
18
72
3
73
17
0
VERTEX
8
0
6
CONTINUOUS
62
252
70
128
10
0.000000
20
0.000000
30
0.000000
71
17
72
3
73
4
0
VERTEX
8
0
6
CONTINUOUS
62
252
70
128
10
0.000000
20
0.000000
30
0.000000
71
17
72
4
73
16
0
VERTEX
8
0
6
CONTINUOUS
62
252
70
128
10
0.000000
20
0.000000
30
0.000000
71
16
72
4
73
5
0
VERTEX
8
0
6
CONTINUOUS
62
252
70
128
10
0.000000
20
0.000000
30
0.000000
71
16
72
5
73
15
0
VERTEX
8
0
6
CONTINUOUS
62
252
70
128
10
0.000000
20
0.000000
30
0.000000
71
15
72
5
73
6
0
VERTEX
8
0
6
CONTINUOUS
62
252
70
128
10
0.000000
20
0.000000
30
0.000000
71
15
72
6
73
14
0
VERTEX
8
0
6
CONTINUOUS
62
252
70
128
10
0.000000
20
0.000000
30
0.000000
71
14
72
6
73
7
0
VERTEX
8
0
6
CONTINUOUS
62
252
70
128
10
0.000000
20
0.000000
30
0.000000
71
14
72
7
73
13
0
VERTEX
8
0
6
CONTINUOUS
62
252
70
128
10
0.000000
20
0.000000
30
0.000000
71
13
72
7
73
8
0
VERTEX
8
0
6
CONTINUOUS
62
252
70
128
10
0.000000
20
0.000000
30
0.000000
71
13
72
8
73
12
0
VERTEX
8
0
6
CONTINUOUS
62
252
70
128
10
0.000000
20
0.000000
30
0.000000
71
12
72
8
73
9
0
VERTEX
8
0
6
CONTINUOUS
62
252
70
128
10
0.000000
20
0.000000
30
0.000000
71
12
72
9
73
11
0
VERTEX
8
0
6
CONTINUOUS
62
252
70
128
10
0.000000
20
0.000000
30
0.000000
71
11
72
9
73
10
0
SEQEND
0
POLYLINE
66
1
8
0
6
CONTINUOUS
62
252
70
64
75
0
10
0.000000
20
0.000000
30
0.000000
0
VERTEX
8
0
6
CONTINUOUS
62
252
70
192
10
1.200000
20
-39.750000
30
31.971825
0
VERTEX
8
0
6
CONTINUOUS
62
252
70
192
10
1.200000
20
-39.750000
30
32.750000
0
VERTEX
8
0
6
CONTINUOUS
62
252
70
192
10
-0.000000
20
-39.750000
30
32.750000
0
VERTEX
8
0
6
CONTINUOUS
62
252
70
192
10
0.000000
20
-39.750000
30
-32.750000
0
VERTEX
8
0
6
CONTINUOUS
62
252
70
192
10
1.200000
20
-39.750000
30
-32.750000
0
VERTEX
8
0
6
CONTINUOUS
62
252
70
192
10
1.200000
20
-39.750000
30
-31.971825
0
VERTEX
8
0
6
CONTINUOUS
62
252
70
192
10
4.300000
20
-39.750000
30
-31.971825
0
VERTEX
8
0
6
CONTINUOUS
62
252
70
192
10
4.300000
20
-39.750000
30
31.971825
0
VERTEX
8
0
6
CONTINUOUS
62
252
70
128
10
0.000000
20
0.000000
30
0.000000
71
2
72
3
73
1
0
VERTEX
8
0
6
CONTINUOUS
62
252
70
128
10
0.000000
20
0.000000
30
0.000000
71
1
72
3
73
6
0
VERTEX
8
0
6
CONTINUOUS
62
252
70
128
10
0.000000
20
0.000000
30
0.000000
71
1
72
6
73
7
0
VERTEX
8
0
6
CONTINUOUS
62
252
70
128
10
0.000000
20
0.000000
30
0.000000
71
3
72
4
73
6
0
VERTEX
8
0
6
CONTINUOUS
62
252
70
128
10
0.000000
20
0.000000
30
0.000000
71
6
72
4
73
5
0
VERTEX
8
0
6
CONTINUOUS
62
252
70
128
10
0.000000
20
0.000000
30
0.000000
71
7
72
8
73
1
0
SEQEND
0
POLYLINE
66
1
8
0
6
CONTINUOUS
62
252
70
64
75
0
10
0.000000
20
0.000000
30
0.000000
0
VERTEX
8
0
6
CONTINUOUS
62
252
70
192
10
0.000000
20
-14.019986
30
-33.700000
0
VERTEX
8
0
6
CONTINUOUS
62
252
70
192
10
0.000000
20
14.019986
30
-33.700000
0
VERTEX
8
0
6
CONTINUOUS
62
252
70
192
10
0.000000
20
19.100015
30
-31.103688
0
VERTEX
8
0
6
CONTINUOUS
62
252
70
192
10
0.000000
20
23.713422
30
-27.747498
0
VERTEX
8
0
6
CONTINUOUS
62
252
70
192
10
0.000000
20
27.747498
30
-23.713422
0
VERTEX
8
0
6
CONTINUOUS
62
252
70
192
10
0.000000
20
31.103688
30
-19.100015
0
VERTEX
8
0
6
CONTINUOUS
62
252
70
192
10
0.000000
20
33.700000
30
-14.019986
0
VERTEX
8
0
6
CONTINUOUS
62
252
70
192
10
-0.000000
20
33.700000
30
14.019986
0
VERTEX
8
0
6
CONTINUOUS
62
252
70
192
10
-0.000000
20
31.103688
30
19.100015
0
VERTEX
8
0
6
CONTINUOUS
62
252
70
192
10
-0.000000
20
27.747498
30
23.713422
0
VERTEX
8
0
6
CONTINUOUS
62
252
70
192
10
-0.000000
20
23.713422
30
27.747498
0
VERTEX
8
0
6
CONTINUOUS
62
252
70
192
10
-0.000000
20
19.100015
30
31.103688
0
VERTEX
8
0
6
CONTINUOUS
62
252
70
192
10
-0.000000
20
14.019986
30
33.700000
0
VERTEX
8
0
6
CONTINUOUS
62
252
70
192
10
-0.000000
20
-14.019986
30
33.700000
0
VERTEX
8
0
6
CONTINUOUS
62
252
70
192
10
-0.000000
20
-19.100015
30
31.103688
0
VERTEX
8
0
6
CONTINUOUS
62
252
70
192
10
-0.000000
20
-23.713422
30
27.747498
0
VERTEX
8
0
6
CONTINUOUS
62
252
70
192
10
-0.000000
20
-27.747498
30
23.713422
0
VERTEX
8
0
6
CONTINUOUS
62
252
70
192
10
-0.000000
20
-31.103688
30
19.100015
0
VERTEX
8
0
6
CONTINUOUS
62
252
70
192
10
-0.000000
20
-33.700000
30
14.019986
0
VERTEX
8
0
6
CONTINUOUS
62
252
70
192
10
0.000000
20
-33.700000
30
-14.019986
0
VERTEX
8
0
6
CONTINUOUS
62
252
70
192
10
0.000000
20
-31.103688
30
-19.100015
0
VERTEX
8
0
6
CONTINUOUS
62
252
70
192
10
0.000000
20
-27.747498
30
-23.713422
0
VERTEX
8
0
6
CONTINUOUS
62
252
70
192
10
0.000000
20
-23.713422
30
-27.747498
0
VERTEX
8
0
6
CONTINUOUS
62
252
70
192
10
0.000000
20
-19.100015
30
-31.103688
0
VERTEX
8
0
6
CONTINUOUS
62
252
70
192
10
-0.000000
20
30.334881
30
30.334881
0
VERTEX
8
0
6
CONTINUOUS
62
252
70
192
10
-0.000000
20
30.882355
30
29.875495
0
VERTEX
8
0
6
CONTINUOUS
62
252
70
192
10
-0.000000
20
31.501284
30
29.518157
0
VERTEX
8
0
6
CONTINUOUS
62
252
70
192
10
-0.000000
20
32.172861
30
29.273723
0
VERTEX
8
0
6
CONTINUOUS
62
252
70
192
10
-0.000000
20
32.876680
30
29.149620
0
VERTEX
8
0
6
CONTINUOUS
62
252
70
192
10
-0.000000
20
33.591357
30
29.149620
0
VERTEX
8
0
6
CONTINUOUS
62
252
70
192
10
-0.000000
20
34.295177
30
29.273723
0
VERTEX
8
0
6
CONTINUOUS
62
252
70
192
10
-0.000000
20
34.966754
30
29.518157
0
VERTEX
8
0
6
CONTINUOUS
62
252
70
192
10
-0.000000
20
35.585682
30
29.875495
0
VERTEX
8
0
6
CONTINUOUS
62
252
70
192
10
-0.000000
20
36.133157
30
30.334881
0
VERTEX
8
0
6
CONTINUOUS
62
252
70
192
10
-0.000000
20
36.592542
30
30.882355
0
VERTEX
8
0
6
CONTINUOUS
62
252
70
192
10
-0.000000
20
36.949881
30
31.501284
0
VERTEX
8
0
6
CONTINUOUS
62
252
70
192
10
-0.000000
20
37.194315
30
32.172861
0
VERTEX
8
0
6
CONTINUOUS
62
252
70
192
10
-0.000000
20
37.318417
30
32.876680
0
VERTEX
8
0
6
CONTINUOUS
62
252
70
192
10
-0.000000
20
37.318417
30
33.591357
0
VERTEX
8
0
6
CONTINUOUS
62
252
70
192
10
-0.000000
20
37.194315
30
34.295177
0
VERTEX
8
0
6
CONTINUOUS
62
252
70
192
10
-0.000000
20
36.949881
30
34.966754
0
VERTEX
8
0
6
CONTINUOUS
62
252
70
192
10
-0.000000
20
36.592542
30
35.585682
0
VERTEX
8
0
6
CONTINUOUS
62
252
70
192
10
-0.000000
20
36.133157
30
36.133157
0
VERTEX
8
0
6
CONTINUOUS
62
252
70
192
10
-0.000000
20
35.585682
30
36.592542
0
VERTEX
8
0
6
CONTINUOUS
62
252
70
192
10
-0.000000
20
34.966754
30
36.949881
0
VERTEX
8
0
6
CONTINUOUS
62
252
70
192
10
-0.000000
20
34.295177
30
37.194315
0
VERTEX
8
0
6
CONTINUOUS
62
252
70
192
10
-0.000000
20
33.591357
30
37.318417
0
VERTEX
8
0
6
CONTINUOUS
62
252
70
192
10
-0.000000
20
32.876680
30
37.318417
0
VERTEX
8
0
6
CONTINUOUS
62
252
70
192
10
-0.000000
20
32.172861
30
37.194315
0
VERTEX
8
0
6
CONTINUOUS
62
252
70
192
10
-0.000000
20
31.501284
30
36.949881
0
VERTEX
8
0
6
CONTINUOUS
62
252
70
192
10
-0.000000
20
30.882355
30
36.592542
0
VERTEX
8
0
6
CONTINUOUS
62
252
70
192
10
-0.000000
20
30.334881
30
36.133157
0
VERTEX
8
0
6
CONTINUOUS
62
252
70
192
10
-0.000000
20
29.875495
30
35.585682
0
VERTEX
8
0
6
CONTINUOUS
62
252
70
192
10
-0.000000
20
29.518157
30
34.966754
0
VERTEX
8
0
6
CONTINUOUS
62
252
70
192
10
-0.000000
20
29.273723
30
34.295177
0
VERTEX
8
0
6
CONTINUOUS
62
252
70
192
10
-0.000000
20
29.149620
30
33.591357
0
VERTEX
8
0
6
CONTINUOUS
62
252
70
192
10
-0.000000
20
29.149620
30
32.876680
0
VERTEX
8
0
6
CONTINUOUS
62
252
70
192
10
-0.000000
20
29.273723
30
32.172861
0
VERTEX
8
0
6
CONTINUOUS
62
252
70
192
10
-0.000000
20
29.518157
30
31.501284
0
VERTEX
8
0
6
CONTINUOUS
62
252
70
192
10
-0.000000
20
29.875495
30
30.882355
0
VERTEX
8
0
6
CONTINUOUS
62
252
70
192
10
0.000000
20
30.334881
30
-30.334881
0
VERTEX
8
0
6
CONTINUOUS
62
252
70
192
10
0.000000
20
29.875495
30
-30.882355
0
VERTEX
8
0
6
CONTINUOUS
62
252
70
192
10
0.000000
20
29.518157
30
-31.501284
0
VERTEX
8
0
6
CONTINUOUS
62
252
70
192
10
0.000000
20
29.273723
30
-32.172861
0
VERTEX
8
0
6
CONTINUOUS
62
252
70
192
10
0.000000
20
29.149620
30
-32.876680
0
VERTEX
8
0
6
CONTINUOUS
62
252
70
192
10
0.000000
20
29.149620
30
-33.591357
0
VERTEX
8
0
6
CONTINUOUS
62
252
70
192
10
0.000000
20
29.273723
30
-34.295177
0
VERTEX
8
0
6
CONTINUOUS
62
252
70
192
10
0.000000
20
29.518157
30
-34.966754
0
VERTEX
8
0
6
CONTINUOUS
62
252
70
192
10
0.000000
20
29.875495
30
-35.585682
0
VERTEX
8
0
6
CONTINUOUS
62
252
70
192
10
0.000000
20
30.334881
30
-36.133157
0
VERTEX
8
0
6
CONTINUOUS
62
252
70
192
10
0.000000
20
30.882355
30
-36.592542
0
VERTEX
8
0
6
CONTINUOUS
62
252
70
192
10
0.000000
20
31.501284
30
-36.949881
0
VERTEX
8
0
6
CONTINUOUS
62
252
70
192
10
0.000000
20
32.172861
30
-37.194315
0
VERTEX
8
0
6
CONTINUOUS
62
252
70
192
10
0.000000
20
32.876680
30
-37.318417
0
VERTEX
8
0
6
CONTINUOUS
62
252
70
192
10
0.000000
20
33.591357
30
-37.318417
0
VERTEX
8
0
6
CONTINUOUS
62
252
70
192
10
0.000000
20
34.295177
30
-37.194315
0
VERTEX
8
0
6
CONTINUOUS
62
252
70
192
10
0.000000
20
34.966754
30
-36.949881
0
VERTEX
8
0
6
CONTINUOUS
62
252
70
192
10
0.000000
20
35.585682
30
-36.592542
0
VERTEX
8
0
6
CONTINUOUS
62
252
70
192
10
0.000000
20
36.133157
30
-36.133157
0
VERTEX
8
0
6
CONTINUOUS
62
252
70
192
10
0.000000
20
36.592542
30
-35.585682
0
VERTEX
8
0
6
CONTINUOUS
62
252
70
192
10
0.000000
20
36.949881
30
-34.966754
0
VERTEX
8
0
6
CONTINUOUS
62
252
70
192
10
0.000000
20
37.194315
30
-34.295177
0
VERTEX
8
0
6
CONTINUOUS
62
252
70
192
10
0.000000
20
37.318417
30
-33.591357
0
VERTEX
8
0
6
CONTINUOUS
62
252
70
192
10
0.000000
20
37.318417
30
-32.876680
0
VERTEX
8
0
6
CONTINUOUS
62
252
70
192
10
0.000000
20
37.194315
30
-32.172861
0
VERTEX
8
0
6
CONTINUOUS
62
252
70
192
10
0.000000
20
36.949881
30
-31.501284
0
VERTEX
8
0
6
CONTINUOUS
62
252
70
192
10
0.000000
20
36.592542
30
-30.882355
0
VERTEX
8
0
6
CONTINUOUS
62
252
70
192
10
0.000000
20
36.133157
30
-30.334881
0
VERTEX
8
0
6
CONTINUOUS
62
252
70
192
10
0.000000
20
35.585682
30
-29.875495
0
VERTEX
8
0
6
CONTINUOUS
62
252
70
192
10
0.000000
20
34.966754
30
-29.518157
0
VERTEX
8
0
6
CONTINUOUS
62
252
70
192
10
0.000000
20
34.295177
30
-29.273723
0
VERTEX
8
0
6
CONTINUOUS
62
252
70
192
10
0.000000
20
33.591357
30
-29.149620
0
VERTEX
8
0
6
CONTINUOUS
62
252
70
192
10
0.000000
20
32.876680
30
-29.149620
0
VERTEX
8
0
6
CONTINUOUS
62
252
70
192
10
0.000000
20
32.172861
30
-29.273723
0
VERTEX
8
0
6
CONTINUOUS
62
252
70
192
10
0.000000
20
31.501284
30
-29.518157
0
VERTEX
8
0
6
CONTINUOUS
62
252
70
192
10
0.000000
20
30.882355
30
-29.875495
0
VERTEX
8
0
6
CONTINUOUS
62
252
70
192
10
0.000000
20
-30.334881
30
-30.334881
0
VERTEX
8
0
6
CONTINUOUS
62
252
70
192
10
0.000000
20
-30.882355
30
-29.875495
0
VERTEX
8
0
6
CONTINUOUS
62
252
70
192
10
0.000000
20
-31.501284
30
-29.518157
0
VERTEX
8
0
6
CONTINUOUS
62
252
70
192
10
0.000000
20
-32.172861
30
-29.273723
0
VERTEX
8
0
6
CONTINUOUS
62
252
70
192
10
0.000000
20
-32.876680
30
-29.149620
0
VERTEX
8
0
6
CONTINUOUS
62
252
70
192
10
0.000000
20
-33.591357
30
-29.149620
0
VERTEX
8
0
6
CONTINUOUS
62
252
70
192
10
0.000000
20
-34.295177
30
-29.273723
0
VERTEX
8
0
6
CONTINUOUS
62
252
70
192
10
0.000000
20
-34.966754
30
-29.518157
0
VERTEX
8
0
6
CONTINUOUS
62
252
70
192
10
0.000000
20
-35.585682
30
-29.875495
0
VERTEX
8
0
6
CONTINUOUS
62
252
70
192
10
0.000000
20
-36.133157
30
-30.334881
0
VERTEX
8
0
6
CONTINUOUS
62
252
70
192
10
0.000000
20
-36.592542
30
-30.882355
0
VERTEX
8
0
6
CONTINUOUS
62
252
70
192
10
0.000000
20
-36.949881
30
-31.501284
0
VERTEX
8
0
6
CONTINUOUS
62
252
70
192
10
0.000000
20
-37.194315
30
-32.172861
0
VERTEX
8
0
6
CONTINUOUS
62
252
70
192
10
0.000000
20
-37.318417
30
-32.876680
0
VERTEX
8
0
6
CONTINUOUS
62
252
70
192
10
0.000000
20
-37.318417
30
-33.591357
0
VERTEX
8
0
6
CONTINUOUS
62
252
70
192
10
0.000000
20
-37.194315
30
-34.295177
0
VERTEX
8
0
6
CONTINUOUS
62
252
70
192
10
0.000000
20
-36.949881
30
-34.966754
0
VERTEX
8
0
6
CONTINUOUS
62
252
70
192
10
0.000000
20
-36.592542
30
-35.585682
0
VERTEX
8
0
6
CONTINUOUS
62
252
70
192
10
0.000000
20
-36.133157
30
-36.133157
0
VERTEX
8
0
6
CONTINUOUS
62
252
70
192
10
0.000000
20
-35.585682
30
-36.592542
0
VERTEX
8
0
6
CONTINUOUS
62
252
70
192
10
0.000000
20
-34.966754
30
-36.949881
0
VERTEX
8
0
6
CONTINUOUS
62
252
70
192
10
0.000000
20
-34.295177
30
-37.194315
0
VERTEX
8
0
6
CONTINUOUS
62
252
70
192
10
0.000000
20
-33.591357
30
-37.318417
0
VERTEX
8
0
6
CONTINUOUS
62
252
70
192
10
0.000000
20
-32.876680
30
-37.318417
0
VERTEX
8
0
6
CONTINUOUS
62
252
70
192
10
0.000000
20
-32.172861
30
-37.194315
0
VERTEX
8
0
6
CONTINUOUS
62
252
70
192
10
0.000000
20
-31.501284
30
-36.949881
0
VERTEX
8
0
6
CONTINUOUS
62
252
70
192
10
0.000000
20
-30.882355
30
-36.592542
0
VERTEX
8
0
6
CONTINUOUS
62
252
70
192
10
0.000000
20
-30.334881
30
-36.133157
0
VERTEX
8
0
6
CONTINUOUS
62
252
70
192
10
0.000000
20
-29.875495
30
-35.585682
0
VERTEX
8
0
6
CONTINUOUS
62
252
70
192
10
0.000000
20
-29.518157
30
-34.966754
0
VERTEX
8
0
6
CONTINUOUS
62
252
70
192
10
0.000000
20
-29.273723
30
-34.295177
0
VERTEX
8
0
6
CONTINUOUS
62
252
70
192
10
0.000000
20
-29.149620
30
-33.591357
0
VERTEX
8
0
6
CONTINUOUS
62
252
70
192
10
0.000000
20
-29.149620
30
-32.876680
0
VERTEX
8
0
6
CONTINUOUS
62
252
70
192
10
0.000000
20
-29.273723
30
-32.172861
0
VERTEX
8
0
6
CONTINUOUS
62
252
70
192
10
0.000000
20
-29.518157
30
-31.501284
0
VERTEX
8
0
6
CONTINUOUS
62
252
70
192
10
0.000000
20
-29.875495
30
-30.882355
0
VERTEX
8
0
6
CONTINUOUS
62
252
70
192
10
-0.000000
20
-30.334881
30
30.334881
0
VERTEX
8
0
6
CONTINUOUS
62
252
70
192
10
-0.000000
20
-29.875495
30
30.882355
0
VERTEX
8
0
6
CONTINUOUS
62
252
70
192
10
-0.000000
20
-29.518157
30
31.501284
0
VERTEX
8
0
6
CONTINUOUS
62
252
70
192
10
-0.000000
20
-29.273723
30
32.172861
0
VERTEX
8
0
6
CONTINUOUS
62
252
70
192
10
-0.000000
20
-29.149620
30
32.876680
0
VERTEX
8
0
6
CONTINUOUS
62
252
70
192
10
-0.000000
20
-29.149620
30
33.591357
0
VERTEX
8
0
6
CONTINUOUS
62
252
70
192
10
-0.000000
20
-29.273723
30
34.295177
0
VERTEX
8
0
6
CONTINUOUS
62
252
70
192
10
-0.000000
20
-29.518157
30
34.966754
0
VERTEX
8
0
6
CONTINUOUS
62
252
70
192
10
-0.000000
20
-29.875495
30
35.585682
0
VERTEX
8
0
6
CONTINUOUS
62
252
70
192
10
-0.000000
20
-30.334881
30
36.133157
0
VERTEX
8
0
6
CONTINUOUS
62
252
70
192
10
-0.000000
20
-30.882355
30
36.592542
0
VERTEX
8
0
6
CONTINUOUS
62
252
70
192
10
-0.000000
20
-31.501284
30
36.949881
0
VERTEX
8
0
6
CONTINUOUS
62
252
70
192
10
-0.000000
20
-32.172861
30
37.194315
0
VERTEX
8
0
6
CONTINUOUS
62
252
70
192
10
-0.000000
20
-32.876680
30
37.318417
0
VERTEX
8
0
6
CONTINUOUS
62
252
70
192
10
-0.000000
20
-33.591357
30
37.318417
0
VERTEX
8
0
6
CONTINUOUS
62
252
70
192
10
-0.000000
20
-34.295177
30
37.194315
0
VERTEX
8
0
6
CONTINUOUS
62
252
70
192
10
-0.000000
20
-34.966754
30
36.949881
0
VERTEX
8
0
6
CONTINUOUS
62
252
70
192
10
-0.000000
20
-35.585682
30
36.592542
0
VERTEX
8
0
6
CONTINUOUS
62
252
70
192
10
-0.000000
20
-36.133157
30
36.133157
0
VERTEX
8
0
6
CONTINUOUS
62
252
70
192
10
-0.000000
20
-36.592542
30
35.585682
0
VERTEX
8
0
6
CONTINUOUS
62
252
70
192
10
-0.000000
20
-36.949881
30
34.966754
0
VERTEX
8
0
6
CONTINUOUS
62
252
70
192
10
-0.000000
20
-37.194315
30
34.295177
0
VERTEX
8
0
6
CONTINUOUS
62
252
70
192
10
-0.000000
20
-37.318417
30
33.591357
0
VERTEX
8
0
6
CONTINUOUS
62
252
70
192
10
-0.000000
20
-37.318417
30
32.876680
0
VERTEX
8
0
6
CONTINUOUS
62
252
70
192
10
-0.000000
20
-37.194315
30
32.172861
0
VERTEX
8
0
6
CONTINUOUS
62
252
70
192
10
-0.000000
20
-36.949881
30
31.501284
0
VERTEX
8
0
6
CONTINUOUS
62
252
70
192
10
-0.000000
20
-36.592542
30
30.882355
0
VERTEX
8
0
6
CONTINUOUS
62
252
70
192
10
-0.000000
20
-36.133157
30
30.334881
0
VERTEX
8
0
6
CONTINUOUS
62
252
70
192
10
-0.000000
20
-35.585682
30
29.875495
0
VERTEX
8
0
6
CONTINUOUS
62
252
70
192
10
-0.000000
20
-34.966754
30
29.518157
0
VERTEX
8
0
6
CONTINUOUS
62
252
70
192
10
-0.000000
20
-34.295177
30
29.273723
0
VERTEX
8
0
6
CONTINUOUS
62
252
70
192
10
-0.000000
20
-33.591357
30
29.149620
0
VERTEX
8
0
6
CONTINUOUS
62
252
70
192
10
-0.000000
20
-32.876680
30
29.149620
0
VERTEX
8
0
6
CONTINUOUS
62
252
70
192
10
-0.000000
20
-32.172861
30
29.273723
0
VERTEX
8
0
6
CONTINUOUS
62
252
70
192
10
-0.000000
20
-31.501284
30
29.518157
0
VERTEX
8
0
6
CONTINUOUS
62
252
70
192
10
-0.000000
20
-30.882355
30
29.875495
0
VERTEX
8
0
6
CONTINUOUS
62
252
70
192
10
0.000000
20
-39.750000
30
-32.750000
0
VERTEX
8
0
6
CONTINUOUS
62
252
70
192
10
-0.000000
20
-39.750000
30
32.750000
0
VERTEX
8
0
6
CONTINUOUS
62
252
70
192
10
-0.000000
20
-39.643654
30
33.965537
0
VERTEX
8
0
6
CONTINUOUS
62
252
70
192
10
-0.000000
20
-39.327848
30
35.144141
0
VERTEX
8
0
6
CONTINUOUS
62
252
70
192
10
-0.000000
20
-38.812178
30
36.250000
0
VERTEX
8
0
6
CONTINUOUS
62
252
70
192
10
-0.000000
20
-38.112311
30
37.249513
0
VERTEX
8
0
6
CONTINUOUS
62
252
70
192
10
-0.000000
20
-37.249513
30
38.112311
0
VERTEX
8
0
6
CONTINUOUS
62
252
70
192
10
-0.000000
20
-36.250000
30
38.812178
0
VERTEX
8
0
6
CONTINUOUS
62
252
70
192
10
-0.000000
20
-35.144141
30
39.327848
0
VERTEX
8
0
6
CONTINUOUS
62
252
70
192
10
-0.000000
20
-33.965537
30
39.643654
0
VERTEX
8
0
6
CONTINUOUS
62
252
70
192
10
-0.000000
20
-32.750000
30
39.750000
0
VERTEX
8
0
6
CONTINUOUS
62
252
70
192
10
-0.000000
20
32.750000
30
39.750000
0
VERTEX
8
0
6
CONTINUOUS
62
252
70
192
10
-0.000000
20
33.965537
30
39.643654
0
VERTEX
8
0
6
CONTINUOUS
62
252
70
192
10
-0.000000
20
35.144141
30
39.327848
0
VERTEX
8
0
6
CONTINUOUS
62
252
70
192
10
-0.000000
20
36.250000
30
38.812178
0
VERTEX
8
0
6
CONTINUOUS
62
252
70
192
10
-0.000000
20
37.249513
30
38.112311
0
VERTEX
8
0
6
CONTINUOUS
62
252
70
192
10
-0.000000
20
38.112311
30
37.249513
0
VERTEX
8
0
6
CONTINUOUS
62
252
70
192
10
-0.000000
20
38.812178
30
36.250000
0
VERTEX
8
0
6
CONTINUOUS
62
252
70
192
10
-0.000000
20
39.327848
30
35.144141
0
VERTEX
8
0
6
CONTINUOUS
62
252
70
192
10
-0.000000
20
39.643654
30
33.965537
0
VERTEX
8
0
6
CONTINUOUS
62
252
70
192
10
-0.000000
20
39.750000
30
32.750000
0
VERTEX
8
0
6
CONTINUOUS
62
252
70
192
10
0.000000
20
39.750000
30
-32.750000
0
VERTEX
8
0
6
CONTINUOUS
62
252
70
192
10
0.000000
20
39.643654
30
-33.965537
0
VERTEX
8
0
6
CONTINUOUS
62
252
70
192
10
0.000000
20
39.327848
30
-35.144141
0
VERTEX
8
0
6
CONTINUOUS
62
252
70
192
10
0.000000
20
38.812178
30
-36.250000
0
VERTEX
8
0
6
CONTINUOUS
62
252
70
192
10
0.000000
20
38.112311
30
-37.249513
0
VERTEX
8
0
6
CONTINUOUS
62
252
70
192
10
0.000000
20
37.249513
30
-38.112311
0
VERTEX
8
0
6
CONTINUOUS
62
252
70
192
10
0.000000
20
36.250000
30
-38.812178
0
VERTEX
8
0
6
CONTINUOUS
62
252
70
192
10
0.000000
20
35.144141
30
-39.327848
0
VERTEX
8
0
6
CONTINUOUS
62
252
70
192
10
0.000000
20
33.965537
30
-39.643654
0
VERTEX
8
0
6
CONTINUOUS
62
252
70
192
10
0.000000
20
32.750000
30
-39.750000
0
VERTEX
8
0
6
CONTINUOUS
62
252
70
192
10
0.000000
20
-32.750000
30
-39.750000
0
VERTEX
8
0
6
CONTINUOUS
62
252
70
192
10
0.000000
20
-33.965537
30
-39.643654
0
VERTEX
8
0
6
CONTINUOUS
62
252
70
192
10
0.000000
20
-35.144141
30
-39.327848
0
VERTEX
8
0
6
CONTINUOUS
62
252
70
192
10
0.000000
20
-36.250000
30
-38.812178
0
VERTEX
8
0
6
CONTINUOUS
62
252
70
192
10
0.000000
20
-37.249513
30
-38.112311
0
VERTEX
8
0
6
CONTINUOUS
62
252
70
192
10
0.000000
20
-38.112311
30
-37.249513
0
VERTEX
8
0
6
CONTINUOUS
62
252
70
192
10
0.000000
20
-38.812178
30
-36.250000
0
VERTEX
8
0
6
CONTINUOUS
62
252
70
192
10
0.000000
20
-39.327848
30
-35.144141
0
VERTEX
8
0
6
CONTINUOUS
62
252
70
192
10
0.000000
20
-39.643654
30
-33.965537
0
VERTEX
8
0
6
CONTINUOUS
62
252
70
128
10
0.000000
20
0.000000
30
0.000000
71
2
72
199
73
1
0
VERTEX
8
0
6
CONTINUOUS
62
252
70
128
10
0.000000
20
0.000000
30
0.000000
71
1
72
199
73
200
0
VERTEX
8
0
6
CONTINUOUS
62
252
70
128
10
0.000000
20
0.000000
30
0.000000
71
1
72
200
73
124
0
VERTEX
8
0
6
CONTINUOUS
62
252
70
128
10
0.000000
20
0.000000
30
0.000000
71
124
72
200
73
123
0
VERTEX
8
0
6
CONTINUOUS
62
252
70
128
10
0.000000
20
0.000000
30
0.000000
71
123
72
200
73
122
0
VERTEX
8
0
6
CONTINUOUS
62
252
70
128
10
0.000000
20
0.000000
30
0.000000
71
122
72
200
73
121
0
VERTEX
8
0
6
CONTINUOUS
62
252
70
128
10
0.000000
20
0.000000
30
0.000000
71
121
72
200
73
120
0
VERTEX
8
0
6
CONTINUOUS
62
252
70
128
10
0.000000
20
0.000000
30
0.000000
71
120
72
200
73
119
0
VERTEX
8
0
6
CONTINUOUS
62
252
70
128
10
0.000000
20
0.000000
30
0.000000
71
119
72
200
73
201
0
VERTEX
8
0
6
CONTINUOUS
62
252
70
128
10
0.000000
20
0.000000
30
0.000000
71
119
72
201
73
118
0
VERTEX
8
0
6
CONTINUOUS
62
252
70
128
10
0.000000
20
0.000000
30
0.000000
71
118
72
201
73
202
0
VERTEX
8
0
6
CONTINUOUS
62
252
70
128
10
0.000000
20
0.000000
30
0.000000
71
118
72
202
73
117
0
VERTEX
8
0
6
CONTINUOUS
62
252
70
128
10
0.000000
20
0.000000
30
0.000000
71
117
72
202
73
203
0
VERTEX
8
0
6
CONTINUOUS
62
252
70
128
10
0.000000
20
0.000000
30
0.000000
71
117
72
203
73
116
0
VERTEX
8
0
6
CONTINUOUS
62
252
70
128
10
0.000000
20
0.000000
30
0.000000
71
116
72
203
73
204
0
VERTEX
8
0
6
CONTINUOUS
62
252
70
128
10
0.000000
20
0.000000
30
0.000000
71
116
72
204
73
115
0
VERTEX
8
0
6
CONTINUOUS
62
252
70
128
10
0.000000
20
0.000000
30
0.000000
71
115
72
204
73
205
0
VERTEX
8
0
6
CONTINUOUS
62
252
70
128
10
0.000000
20
0.000000
30
0.000000
71
115
72
205
73
114
0
VERTEX
8
0
6
CONTINUOUS
62
252
70
128
10
0.000000
20
0.000000
30
0.000000
71
114
72
205
73
206
0
VERTEX
8
0
6
CONTINUOUS
62
252
70
128
10
0.000000
20
0.000000
30
0.000000
71
114
72
206
73
113
0
VERTEX
8
0
6
CONTINUOUS
62
252
70
128
10
0.000000
20
0.000000
30
0.000000
71
113
72
206
73
207
0
VERTEX
8
0
6
CONTINUOUS
62
252
70
128
10
0.000000
20
0.000000
30
0.000000
71
113
72
207
73
112
0
VERTEX
8
0
6
CONTINUOUS
62
252
70
128
10
0.000000
20
0.000000
30
0.000000
71
112
72
207
73
208
0
VERTEX
8
0
6
CONTINUOUS
62
252
70
128
10
0.000000
20
0.000000
30
0.000000
71
112
72
208
73
111
0
VERTEX
8
0
6
CONTINUOUS
62
252
70
128
10
0.000000
20
0.000000
30
0.000000
71
111
72
208
73
169
0
VERTEX
8
0
6
CONTINUOUS
62
252
70
128
10
0.000000
20
0.000000
30
0.000000
71
111
72
169
73
110
0
VERTEX
8
0
6
CONTINUOUS
62
252
70
128
10
0.000000
20
0.000000
30
0.000000
71
110
72
169
73
109
0
VERTEX
8
0
6
CONTINUOUS
62
252
70
128
10
0.000000
20
0.000000
30
0.000000
71
109
72
169
73
108
0
VERTEX
8
0
6
CONTINUOUS
62
252
70
128
10
0.000000
20
0.000000
30
0.000000
71
108
72
169
73
107
0
VERTEX
8
0
6
CONTINUOUS
62
252
70
128
10
0.000000
20
0.000000
30
0.000000
71
107
72
169
73
106
0
VERTEX
8
0
6
CONTINUOUS
62
252
70
128
10
0.000000
20
0.000000
30
0.000000
71
106
72
169
73
20
0
VERTEX
8
0
6
CONTINUOUS
62
252
70
128
10
0.000000
20
0.000000
30
0.000000
71
106
72
20
73
105
0
VERTEX
8
0
6
CONTINUOUS
62
252
70
128
10
0.000000
20
0.000000
30
0.000000
71
105
72
20
73
21
0
VERTEX
8
0
6
CONTINUOUS
62
252
70
128
10
0.000000
20
0.000000
30
0.000000
71
105
72
21
73
104
0
VERTEX
8
0
6
CONTINUOUS
62
252
70
128
10
0.000000
20
0.000000
30
0.000000
71
104
72
21
73
103
0
VERTEX
8
0
6
CONTINUOUS
62
252
70
128
10
0.000000
20
0.000000
30
0.000000
71
103
72
21
73
102
0
VERTEX
8
0
6
CONTINUOUS
62
252
70
128
10
0.000000
20
0.000000
30
0.000000
71
102
72
21
73
101
0
VERTEX
8
0
6
CONTINUOUS
62
252
70
128
10
0.000000
20
0.000000
30
0.000000
71
101
72
21
73
22
0
VERTEX
8
0
6
CONTINUOUS
62
252
70
128
10
0.000000
20
0.000000
30
0.000000
71
101
72
22
73
100
0
VERTEX
8
0
6
CONTINUOUS
62
252
70
128
10
0.000000
20
0.000000
30
0.000000
71
100
72
22
73
99
0
VERTEX
8
0
6
CONTINUOUS
62
252
70
128
10
0.000000
20
0.000000
30
0.000000
71
99
72
22
73
98
0
VERTEX
8
0
6
CONTINUOUS
62
252
70
128
10
0.000000
20
0.000000
30
0.000000
71
98
72
22
73
97
0
VERTEX
8
0
6
CONTINUOUS
62
252
70
128
10
0.000000
20
0.000000
30
0.000000
71
97
72
22
73
23
0
VERTEX
8
0
6
CONTINUOUS
62
252
70
128
10
0.000000
20
0.000000
30
0.000000
71
97
72
23
73
132
0
VERTEX
8
0
6
CONTINUOUS
62
252
70
128
10
0.000000
20
0.000000
30
0.000000
71
132
72
23
73
131
0
VERTEX
8
0
6
CONTINUOUS
62
252
70
128
10
0.000000
20
0.000000
30
0.000000
71
131
72
23
73
130
0
VERTEX
8
0
6
CONTINUOUS
62
252
70
128
10
0.000000
20
0.000000
30
0.000000
71
130
72
23
73
129
0
VERTEX
8
0
6
CONTINUOUS
62
252
70
128
10
0.000000
20
0.000000
30
0.000000
71
129
72
23
73
24
0
VERTEX
8
0
6
CONTINUOUS
62
252
70
128
10
0.000000
20
0.000000
30
0.000000
71
129
72
24
73
128
0
VERTEX
8
0
6
CONTINUOUS
62
252
70
128
10
0.000000
20
0.000000
30
0.000000
71
128
72
24
73
127
0
VERTEX
8
0
6
CONTINUOUS
62
252
70
128
10
0.000000
20
0.000000
30
0.000000
71
127
72
24
73
126
0
VERTEX
8
0
6
CONTINUOUS
62
252
70
128
10
0.000000
20
0.000000
30
0.000000
71
126
72
24
73
125
0
VERTEX
8
0
6
CONTINUOUS
62
252
70
128
10
0.000000
20
0.000000
30
0.000000
71
125
72
24
73
1
0
VERTEX
8
0
6
CONTINUOUS
62
252
70
128
10
0.000000
20
0.000000
30
0.000000
71
125
72
1
73
124
0
VERTEX
8
0
6
CONTINUOUS
62
252
70
128
10
0.000000
20
0.000000
30
0.000000
71
3
72
69
73
2
0
VERTEX
8
0
6
CONTINUOUS
62
252
70
128
10
0.000000
20
0.000000
30
0.000000
71
2
72
69
73
70
0
VERTEX
8
0
6
CONTINUOUS
62
252
70
128
10
0.000000
20
0.000000
30
0.000000
71
2
72
70
73
199
0
VERTEX
8
0
6
CONTINUOUS
62
252
70
128
10
0.000000
20
0.000000
30
0.000000
71
199
72
70
73
71
0
VERTEX
8
0
6
CONTINUOUS
62
252
70
128
10
0.000000
20
0.000000
30
0.000000
71
199
72
71
73
72
0
VERTEX
8
0
6
CONTINUOUS
62
252
70
128
10
0.000000
20
0.000000
30
0.000000
71
4
72
65
73
3
0
VERTEX
8
0
6
CONTINUOUS
62
252
70
128
10
0.000000
20
0.000000
30
0.000000
71
3
72
65
73
66
0
VERTEX
8
0
6
CONTINUOUS
62
252
70
128
10
0.000000
20
0.000000
30
0.000000
71
3
72
66
73
67
0
VERTEX
8
0
6
CONTINUOUS
62
252
70
128
10
0.000000
20
0.000000
30
0.000000
71
5
72
61
73
4
0
VERTEX
8
0
6
CONTINUOUS
62
252
70
128
10
0.000000
20
0.000000
30
0.000000
71
4
72
61
73
62
0
VERTEX
8
0
6
CONTINUOUS
62
252
70
128
10
0.000000
20
0.000000
30
0.000000
71
4
72
62
73
63
0
VERTEX
8
0
6
CONTINUOUS
62
252
70
128
10
0.000000
20
0.000000
30
0.000000
71
6
72
93
73
5
0
VERTEX
8
0
6
CONTINUOUS
62
252
70
128
10
0.000000
20
0.000000
30
0.000000
71
5
72
93
73
94
0
VERTEX
8
0
6
CONTINUOUS
62
252
70
128
10
0.000000
20
0.000000
30
0.000000
71
5
72
94
73
95
0
VERTEX
8
0
6
CONTINUOUS
62
252
70
128
10
0.000000
20
0.000000
30
0.000000
71
7
72
89
73
6
0
VERTEX
8
0
6
CONTINUOUS
62
252
70
128
10
0.000000
20
0.000000
30
0.000000
71
6
72
89
73
90
0
VERTEX
8
0
6
CONTINUOUS
62
252
70
128
10
0.000000
20
0.000000
30
0.000000
71
6
72
90
73
91
0
VERTEX
8
0
6
CONTINUOUS
62
252
70
128
10
0.000000
20
0.000000
30
0.000000
71
8
72
189
73
7
0
VERTEX
8
0
6
CONTINUOUS
62
252
70
128
10
0.000000
20
0.000000
30
0.000000
71
7
72
189
73
190
0
VERTEX
8
0
6
CONTINUOUS
62
252
70
128
10
0.000000
20
0.000000
30
0.000000
71
7
72
190
73
88
0
VERTEX
8
0
6
CONTINUOUS
62
252
70
128
10
0.000000
20
0.000000
30
0.000000
71
88
72
190
73
87
0
VERTEX
8
0
6
CONTINUOUS
62
252
70
128
10
0.000000
20
0.000000
30
0.000000
71
87
72
190
73
86
0
VERTEX
8
0
6
CONTINUOUS
62
252
70
128
10
0.000000
20
0.000000
30
0.000000
71
86
72
190
73
85
0
VERTEX
8
0
6
CONTINUOUS
62
252
70
128
10
0.000000
20
0.000000
30
0.000000
71
85
72
190
73
84
0
VERTEX
8
0
6
CONTINUOUS
62
252
70
128
10
0.000000
20
0.000000
30
0.000000
71
84
72
190
73
83
0
VERTEX
8
0
6
CONTINUOUS
62
252
70
128
10
0.000000
20
0.000000
30
0.000000
71
83
72
190
73
191
0
VERTEX
8
0
6
CONTINUOUS
62
252
70
128
10
0.000000
20
0.000000
30
0.000000
71
83
72
191
73
82
0
VERTEX
8
0
6
CONTINUOUS
62
252
70
128
10
0.000000
20
0.000000
30
0.000000
71
82
72
191
73
192
0
VERTEX
8
0
6
CONTINUOUS
62
252
70
128
10
0.000000
20
0.000000
30
0.000000
71
82
72
192
73
81
0
VERTEX
8
0
6
CONTINUOUS
62
252
70
128
10
0.000000
20
0.000000
30
0.000000
71
81
72
192
73
193
0
VERTEX
8
0
6
CONTINUOUS
62
252
70
128
10
0.000000
20
0.000000
30
0.000000
71
81
72
193
73
80
0
VERTEX
8
0
6
CONTINUOUS
62
252
70
128
10
0.000000
20
0.000000
30
0.000000
71
80
72
193
73
194
0
VERTEX
8
0
6
CONTINUOUS
62
252
70
128
10
0.000000
20
0.000000
30
0.000000
71
80
72
194
73
79
0
VERTEX
8
0
6
CONTINUOUS
62
252
70
128
10
0.000000
20
0.000000
30
0.000000
71
79
72
194
73
195
0
VERTEX
8
0
6
CONTINUOUS
62
252
70
128
10
0.000000
20
0.000000
30
0.000000
71
79
72
195
73
78
0
VERTEX
8
0
6
CONTINUOUS
62
252
70
128
10
0.000000
20
0.000000
30
0.000000
71
78
72
195
73
196
0
VERTEX
8
0
6
CONTINUOUS
62
252
70
128
10
0.000000
20
0.000000
30
0.000000
71
78
72
196
73
77
0
VERTEX
8
0
6
CONTINUOUS
62
252
70
128
10
0.000000
20
0.000000
30
0.000000
71
77
72
196
73
197
0
VERTEX
8
0
6
CONTINUOUS
62
252
70
128
10
0.000000
20
0.000000
30
0.000000
71
77
72
197
73
76
0
VERTEX
8
0
6
CONTINUOUS
62
252
70
128
10
0.000000
20
0.000000
30
0.000000
71
76
72
197
73
198
0
VERTEX
8
0
6
CONTINUOUS
62
252
70
128
10
0.000000
20
0.000000
30
0.000000
71
76
72
198
73
75
0
VERTEX
8
0
6
CONTINUOUS
62
252
70
128
10
0.000000
20
0.000000
30
0.000000
71
75
72
198
73
199
0
VERTEX
8
0
6
CONTINUOUS
62
252
70
128
10
0.000000
20
0.000000
30
0.000000
71
75
72
199
73
74
0
VERTEX
8
0
6
CONTINUOUS
62
252
70
128
10
0.000000
20
0.000000
30
0.000000
71
74
72
199
73
73
0
VERTEX
8
0
6
CONTINUOUS
62
252
70
128
10
0.000000
20
0.000000
30
0.000000
71
73
72
199
73
72
0
VERTEX
8
0
6
CONTINUOUS
62
252
70
128
10
0.000000
20
0.000000
30
0.000000
71
9
72
33
73
8
0
VERTEX
8
0
6
CONTINUOUS
62
252
70
128
10
0.000000
20
0.000000
30
0.000000
71
8
72
33
73
34
0
VERTEX
8
0
6
CONTINUOUS
62
252
70
128
10
0.000000
20
0.000000
30
0.000000
71
8
72
34
73
189
0
VERTEX
8
0
6
CONTINUOUS
62
252
70
128
10
0.000000
20
0.000000
30
0.000000
71
189
72
34
73
35
0
VERTEX
8
0
6
CONTINUOUS
62
252
70
128
10
0.000000
20
0.000000
30
0.000000
71
189
72
35
73
36
0
VERTEX
8
0
6
CONTINUOUS
62
252
70
128
10
0.000000
20
0.000000
30
0.000000
71
10
72
29
73
9
0
VERTEX
8
0
6
CONTINUOUS
62
252
70
128
10
0.000000
20
0.000000
30
0.000000
71
9
72
29
73
30
0
VERTEX
8
0
6
CONTINUOUS
62
252
70
128
10
0.000000
20
0.000000
30
0.000000
71
9
72
30
73
31
0
VERTEX
8
0
6
CONTINUOUS
62
252
70
128
10
0.000000
20
0.000000
30
0.000000
71
11
72
25
73
10
0
VERTEX
8
0
6
CONTINUOUS
62
252
70
128
10
0.000000
20
0.000000
30
0.000000
71
10
72
25
73
26
0
VERTEX
8
0
6
CONTINUOUS
62
252
70
128
10
0.000000
20
0.000000
30
0.000000
71
10
72
26
73
27
0
VERTEX
8
0
6
CONTINUOUS
62
252
70
128
10
0.000000
20
0.000000
30
0.000000
71
12
72
57
73
11
0
VERTEX
8
0
6
CONTINUOUS
62
252
70
128
10
0.000000
20
0.000000
30
0.000000
71
11
72
57
73
58
0
VERTEX
8
0
6
CONTINUOUS
62
252
70
128
10
0.000000
20
0.000000
30
0.000000
71
11
72
58
73
59
0
VERTEX
8
0
6
CONTINUOUS
62
252
70
128
10
0.000000
20
0.000000
30
0.000000
71
13
72
53
73
12
0
VERTEX
8
0
6
CONTINUOUS
62
252
70
128
10
0.000000
20
0.000000
30
0.000000
71
12
72
53
73
54
0
VERTEX
8
0
6
CONTINUOUS
62
252
70
128
10
0.000000
20
0.000000
30
0.000000
71
12
72
54
73
55
0
VERTEX
8
0
6
CONTINUOUS
62
252
70
128
10
0.000000
20
0.000000
30
0.000000
71
14
72
180
73
13
0
VERTEX
8
0
6
CONTINUOUS
62
252
70
128
10
0.000000
20
0.000000
30
0.000000
71
13
72
180
73
52
0
VERTEX
8
0
6
CONTINUOUS
62
252
70
128
10
0.000000
20
0.000000
30
0.000000
71
13
72
52
73
53
0
VERTEX
8
0
6
CONTINUOUS
62
252
70
128
10
0.000000
20
0.000000
30
0.000000
71
15
72
141
73
14
0
VERTEX
8
0
6
CONTINUOUS
62
252
70
128
10
0.000000
20
0.000000
30
0.000000
71
14
72
141
73
142
0
VERTEX
8
0
6
CONTINUOUS
62
252
70
128
10
0.000000
20
0.000000
30
0.000000
71
14
72
142
73
179
0
VERTEX
8
0
6
CONTINUOUS
62
252
70
128
10
0.000000
20
0.000000
30
0.000000
71
179
72
142
73
143
0
VERTEX
8
0
6
CONTINUOUS
62
252
70
128
10
0.000000
20
0.000000
30
0.000000
71
179
72
143
73
144
0
VERTEX
8
0
6
CONTINUOUS
62
252
70
128
10
0.000000
20
0.000000
30
0.000000
71
16
72
137
73
15
0
VERTEX
8
0
6
CONTINUOUS
62
252
70
128
10
0.000000
20
0.000000
30
0.000000
71
15
72
137
73
138
0
VERTEX
8
0
6
CONTINUOUS
62
252
70
128
10
0.000000
20
0.000000
30
0.000000
71
15
72
138
73
139
0
VERTEX
8
0
6
CONTINUOUS
62
252
70
128
10
0.000000
20
0.000000
30
0.000000
71
17
72
133
73
16
0
VERTEX
8
0
6
CONTINUOUS
62
252
70
128
10
0.000000
20
0.000000
30
0.000000
71
16
72
133
73
134
0
VERTEX
8
0
6
CONTINUOUS
62
252
70
128
10
0.000000
20
0.000000
30
0.000000
71
16
72
134
73
135
0
VERTEX
8
0
6
CONTINUOUS
62
252
70
128
10
0.000000
20
0.000000
30
0.000000
71
18
72
165
73
17
0
VERTEX
8
0
6
CONTINUOUS
62
252
70
128
10
0.000000
20
0.000000
30
0.000000
71
17
72
165
73
166
0
VERTEX
8
0
6
CONTINUOUS
62
252
70
128
10
0.000000
20
0.000000
30
0.000000
71
17
72
166
73
167
0
VERTEX
8
0
6
CONTINUOUS
62
252
70
128
10
0.000000
20
0.000000
30
0.000000
71
19
72
161
73
18
0
VERTEX
8
0
6
CONTINUOUS
62
252
70
128
10
0.000000
20
0.000000
30
0.000000
71
18
72
161
73
162
0
VERTEX
8
0
6
CONTINUOUS
62
252
70
128
10
0.000000
20
0.000000
30
0.000000
71
18
72
162
73
163
0
VERTEX
8
0
6
CONTINUOUS
62
252
70
128
10
0.000000
20
0.000000
30
0.000000
71
20
72
169
73
19
0
VERTEX
8
0
6
CONTINUOUS
62
252
70
128
10
0.000000
20
0.000000
30
0.000000
71
19
72
169
73
170
0
VERTEX
8
0
6
CONTINUOUS
62
252
70
128
10
0.000000
20
0.000000
30
0.000000
71
19
72
170
73
160
0
VERTEX
8
0
6
CONTINUOUS
62
252
70
128
10
0.000000
20
0.000000
30
0.000000
71
160
72
170
73
159
0
VERTEX
8
0
6
CONTINUOUS
62
252
70
128
10
0.000000
20
0.000000
30
0.000000
71
159
72
170
73
158
0
VERTEX
8
0
6
CONTINUOUS
62
252
70
128
10
0.000000
20
0.000000
30
0.000000
71
158
72
170
73
157
0
VERTEX
8
0
6
CONTINUOUS
62
252
70
128
10
0.000000
20
0.000000
30
0.000000
71
157
72
170
73
156
0
VERTEX
8
0
6
CONTINUOUS
62
252
70
128
10
0.000000
20
0.000000
30
0.000000
71
156
72
170
73
155
0
VERTEX
8
0
6
CONTINUOUS
62
252
70
128
10
0.000000
20
0.000000
30
0.000000
71
155
72
170
73
171
0
VERTEX
8
0
6
CONTINUOUS
62
252
70
128
10
0.000000
20
0.000000
30
0.000000
71
155
72
171
73
154
0
VERTEX
8
0
6
CONTINUOUS
62
252
70
128
10
0.000000
20
0.000000
30
0.000000
71
154
72
171
73
172
0
VERTEX
8
0
6
CONTINUOUS
62
252
70
128
10
0.000000
20
0.000000
30
0.000000
71
154
72
172
73
153
0
VERTEX
8
0
6
CONTINUOUS
62
252
70
128
10
0.000000
20
0.000000
30
0.000000
71
153
72
172
73
173
0
VERTEX
8
0
6
CONTINUOUS
62
252
70
128
10
0.000000
20
0.000000
30
0.000000
71
153
72
173
73
152
0
VERTEX
8
0
6
CONTINUOUS
62
252
70
128
10
0.000000
20
0.000000
30
0.000000
71
152
72
173
73
174
0
VERTEX
8
0
6
CONTINUOUS
62
252
70
128
10
0.000000
20
0.000000
30
0.000000
71
152
72
174
73
151
0
VERTEX
8
0
6
CONTINUOUS
62
252
70
128
10
0.000000
20
0.000000
30
0.000000
71
151
72
174
73
175
0
VERTEX
8
0
6
CONTINUOUS
62
252
70
128
10
0.000000
20
0.000000
30
0.000000
71
151
72
175
73
150
0
VERTEX
8
0
6
CONTINUOUS
62
252
70
128
10
0.000000
20
0.000000
30
0.000000
71
150
72
175
73
176
0
VERTEX
8
0
6
CONTINUOUS
62
252
70
128
10
0.000000
20
0.000000
30
0.000000
71
150
72
176
73
149
0
VERTEX
8
0
6
CONTINUOUS
62
252
70
128
10
0.000000
20
0.000000
30
0.000000
71
149
72
176
73
177
0
VERTEX
8
0
6
CONTINUOUS
62
252
70
128
10
0.000000
20
0.000000
30
0.000000
71
149
72
177
73
148
0
VERTEX
8
0
6
CONTINUOUS
62
252
70
128
10
0.000000
20
0.000000
30
0.000000
71
148
72
177
73
178
0
VERTEX
8
0
6
CONTINUOUS
62
252
70
128
10
0.000000
20
0.000000
30
0.000000
71
148
72
178
73
147
0
VERTEX
8
0
6
CONTINUOUS
62
252
70
128
10
0.000000
20
0.000000
30
0.000000
71
147
72
178
73
179
0
VERTEX
8
0
6
CONTINUOUS
62
252
70
128
10
0.000000
20
0.000000
30
0.000000
71
147
72
179
73
146
0
VERTEX
8
0
6
CONTINUOUS
62
252
70
128
10
0.000000
20
0.000000
30
0.000000
71
146
72
179
73
145
0
VERTEX
8
0
6
CONTINUOUS
62
252
70
128
10
0.000000
20
0.000000
30
0.000000
71
145
72
179
73
144
0
VERTEX
8
0
6
CONTINUOUS
62
252
70
128
10
0.000000
20
0.000000
30
0.000000
71
27
72
28
73
10
0
VERTEX
8
0
6
CONTINUOUS
62
252
70
128
10
0.000000
20
0.000000
30
0.000000
71
10
72
28
73
29
0
VERTEX
8
0
6
CONTINUOUS
62
252
70
128
10
0.000000
20
0.000000
30
0.000000
71
31
72
32
73
9
0
VERTEX
8
0
6
CONTINUOUS
62
252
70
128
10
0.000000
20
0.000000
30
0.000000
71
9
72
32
73
33
0
VERTEX
8
0
6
CONTINUOUS
62
252
70
128
10
0.000000
20
0.000000
30
0.000000
71
36
72
37
73
189
0
VERTEX
8
0
6
CONTINUOUS
62
252
70
128
10
0.000000
20
0.000000
30
0.000000
71
189
72
37
73
38
0
VERTEX
8
0
6
CONTINUOUS
62
252
70
128
10
0.000000
20
0.000000
30
0.000000
71
189
72
38
73
39
0
VERTEX
8
0
6
CONTINUOUS
62
252
70
128
10
0.000000
20
0.000000
30
0.000000
71
189
72
39
73
188
0
VERTEX
8
0
6
CONTINUOUS
62
252
70
128
10
0.000000
20
0.000000
30
0.000000
71
188
72
39
73
40
0
VERTEX
8
0
6
CONTINUOUS
62
252
70
128
10
0.000000
20
0.000000
30
0.000000
71
188
72
40
73
187
0
VERTEX
8
0
6
CONTINUOUS
62
252
70
128
10
0.000000
20
0.000000
30
0.000000
71
187
72
40
73
41
0
VERTEX
8
0
6
CONTINUOUS
62
252
70
128
10
0.000000
20
0.000000
30
0.000000
71
187
72
41
73
186
0
VERTEX
8
0
6
CONTINUOUS
62
252
70
128
10
0.000000
20
0.000000
30
0.000000
71
186
72
41
73
42
0
VERTEX
8
0
6
CONTINUOUS
62
252
70
128
10
0.000000
20
0.000000
30
0.000000
71
186
72
42
73
185
0
VERTEX
8
0
6
CONTINUOUS
62
252
70
128
10
0.000000
20
0.000000
30
0.000000
71
185
72
42
73
43
0
VERTEX
8
0
6
CONTINUOUS
62
252
70
128
10
0.000000
20
0.000000
30
0.000000
71
185
72
43
73
184
0
VERTEX
8
0
6
CONTINUOUS
62
252
70
128
10
0.000000
20
0.000000
30
0.000000
71
184
72
43
73
44
0
VERTEX
8
0
6
CONTINUOUS
62
252
70
128
10
0.000000
20
0.000000
30
0.000000
71
184
72
44
73
183
0
VERTEX
8
0
6
CONTINUOUS
62
252
70
128
10
0.000000
20
0.000000
30
0.000000
71
183
72
44
73
45
0
VERTEX
8
0
6
CONTINUOUS
62
252
70
128
10
0.000000
20
0.000000
30
0.000000
71
183
72
45
73
182
0
VERTEX
8
0
6
CONTINUOUS
62
252
70
128
10
0.000000
20
0.000000
30
0.000000
71
182
72
45
73
46
0
VERTEX
8
0
6
CONTINUOUS
62
252
70
128
10
0.000000
20
0.000000
30
0.000000
71
182
72
46
73
181
0
VERTEX
8
0
6
CONTINUOUS
62
252
70
128
10
0.000000
20
0.000000
30
0.000000
71
181
72
46
73
47
0
VERTEX
8
0
6
CONTINUOUS
62
252
70
128
10
0.000000
20
0.000000
30
0.000000
71
181
72
47
73
180
0
VERTEX
8
0
6
CONTINUOUS
62
252
70
128
10
0.000000
20
0.000000
30
0.000000
71
180
72
47
73
48
0
VERTEX
8
0
6
CONTINUOUS
62
252
70
128
10
0.000000
20
0.000000
30
0.000000
71
180
72
48
73
49
0
VERTEX
8
0
6
CONTINUOUS
62
252
70
128
10
0.000000
20
0.000000
30
0.000000
71
49
72
50
73
180
0
VERTEX
8
0
6
CONTINUOUS
62
252
70
128
10
0.000000
20
0.000000
30
0.000000
71
180
72
50
73
51
0
VERTEX
8
0
6
CONTINUOUS
62
252
70
128
10
0.000000
20
0.000000
30
0.000000
71
180
72
51
73
52
0
VERTEX
8
0
6
CONTINUOUS
62
252
70
128
10
0.000000
20
0.000000
30
0.000000
71
55
72
56
73
12
0
VERTEX
8
0
6
CONTINUOUS
62
252
70
128
10
0.000000
20
0.000000
30
0.000000
71
12
72
56
73
57
0
VERTEX
8
0
6
CONTINUOUS
62
252
70
128
10
0.000000
20
0.000000
30
0.000000
71
59
72
60
73
11
0
VERTEX
8
0
6
CONTINUOUS
62
252
70
128
10
0.000000
20
0.000000
30
0.000000
71
11
72
60
73
25
0
VERTEX
8
0
6
CONTINUOUS
62
252
70
128
10
0.000000
20
0.000000
30
0.000000
71
63
72
64
73
4
0
VERTEX
8
0
6
CONTINUOUS
62
252
70
128
10
0.000000
20
0.000000
30
0.000000
71
4
72
64
73
65
0
VERTEX
8
0
6
CONTINUOUS
62
252
70
128
10
0.000000
20
0.000000
30
0.000000
71
67
72
68
73
3
0
VERTEX
8
0
6
CONTINUOUS
62
252
70
128
10
0.000000
20
0.000000
30
0.000000
71
3
72
68
73
69
0
VERTEX
8
0
6
CONTINUOUS
62
252
70
128
10
0.000000
20
0.000000
30
0.000000
71
88
72
89
73
7
0
VERTEX
8
0
6
CONTINUOUS
62
252
70
128
10
0.000000
20
0.000000
30
0.000000
71
91
72
92
73
6
0
VERTEX
8
0
6
CONTINUOUS
62
252
70
128
10
0.000000
20
0.000000
30
0.000000
71
6
72
92
73
93
0
VERTEX
8
0
6
CONTINUOUS
62
252
70
128
10
0.000000
20
0.000000
30
0.000000
71
95
72
96
73
5
0
VERTEX
8
0
6
CONTINUOUS
62
252
70
128
10
0.000000
20
0.000000
30
0.000000
71
5
72
96
73
61
0
VERTEX
8
0
6
CONTINUOUS
62
252
70
128
10
0.000000
20
0.000000
30
0.000000
71
135
72
136
73
16
0
VERTEX
8
0
6
CONTINUOUS
62
252
70
128
10
0.000000
20
0.000000
30
0.000000
71
16
72
136
73
137
0
VERTEX
8
0
6
CONTINUOUS
62
252
70
128
10
0.000000
20
0.000000
30
0.000000
71
139
72
140
73
15
0
VERTEX
8
0
6
CONTINUOUS
62
252
70
128
10
0.000000
20
0.000000
30
0.000000
71
15
72
140
73
141
0
VERTEX
8
0
6
CONTINUOUS
62
252
70
128
10
0.000000
20
0.000000
30
0.000000
71
160
72
161
73
19
0
VERTEX
8
0
6
CONTINUOUS
62
252
70
128
10
0.000000
20
0.000000
30
0.000000
71
163
72
164
73
18
0
VERTEX
8
0
6
CONTINUOUS
62
252
70
128
10
0.000000
20
0.000000
30
0.000000
71
18
72
164
73
165
0
VERTEX
8
0
6
CONTINUOUS
62
252
70
128
10
0.000000
20
0.000000
30
0.000000
71
167
72
168
73
17
0
VERTEX
8
0
6
CONTINUOUS
62
252
70
128
10
0.000000
20
0.000000
30
0.000000
71
17
72
168
73
133
0
VERTEX
8
0
6
CONTINUOUS
62
252
70
128
10
0.000000
20
0.000000
30
0.000000
71
179
72
180
73
14
0
SEQEND
0
ENDSEC
0
EOF
