0
SECTION
2
HEADER
9
$ACADVER
1
AC1009
9
$INSBASE
10
0.0
20
0.0
30
0.0
9
$EXTMIN
10
0.000000
20
0.000000
30
0.000000
9
$EXTMAX
10
0.000000
20
0.000000
30
0.000000
9
$UCSORG
10
0.0
20
0.0
30
0.0
9
$UCSXDIR
10
1.0
20
0.0
30
0.0
9
$UCSYDIR
10
0.0
20
1.0
30
0.0
9
$CLAYER
8
0
9
$SHADEDGE
70
3
0
ENDSEC
0
SECTION
2
TABLES
0
TABLE
2
LTYPE
70
2
0
LTYPE
2
CONTINUOUS
70
0
3
Solid line
72
65
73
0
40
0.0
0
ENDTAB
0
TABLE
2
LAYER
70
5
0
LAYER
2
0
70
0
62
7
6
CONTINUOUS
0
ENDTAB
0
TABLE
2
APPID
70
1
0
APPID
2
ACAD
70
64
0
ENDTAB
0
ENDSEC
0
SECTION
2
BLOCKS
0
ENDSEC
0
SECTION
2
ENTITIES
0
POLYLINE
66
1
8
0
6
CONTINUOUS
62
252
70
64
75
0
10
0.000000
20
0.000000
30
0.000000
0
VERTEX
8
0
6
CONTINUOUS
62
252
70
192
10
-120.171781
20
-25.800000
30
-72.373517
0
VERTEX
8
0
6
CONTINUOUS
62
252
70
192
10
-119.874150
20
-25.800000
30
-73.417111
0
VERTEX
8
0
6
CONTINUOUS
62
252
70
192
10
-119.562425
20
-25.800000
30
-74.456582
0
VERTEX
8
0
6
CONTINUOUS
62
252
70
192
10
-119.236664
20
-25.800000
30
-75.491740
0
VERTEX
8
0
6
CONTINUOUS
62
252
70
192
10
-119.236664
20
-18.800000
30
-75.491740
0
VERTEX
8
0
6
CONTINUOUS
62
252
70
192
10
-119.562425
20
-18.800000
30
-74.456582
0
VERTEX
8
0
6
CONTINUOUS
62
252
70
192
10
-119.874150
20
-18.800000
30
-73.417111
0
VERTEX
8
0
6
CONTINUOUS
62
252
70
192
10
-120.171781
20
-18.800000
30
-72.373517
0
VERTEX
8
0
6
CONTINUOUS
62
252
70
128
10
0.000000
20
0.000000
30
0.000000
71
8
72
1
73
7
0
VERTEX
8
0
6
CONTINUOUS
62
252
70
128
10
0.000000
20
0.000000
30
0.000000
71
7
72
1
73
2
0
VERTEX
8
0
6
CONTINUOUS
62
252
70
128
10
0.000000
20
0.000000
30
0.000000
71
7
72
2
73
6
0
VERTEX
8
0
6
CONTINUOUS
62
252
70
128
10
0.000000
20
0.000000
30
0.000000
71
6
72
2
73
3
0
VERTEX
8
0
6
CONTINUOUS
62
252
70
128
10
0.000000
20
0.000000
30
0.000000
71
6
72
3
73
5
0
VERTEX
8
0
6
CONTINUOUS
62
252
70
128
10
0.000000
20
0.000000
30
0.000000
71
5
72
3
73
4
0
SEQEND
0
POLYLINE
66
1
8
0
6
CONTINUOUS
62
252
70
64
75
0
10
0.000000
20
0.000000
30
0.000000
0
VERTEX
8
0
6
CONTINUOUS
62
252
70
192
10
-119.236664
20
-25.800000
30
-75.491740
0
VERTEX
8
0
6
CONTINUOUS
62
252
70
192
10
-118.234241
20
-25.800000
30
-78.409856
0
VERTEX
8
0
6
CONTINUOUS
62
252
70
192
10
-117.120313
20
-25.800000
30
-81.287254
0
VERTEX
8
0
6
CONTINUOUS
62
252
70
192
10
-115.896529
20
-25.800000
30
-84.119675
0
VERTEX
8
0
6
CONTINUOUS
62
252
70
192
10
-115.896529
20
-18.800000
30
-84.119675
0
VERTEX
8
0
6
CONTINUOUS
62
252
70
192
10
-117.120313
20
-18.800000
30
-81.287254
0
VERTEX
8
0
6
CONTINUOUS
62
252
70
192
10
-118.234241
20
-18.800000
30
-78.409856
0
VERTEX
8
0
6
CONTINUOUS
62
252
70
192
10
-119.236664
20
-18.800000
30
-75.491740
0
VERTEX
8
0
6
CONTINUOUS
62
252
70
128
10
0.000000
20
0.000000
30
0.000000
71
8
72
1
73
7
0
VERTEX
8
0
6
CONTINUOUS
62
252
70
128
10
0.000000
20
0.000000
30
0.000000
71
7
72
1
73
2
0
VERTEX
8
0
6
CONTINUOUS
62
252
70
128
10
0.000000
20
0.000000
30
0.000000
71
7
72
2
73
3
0
VERTEX
8
0
6
CONTINUOUS
62
252
70
128
10
0.000000
20
0.000000
30
0.000000
71
7
72
3
73
6
0
VERTEX
8
0
6
CONTINUOUS
62
252
70
128
10
0.000000
20
0.000000
30
0.000000
71
6
72
3
73
4
0
VERTEX
8
0
6
CONTINUOUS
62
252
70
128
10
0.000000
20
0.000000
30
0.000000
71
6
72
4
73
5
0
SEQEND
0
POLYLINE
66
1
8
0
6
CONTINUOUS
62
252
70
64
75
0
10
0.000000
20
0.000000
30
0.000000
0
VERTEX
8
0
6
CONTINUOUS
62
252
70
192
10
-115.896529
20
-25.800000
30
-84.119675
0
VERTEX
8
0
6
CONTINUOUS
62
252
70
192
10
-117.781507
20
-25.800000
30
-84.805751
0
VERTEX
8
0
6
CONTINUOUS
62
252
70
192
10
-117.781507
20
-18.800000
30
-84.805751
0
VERTEX
8
0
6
CONTINUOUS
62
252
70
192
10
-115.896529
20
-18.800000
30
-84.119675
0
VERTEX
8
0
6
CONTINUOUS
62
252
70
128
10
0.000000
20
0.000000
30
0.000000
71
2
72
3
73
1
0
VERTEX
8
0
6
CONTINUOUS
62
252
70
128
10
0.000000
20
0.000000
30
0.000000
71
1
72
3
73
4
0
SEQEND
0
POLYLINE
66
1
8
0
6
CONTINUOUS
62
252
70
64
75
0
10
0.000000
20
0.000000
30
0.000000
0
VERTEX
8
0
6
CONTINUOUS
62
252
70
192
10
-117.781507
20
-25.800000
30
-84.805751
0
VERTEX
8
0
6
CONTINUOUS
62
252
70
192
10
-117.877698
20
-25.800000
30
-84.592504
0
VERTEX
8
0
6
CONTINUOUS
62
252
70
192
10
-117.973281
20
-25.800000
30
-84.378985
0
VERTEX
8
0
6
CONTINUOUS
62
252
70
192
10
-118.068257
20
-25.800000
30
-84.165195
0
VERTEX
8
0
6
CONTINUOUS
62
252
70
192
10
-118.068257
20
-18.800000
30
-84.165195
0
VERTEX
8
0
6
CONTINUOUS
62
252
70
192
10
-117.973281
20
-18.800000
30
-84.378985
0
VERTEX
8
0
6
CONTINUOUS
62
252
70
192
10
-117.877698
20
-18.800000
30
-84.592504
0
VERTEX
8
0
6
CONTINUOUS
62
252
70
192
10
-117.781507
20
-18.800000
30
-84.805751
0
VERTEX
8
0
6
CONTINUOUS
62
252
70
128
10
0.000000
20
0.000000
30
0.000000
71
8
72
1
73
7
0
VERTEX
8
0
6
CONTINUOUS
62
252
70
128
10
0.000000
20
0.000000
30
0.000000
71
7
72
1
73
2
0
VERTEX
8
0
6
CONTINUOUS
62
252
70
128
10
0.000000
20
0.000000
30
0.000000
71
7
72
2
73
6
0
VERTEX
8
0
6
CONTINUOUS
62
252
70
128
10
0.000000
20
0.000000
30
0.000000
71
6
72
2
73
3
0
VERTEX
8
0
6
CONTINUOUS
62
252
70
128
10
0.000000
20
0.000000
30
0.000000
71
6
72
3
73
5
0
VERTEX
8
0
6
CONTINUOUS
62
252
70
128
10
0.000000
20
0.000000
30
0.000000
71
5
72
3
73
4
0
SEQEND
0
POLYLINE
66
1
8
0
6
CONTINUOUS
62
252
70
64
75
0
10
0.000000
20
0.000000
30
0.000000
0
VERTEX
8
0
6
CONTINUOUS
62
252
70
192
10
-118.068257
20
-25.800000
30
-84.165195
0
VERTEX
8
0
6
CONTINUOUS
62
252
70
192
10
-119.207857
20
-25.800000
30
-81.460612
0
VERTEX
8
0
6
CONTINUOUS
62
252
70
192
10
-120.250181
20
-25.800000
30
-78.717072
0
VERTEX
8
0
6
CONTINUOUS
62
252
70
192
10
-121.193901
20
-25.800000
30
-75.938072
0
VERTEX
8
0
6
CONTINUOUS
62
252
70
192
10
-121.193901
20
-18.800000
30
-75.938072
0
VERTEX
8
0
6
CONTINUOUS
62
252
70
192
10
-120.250181
20
-18.800000
30
-78.717072
0
VERTEX
8
0
6
CONTINUOUS
62
252
70
192
10
-119.207857
20
-18.800000
30
-81.460612
0
VERTEX
8
0
6
CONTINUOUS
62
252
70
192
10
-118.068257
20
-18.800000
30
-84.165195
0
VERTEX
8
0
6
CONTINUOUS
62
252
70
128
10
0.000000
20
0.000000
30
0.000000
71
1
72
2
73
8
0
VERTEX
8
0
6
CONTINUOUS
62
252
70
128
10
0.000000
20
0.000000
30
0.000000
71
8
72
2
73
7
0
VERTEX
8
0
6
CONTINUOUS
62
252
70
128
10
0.000000
20
0.000000
30
0.000000
71
7
72
2
73
3
0
VERTEX
8
0
6
CONTINUOUS
62
252
70
128
10
0.000000
20
0.000000
30
0.000000
71
7
72
3
73
6
0
VERTEX
8
0
6
CONTINUOUS
62
252
70
128
10
0.000000
20
0.000000
30
0.000000
71
6
72
3
73
5
0
VERTEX
8
0
6
CONTINUOUS
62
252
70
128
10
0.000000
20
0.000000
30
0.000000
71
5
72
3
73
4
0
SEQEND
0
POLYLINE
66
1
8
0
6
CONTINUOUS
62
252
70
64
75
0
10
0.000000
20
0.000000
30
0.000000
0
VERTEX
8
0
6
CONTINUOUS
62
252
70
192
10
-121.193901
20
-25.800000
30
-75.938072
0
VERTEX
8
0
6
CONTINUOUS
62
252
70
192
10
-121.424352
20
-25.800000
30
-75.205683
0
VERTEX
8
0
6
CONTINUOUS
62
252
70
192
10
-121.647951
20
-25.800000
30
-74.471173
0
VERTEX
8
0
6
CONTINUOUS
62
252
70
192
10
-121.864680
20
-25.800000
30
-73.734607
0
VERTEX
8
0
6
CONTINUOUS
62
252
70
192
10
-121.864680
20
-18.800000
30
-73.734607
0
VERTEX
8
0
6
CONTINUOUS
62
252
70
192
10
-121.647951
20
-18.800000
30
-74.471173
0
VERTEX
8
0
6
CONTINUOUS
62
252
70
192
10
-121.424352
20
-18.800000
30
-75.205683
0
VERTEX
8
0
6
CONTINUOUS
62
252
70
192
10
-121.193901
20
-18.800000
30
-75.938072
0
VERTEX
8
0
6
CONTINUOUS
62
252
70
128
10
0.000000
20
0.000000
30
0.000000
71
1
72
2
73
8
0
VERTEX
8
0
6
CONTINUOUS
62
252
70
128
10
0.000000
20
0.000000
30
0.000000
71
8
72
2
73
7
0
VERTEX
8
0
6
CONTINUOUS
62
252
70
128
10
0.000000
20
0.000000
30
0.000000
71
7
72
2
73
3
0
VERTEX
8
0
6
CONTINUOUS
62
252
70
128
10
0.000000
20
0.000000
30
0.000000
71
7
72
3
73
6
0
VERTEX
8
0
6
CONTINUOUS
62
252
70
128
10
0.000000
20
0.000000
30
0.000000
71
6
72
3
73
5
0
VERTEX
8
0
6
CONTINUOUS
62
252
70
128
10
0.000000
20
0.000000
30
0.000000
71
5
72
3
73
4
0
SEQEND
0
POLYLINE
66
1
8
0
6
CONTINUOUS
62
252
70
64
75
0
10
0.000000
20
0.000000
30
0.000000
0
VERTEX
8
0
6
CONTINUOUS
62
252
70
192
10
-121.864680
20
-25.800000
30
-73.734607
0
VERTEX
8
0
6
CONTINUOUS
62
252
70
192
10
-121.929347
20
-25.800000
30
-73.509785
0
VERTEX
8
0
6
CONTINUOUS
62
252
70
192
10
-121.993373
20
-25.800000
30
-73.284779
0
VERTEX
8
0
6
CONTINUOUS
62
252
70
192
10
-122.056759
20
-25.800000
30
-73.059593
0
VERTEX
8
0
6
CONTINUOUS
62
252
70
192
10
-122.056759
20
-18.800000
30
-73.059593
0
VERTEX
8
0
6
CONTINUOUS
62
252
70
192
10
-121.993373
20
-18.800000
30
-73.284779
0
VERTEX
8
0
6
CONTINUOUS
62
252
70
192
10
-121.929347
20
-18.800000
30
-73.509785
0
VERTEX
8
0
6
CONTINUOUS
62
252
70
192
10
-121.864680
20
-18.800000
30
-73.734607
0
VERTEX
8
0
6
CONTINUOUS
62
252
70
128
10
0.000000
20
0.000000
30
0.000000
71
8
72
1
73
7
0
VERTEX
8
0
6
CONTINUOUS
62
252
70
128
10
0.000000
20
0.000000
30
0.000000
71
7
72
1
73
2
0
VERTEX
8
0
6
CONTINUOUS
62
252
70
128
10
0.000000
20
0.000000
30
0.000000
71
7
72
2
73
6
0
VERTEX
8
0
6
CONTINUOUS
62
252
70
128
10
0.000000
20
0.000000
30
0.000000
71
6
72
2
73
3
0
VERTEX
8
0
6
CONTINUOUS
62
252
70
128
10
0.000000
20
0.000000
30
0.000000
71
6
72
3
73
5
0
VERTEX
8
0
6
CONTINUOUS
62
252
70
128
10
0.000000
20
0.000000
30
0.000000
71
5
72
3
73
4
0
SEQEND
0
POLYLINE
66
1
8
0
6
CONTINUOUS
62
252
70
64
75
0
10
0.000000
20
0.000000
30
0.000000
0
VERTEX
8
0
6
CONTINUOUS
62
252
70
192
10
-122.056759
20
-25.800000
30
-73.059593
0
VERTEX
8
0
6
CONTINUOUS
62
252
70
192
10
-120.171781
20
-25.800000
30
-72.373517
0
VERTEX
8
0
6
CONTINUOUS
62
252
70
192
10
-120.171781
20
-18.800000
30
-72.373517
0
VERTEX
8
0
6
CONTINUOUS
62
252
70
192
10
-122.056759
20
-18.800000
30
-73.059593
0
VERTEX
8
0
6
CONTINUOUS
62
252
70
128
10
0.000000
20
0.000000
30
0.000000
71
2
72
3
73
1
0
VERTEX
8
0
6
CONTINUOUS
62
252
70
128
10
0.000000
20
0.000000
30
0.000000
71
1
72
3
73
4
0
SEQEND
0
POLYLINE
66
1
8
0
6
CONTINUOUS
62
252
70
64
75
0
10
0.000000
20
0.000000
30
0.000000
0
VERTEX
8
0
6
CONTINUOUS
62
252
70
192
10
-122.056759
20
-18.800000
30
-73.059593
0
VERTEX
8
0
6
CONTINUOUS
62
252
70
192
10
-120.171781
20
-18.800000
30
-72.373517
0
VERTEX
8
0
6
CONTINUOUS
62
252
70
192
10
-119.874150
20
-18.800000
30
-73.417111
0
VERTEX
8
0
6
CONTINUOUS
62
252
70
192
10
-119.562425
20
-18.800000
30
-74.456582
0
VERTEX
8
0
6
CONTINUOUS
62
252
70
192
10
-119.236664
20
-18.800000
30
-75.491740
0
VERTEX
8
0
6
CONTINUOUS
62
252
70
192
10
-118.234241
20
-18.800000
30
-78.409856
0
VERTEX
8
0
6
CONTINUOUS
62
252
70
192
10
-117.120313
20
-18.800000
30
-81.287254
0
VERTEX
8
0
6
CONTINUOUS
62
252
70
192
10
-115.896529
20
-18.800000
30
-84.119675
0
VERTEX
8
0
6
CONTINUOUS
62
252
70
192
10
-117.781507
20
-18.800000
30
-84.805751
0
VERTEX
8
0
6
CONTINUOUS
62
252
70
192
10
-117.877698
20
-18.800000
30
-84.592504
0
VERTEX
8
0
6
CONTINUOUS
62
252
70
192
10
-117.973281
20
-18.800000
30
-84.378985
0
VERTEX
8
0
6
CONTINUOUS
62
252
70
192
10
-118.068257
20
-18.800000
30
-84.165195
0
VERTEX
8
0
6
CONTINUOUS
62
252
70
192
10
-119.207857
20
-18.800000
30
-81.460612
0
VERTEX
8
0
6
CONTINUOUS
62
252
70
192
10
-120.250181
20
-18.800000
30
-78.717072
0
VERTEX
8
0
6
CONTINUOUS
62
252
70
192
10
-121.193901
20
-18.800000
30
-75.938072
0
VERTEX
8
0
6
CONTINUOUS
62
252
70
192
10
-121.424352
20
-18.800000
30
-75.205683
0
VERTEX
8
0
6
CONTINUOUS
62
252
70
192
10
-121.647951
20
-18.800000
30
-74.471173
0
VERTEX
8
0
6
CONTINUOUS
62
252
70
192
10
-121.864680
20
-18.800000
30
-73.734607
0
VERTEX
8
0
6
CONTINUOUS
62
252
70
192
10
-121.929347
20
-18.800000
30
-73.509785
0
VERTEX
8
0
6
CONTINUOUS
62
252
70
192
10
-121.993373
20
-18.800000
30
-73.284779
0
VERTEX
8
0
6
CONTINUOUS
62
252
70
128
10
0.000000
20
0.000000
30
0.000000
71
1
72
2
73
20
0
VERTEX
8
0
6
CONTINUOUS
62
252
70
128
10
0.000000
20
0.000000
30
0.000000
71
20
72
2
73
19
0
VERTEX
8
0
6
CONTINUOUS
62
252
70
128
10
0.000000
20
0.000000
30
0.000000
71
19
72
2
73
18
0
VERTEX
8
0
6
CONTINUOUS
62
252
70
128
10
0.000000
20
0.000000
30
0.000000
71
18
72
2
73
17
0
VERTEX
8
0
6
CONTINUOUS
62
252
70
128
10
0.000000
20
0.000000
30
0.000000
71
17
72
2
73
3
0
VERTEX
8
0
6
CONTINUOUS
62
252
70
128
10
0.000000
20
0.000000
30
0.000000
71
17
72
3
73
16
0
VERTEX
8
0
6
CONTINUOUS
62
252
70
128
10
0.000000
20
0.000000
30
0.000000
71
16
72
3
73
15
0
VERTEX
8
0
6
CONTINUOUS
62
252
70
128
10
0.000000
20
0.000000
30
0.000000
71
15
72
3
73
4
0
VERTEX
8
0
6
CONTINUOUS
62
252
70
128
10
0.000000
20
0.000000
30
0.000000
71
15
72
4
73
5
0
VERTEX
8
0
6
CONTINUOUS
62
252
70
128
10
0.000000
20
0.000000
30
0.000000
71
15
72
5
73
14
0
VERTEX
8
0
6
CONTINUOUS
62
252
70
128
10
0.000000
20
0.000000
30
0.000000
71
14
72
5
73
6
0
VERTEX
8
0
6
CONTINUOUS
62
252
70
128
10
0.000000
20
0.000000
30
0.000000
71
14
72
6
73
13
0
VERTEX
8
0
6
CONTINUOUS
62
252
70
128
10
0.000000
20
0.000000
30
0.000000
71
13
72
6
73
7
0
VERTEX
8
0
6
CONTINUOUS
62
252
70
128
10
0.000000
20
0.000000
30
0.000000
71
13
72
7
73
12
0
VERTEX
8
0
6
CONTINUOUS
62
252
70
128
10
0.000000
20
0.000000
30
0.000000
71
12
72
7
73
11
0
VERTEX
8
0
6
CONTINUOUS
62
252
70
128
10
0.000000
20
0.000000
30
0.000000
71
11
72
7
73
10
0
VERTEX
8
0
6
CONTINUOUS
62
252
70
128
10
0.000000
20
0.000000
30
0.000000
71
10
72
7
73
9
0
VERTEX
8
0
6
CONTINUOUS
62
252
70
128
10
0.000000
20
0.000000
30
0.000000
71
9
72
7
73
8
0
SEQEND
0
POLYLINE
66
1
8
0
6
CONTINUOUS
62
252
70
64
75
0
10
0.000000
20
0.000000
30
0.000000
0
VERTEX
8
0
6
CONTINUOUS
62
252
70
192
10
-119.236664
20
-25.800000
30
-75.491740
0
VERTEX
8
0
6
CONTINUOUS
62
252
70
192
10
-119.562425
20
-25.800000
30
-74.456582
0
VERTEX
8
0
6
CONTINUOUS
62
252
70
192
10
-119.874150
20
-25.800000
30
-73.417111
0
VERTEX
8
0
6
CONTINUOUS
62
252
70
192
10
-120.171781
20
-25.800000
30
-72.373517
0
VERTEX
8
0
6
CONTINUOUS
62
252
70
192
10
-122.056759
20
-25.800000
30
-73.059593
0
VERTEX
8
0
6
CONTINUOUS
62
252
70
192
10
-121.993373
20
-25.800000
30
-73.284779
0
VERTEX
8
0
6
CONTINUOUS
62
252
70
192
10
-121.929347
20
-25.800000
30
-73.509785
0
VERTEX
8
0
6
CONTINUOUS
62
252
70
192
10
-121.864680
20
-25.800000
30
-73.734607
0
VERTEX
8
0
6
CONTINUOUS
62
252
70
192
10
-121.647951
20
-25.800000
30
-74.471173
0
VERTEX
8
0
6
CONTINUOUS
62
252
70
192
10
-121.424352
20
-25.800000
30
-75.205683
0
VERTEX
8
0
6
CONTINUOUS
62
252
70
192
10
-121.193901
20
-25.800000
30
-75.938072
0
VERTEX
8
0
6
CONTINUOUS
62
252
70
192
10
-120.250181
20
-25.800000
30
-78.717072
0
VERTEX
8
0
6
CONTINUOUS
62
252
70
192
10
-119.207857
20
-25.800000
30
-81.460612
0
VERTEX
8
0
6
CONTINUOUS
62
252
70
192
10
-118.068257
20
-25.800000
30
-84.165195
0
VERTEX
8
0
6
CONTINUOUS
62
252
70
192
10
-117.973281
20
-25.800000
30
-84.378985
0
VERTEX
8
0
6
CONTINUOUS
62
252
70
192
10
-117.877698
20
-25.800000
30
-84.592504
0
VERTEX
8
0
6
CONTINUOUS
62
252
70
192
10
-117.781507
20
-25.800000
30
-84.805751
0
VERTEX
8
0
6
CONTINUOUS
62
252
70
192
10
-115.896529
20
-25.800000
30
-84.119675
0
VERTEX
8
0
6
CONTINUOUS
62
252
70
192
10
-117.120313
20
-25.800000
30
-81.287254
0
VERTEX
8
0
6
CONTINUOUS
62
252
70
192
10
-118.234241
20
-25.800000
30
-78.409856
0
VERTEX
8
0
6
CONTINUOUS
62
252
70
128
10
0.000000
20
0.000000
30
0.000000
71
2
72
11
73
1
0
VERTEX
8
0
6
CONTINUOUS
62
252
70
128
10
0.000000
20
0.000000
30
0.000000
71
1
72
11
73
12
0
VERTEX
8
0
6
CONTINUOUS
62
252
70
128
10
0.000000
20
0.000000
30
0.000000
71
1
72
12
73
20
0
VERTEX
8
0
6
CONTINUOUS
62
252
70
128
10
0.000000
20
0.000000
30
0.000000
71
20
72
12
73
13
0
VERTEX
8
0
6
CONTINUOUS
62
252
70
128
10
0.000000
20
0.000000
30
0.000000
71
20
72
13
73
19
0
VERTEX
8
0
6
CONTINUOUS
62
252
70
128
10
0.000000
20
0.000000
30
0.000000
71
19
72
13
73
14
0
VERTEX
8
0
6
CONTINUOUS
62
252
70
128
10
0.000000
20
0.000000
30
0.000000
71
19
72
14
73
15
0
VERTEX
8
0
6
CONTINUOUS
62
252
70
128
10
0.000000
20
0.000000
30
0.000000
71
2
72
3
73
11
0
VERTEX
8
0
6
CONTINUOUS
62
252
70
128
10
0.000000
20
0.000000
30
0.000000
71
11
72
3
73
10
0
VERTEX
8
0
6
CONTINUOUS
62
252
70
128
10
0.000000
20
0.000000
30
0.000000
71
10
72
3
73
9
0
VERTEX
8
0
6
CONTINUOUS
62
252
70
128
10
0.000000
20
0.000000
30
0.000000
71
9
72
3
73
4
0
VERTEX
8
0
6
CONTINUOUS
62
252
70
128
10
0.000000
20
0.000000
30
0.000000
71
9
72
4
73
8
0
VERTEX
8
0
6
CONTINUOUS
62
252
70
128
10
0.000000
20
0.000000
30
0.000000
71
8
72
4
73
7
0
VERTEX
8
0
6
CONTINUOUS
62
252
70
128
10
0.000000
20
0.000000
30
0.000000
71
7
72
4
73
6
0
VERTEX
8
0
6
CONTINUOUS
62
252
70
128
10
0.000000
20
0.000000
30
0.000000
71
6
72
4
73
5
0
VERTEX
8
0
6
CONTINUOUS
62
252
70
128
10
0.000000
20
0.000000
30
0.000000
71
15
72
16
73
19
0
VERTEX
8
0
6
CONTINUOUS
62
252
70
128
10
0.000000
20
0.000000
30
0.000000
71
19
72
16
73
17
0
VERTEX
8
0
6
CONTINUOUS
62
252
70
128
10
0.000000
20
0.000000
30
0.000000
71
19
72
17
73
18
0
SEQEND
0
POLYLINE
66
1
8
0
6
CONTINUOUS
62
252
70
64
75
0
10
0.000000
20
0.000000
30
0.000000
0
VERTEX
8
0
6
CONTINUOUS
62
252
70
192
10
26.443119
20
-0.750000
30
-11.727366
0
VERTEX
8
0
6
CONTINUOUS
62
252
70
192
10
26.447935
20
-0.619764
30
-11.737692
0
VERTEX
8
0
6
CONTINUOUS
62
252
70
192
10
26.462235
20
-0.493485
30
-11.768358
0
VERTEX
8
0
6
CONTINUOUS
62
252
70
192
10
26.485585
20
-0.375000
30
-11.818432
0
VERTEX
8
0
6
CONTINUOUS
62
252
70
192
10
26.517275
20
-0.267909
30
-11.886392
0
VERTEX
8
0
6
CONTINUOUS
62
252
70
192
10
26.556343
20
-0.175467
30
-11.970174
0
VERTEX
8
0
6
CONTINUOUS
62
252
70
192
10
26.601601
20
-0.100481
30
-12.067231
0
VERTEX
8
0
6
CONTINUOUS
62
252
70
192
10
26.651675
20
-0.045231
30
-12.174615
0
VERTEX
8
0
6
CONTINUOUS
62
252
70
192
10
26.705043
20
-0.011394
30
-12.289062
0
VERTEX
8
0
6
CONTINUOUS
62
252
70
192
10
26.760083
20
-0.000000
30
-12.407096
0
VERTEX
8
0
6
CONTINUOUS
62
252
70
192
10
26.815123
20
-0.011394
30
-12.525130
0
VERTEX
8
0
6
CONTINUOUS
62
252
70
192
10
26.868491
20
-0.045231
30
-12.639578
0
VERTEX
8
0
6
CONTINUOUS
62
252
70
192
10
26.918565
20
-0.100481
30
-12.746962
0
VERTEX
8
0
6
CONTINUOUS
62
252
70
192
10
26.963823
20
-0.175467
30
-12.844019
0
VERTEX
8
0
6
CONTINUOUS
62
252
70
192
10
27.002891
20
-0.267909
30
-12.927800
0
VERTEX
8
0
6
CONTINUOUS
62
252
70
192
10
27.034582
20
-0.375000
30
-12.995761
0
VERTEX
8
0
6
CONTINUOUS
62
252
70
192
10
27.057932
20
-0.493485
30
-13.045835
0
VERTEX
8
0
6
CONTINUOUS
62
252
70
192
10
27.072231
20
-0.619764
30
-13.076501
0
VERTEX
8
0
6
CONTINUOUS
62
252
70
192
10
27.077047
20
-0.750000
30
-13.086827
0
VERTEX
8
0
6
CONTINUOUS
62
252
70
192
10
27.072231
20
-0.880236
30
-13.076501
0
VERTEX
8
0
6
CONTINUOUS
62
252
70
192
10
27.057932
20
-1.006515
30
-13.045835
0
VERTEX
8
0
6
CONTINUOUS
62
252
70
192
10
27.034582
20
-1.125000
30
-12.995761
0
VERTEX
8
0
6
CONTINUOUS
62
252
70
192
10
27.002891
20
-1.232091
30
-12.927800
0
VERTEX
8
0
6
CONTINUOUS
62
252
70
192
10
26.963823
20
-1.324533
30
-12.844019
0
VERTEX
8
0
6
CONTINUOUS
62
252
70
192
10
26.918565
20
-1.399519
30
-12.746962
0
VERTEX
8
0
6
CONTINUOUS
62
252
70
192
10
26.868491
20
-1.454769
30
-12.639578
0
VERTEX
8
0
6
CONTINUOUS
62
252
70
192
10
26.815123
20
-1.488606
30
-12.525130
0
VERTEX
8
0
6
CONTINUOUS
62
252
70
192
10
26.760083
20
-1.500000
30
-12.407096
0
VERTEX
8
0
6
CONTINUOUS
62
252
70
192
10
26.705043
20
-1.488606
30
-12.289062
0
VERTEX
8
0
6
CONTINUOUS
62
252
70
192
10
26.651675
20
-1.454769
30
-12.174615
0
VERTEX
8
0
6
CONTINUOUS
62
252
70
192
10
26.601601
20
-1.399519
30
-12.067231
0
VERTEX
8
0
6
CONTINUOUS
62
252
70
192
10
26.556343
20
-1.324533
30
-11.970174
0
VERTEX
8
0
6
CONTINUOUS
62
252
70
192
10
26.517275
20
-1.232091
30
-11.886392
0
VERTEX
8
0
6
CONTINUOUS
62
252
70
192
10
26.485585
20
-1.125000
30
-11.818432
0
VERTEX
8
0
6
CONTINUOUS
62
252
70
192
10
26.462235
20
-1.006515
30
-11.768358
0
VERTEX
8
0
6
CONTINUOUS
62
252
70
192
10
26.447935
20
-0.880236
30
-11.737692
0
VERTEX
8
0
6
CONTINUOUS
62
252
70
192
10
26.443119
20
-0.750000
30
-11.727366
0
VERTEX
8
0
6
CONTINUOUS
62
252
70
192
10
8.873727
20
-0.750000
30
-19.920108
0
VERTEX
8
0
6
CONTINUOUS
62
252
70
192
10
8.876623
20
-0.858007
30
-19.927583
0
VERTEX
8
0
6
CONTINUOUS
62
252
70
192
10
8.885345
20
-0.966756
30
-19.950133
0
VERTEX
8
0
6
CONTINUOUS
62
252
70
192
10
8.899939
20
-1.071696
30
-19.987923
0
VERTEX
8
0
6
CONTINUOUS
62
252
70
192
10
8.919960
20
-1.168833
30
-20.039877
0
VERTEX
8
0
6
CONTINUOUS
62
252
70
192
10
8.944222
20
-1.255017
30
-20.103014
0
VERTEX
8
0
6
CONTINUOUS
62
252
70
192
10
8.972099
20
-1.328875
30
-20.175805
0
VERTEX
8
0
6
CONTINUOUS
62
252
70
192
10
9.004341
20
-1.392564
30
-20.260329
0
VERTEX
8
0
6
CONTINUOUS
62
252
70
192
10
9.039952
20
-1.443154
30
-20.354096
0
VERTEX
8
0
6
CONTINUOUS
62
252
70
192
10
9.077712
20
-1.477921
30
-20.454020
0
VERTEX
8
0
6
CONTINUOUS
62
252
70
192
10
9.116091
20
-1.496501
30
-20.556088
0
VERTEX
8
0
6
CONTINUOUS
62
252
70
192
10
9.153700
20
-1.499104
30
-20.656621
0
VERTEX
8
0
6
CONTINUOUS
62
252
70
192
10
9.191640
20
-1.485788
30
-20.758577
0
VERTEX
8
0
6
CONTINUOUS
62
252
70
192
10
9.229160
20
-1.456370
30
-20.859908
0
VERTEX
8
0
6
CONTINUOUS
62
252
70
192
10
9.264720
20
-1.410816
30
-20.956441
0
VERTEX
8
0
6
CONTINUOUS
62
252
70
192
10
9.297103
20
-1.351112
30
-21.044768
0
VERTEX
8
0
6
CONTINUOUS
62
252
70
192
10
9.325294
20
-1.280549
30
-21.121984
0
VERTEX
8
0
6
CONTINUOUS
62
252
70
192
10
9.349529
20
-1.198713
30
-21.188617
0
VERTEX
8
0
6
CONTINUOUS
62
252
70
192
10
9.370008
20
-1.104904
30
-21.245097
0
VERTEX
8
0
6
CONTINUOUS
62
252
70
192
10
9.385612
20
-1.002203
30
-21.288244
0
VERTEX
8
0
6
CONTINUOUS
62
252
70
192
10
9.395673
20
-0.894235
30
-21.316112
0
VERTEX
8
0
6
CONTINUOUS
62
252
70
192
10
9.400211
20
-0.785486
30
-21.328701
0
VERTEX
8
0
6
CONTINUOUS
62
252
70
192
10
9.399297
20
-0.678153
30
-21.326164
0
VERTEX
8
0
6
CONTINUOUS
62
252
70
192
10
9.392911
20
-0.569158
30
-21.308458
0
VERTEX
8
0
6
CONTINUOUS
62
252
70
192
10
9.380976
20
-0.462478
30
-21.275415
0
VERTEX
8
0
6
CONTINUOUS
62
252
70
192
10
9.363613
20
-0.362417
30
-21.227442
0
VERTEX
8
0
6
CONTINUOUS
62
252
70
192
10
9.341746
20
-0.272290
30
-21.167192
0
VERTEX
8
0
6
CONTINUOUS
62
252
70
192
10
9.316348
20
-0.194725
30
-21.097447
0
VERTEX
8
0
6
CONTINUOUS
62
252
70
192
10
9.286635
20
-0.127443
30
-21.016173
0
VERTEX
8
0
6
CONTINUOUS
62
252
70
192
10
9.253070
20
-0.072132
30
-20.924762
0
VERTEX
8
0
6
CONTINUOUS
62
252
70
192
10
9.216692
20
-0.031932
30
-20.826178
0
VERTEX
8
0
6
CONTINUOUS
62
252
70
192
10
9.178855
20
-0.007949
30
-20.724164
0
VERTEX
8
0
6
CONTINUOUS
62
252
70
192
10
9.141126
20
-0.000000
30
-20.622951
0
VERTEX
8
0
6
CONTINUOUS
62
252
70
192
10
9.115990
20
-0.003527
30
-20.555820
0
VERTEX
8
0
6
CONTINUOUS
62
252
70
192
10
9.090420
20
-0.014150
30
-20.487763
0
VERTEX
8
0
6
CONTINUOUS
62
252
70
192
10
9.064891
20
-0.031932
30
-20.420035
0
VERTEX
8
0
6
CONTINUOUS
62
252
70
192
10
9.039874
20
-0.056937
30
-20.353891
0
VERTEX
8
0
6
CONTINUOUS
62
252
70
192
10
9.015825
20
-0.089056
30
-20.290520
0
VERTEX
8
0
6
CONTINUOUS
62
252
70
192
10
8.993105
20
-0.127483
30
-20.230835
0
VERTEX
8
0
6
CONTINUOUS
62
252
70
192
10
8.972051
20
-0.171234
30
-20.175681
0
VERTEX
8
0
6
CONTINUOUS
62
252
70
192
10
8.952999
20
-0.219325
30
-20.125902
0
VERTEX
8
0
6
CONTINUOUS
62
252
70
192
10
8.935710
20
-0.272408
30
-20.080840
0
VERTEX
8
0
6
CONTINUOUS
62
252
70
192
10
8.919937
20
-0.331264
30
-20.039816
0
VERTEX
8
0
6
CONTINUOUS
62
252
70
192
10
8.906048
20
-0.394985
30
-20.003761
0
VERTEX
8
0
6
CONTINUOUS
62
252
70
192
10
8.894413
20
-0.462658
30
-19.973605
0
VERTEX
8
0
6
CONTINUOUS
62
252
70
192
10
8.885339
20
-0.533301
30
-19.950117
0
VERTEX
8
0
6
CONTINUOUS
62
252
70
192
10
8.878877
20
-0.605639
30
-19.933408
0
VERTEX
8
0
6
CONTINUOUS
62
252
70
192
10
8.875012
20
-0.678322
30
-19.923424
0
VERTEX
8
0
6
CONTINUOUS
62
252
70
192
10
8.873727
20
-0.750000
30
-19.920108
0
VERTEX
8
0
6
CONTINUOUS
62
252
70
128
10
0.000000
20
0.000000
30
0.000000
71
86
72
1
73
85
0
VERTEX
8
0
6
CONTINUOUS
62
252
70
128
10
0.000000
20
0.000000
30
0.000000
71
85
72
1
73
2
0
VERTEX
8
0
6
CONTINUOUS
62
252
70
128
10
0.000000
20
0.000000
30
0.000000
71
85
72
2
73
84
0
VERTEX
8
0
6
CONTINUOUS
62
252
70
128
10
0.000000
20
0.000000
30
0.000000
71
84
72
2
73
83
0
VERTEX
8
0
6
CONTINUOUS
62
252
70
128
10
0.000000
20
0.000000
30
0.000000
71
83
72
2
73
3
0
VERTEX
8
0
6
CONTINUOUS
62
252
70
128
10
0.000000
20
0.000000
30
0.000000
71
83
72
3
73
82
0
VERTEX
8
0
6
CONTINUOUS
62
252
70
128
10
0.000000
20
0.000000
30
0.000000
71
82
72
3
73
4
0
VERTEX
8
0
6
CONTINUOUS
62
252
70
128
10
0.000000
20
0.000000
30
0.000000
71
82
72
4
73
81
0
VERTEX
8
0
6
CONTINUOUS
62
252
70
128
10
0.000000
20
0.000000
30
0.000000
71
81
72
4
73
80
0
VERTEX
8
0
6
CONTINUOUS
62
252
70
128
10
0.000000
20
0.000000
30
0.000000
71
80
72
4
73
5
0
VERTEX
8
0
6
CONTINUOUS
62
252
70
128
10
0.000000
20
0.000000
30
0.000000
71
80
72
5
73
79
0
VERTEX
8
0
6
CONTINUOUS
62
252
70
128
10
0.000000
20
0.000000
30
0.000000
71
79
72
5
73
78
0
VERTEX
8
0
6
CONTINUOUS
62
252
70
128
10
0.000000
20
0.000000
30
0.000000
71
78
72
5
73
6
0
VERTEX
8
0
6
CONTINUOUS
62
252
70
128
10
0.000000
20
0.000000
30
0.000000
71
78
72
6
73
77
0
VERTEX
8
0
6
CONTINUOUS
62
252
70
128
10
0.000000
20
0.000000
30
0.000000
71
77
72
6
73
76
0
VERTEX
8
0
6
CONTINUOUS
62
252
70
128
10
0.000000
20
0.000000
30
0.000000
71
76
72
6
73
7
0
VERTEX
8
0
6
CONTINUOUS
62
252
70
128
10
0.000000
20
0.000000
30
0.000000
71
76
72
7
73
75
0
VERTEX
8
0
6
CONTINUOUS
62
252
70
128
10
0.000000
20
0.000000
30
0.000000
71
75
72
7
73
74
0
VERTEX
8
0
6
CONTINUOUS
62
252
70
128
10
0.000000
20
0.000000
30
0.000000
71
74
72
7
73
8
0
VERTEX
8
0
6
CONTINUOUS
62
252
70
128
10
0.000000
20
0.000000
30
0.000000
71
74
72
8
73
73
0
VERTEX
8
0
6
CONTINUOUS
62
252
70
128
10
0.000000
20
0.000000
30
0.000000
71
73
72
8
73
9
0
VERTEX
8
0
6
CONTINUOUS
62
252
70
128
10
0.000000
20
0.000000
30
0.000000
71
73
72
9
73
72
0
VERTEX
8
0
6
CONTINUOUS
62
252
70
128
10
0.000000
20
0.000000
30
0.000000
71
72
72
9
73
71
0
VERTEX
8
0
6
CONTINUOUS
62
252
70
128
10
0.000000
20
0.000000
30
0.000000
71
71
72
9
73
10
0
VERTEX
8
0
6
CONTINUOUS
62
252
70
128
10
0.000000
20
0.000000
30
0.000000
71
71
72
10
73
70
0
VERTEX
8
0
6
CONTINUOUS
62
252
70
128
10
0.000000
20
0.000000
30
0.000000
71
70
72
10
73
69
0
VERTEX
8
0
6
CONTINUOUS
62
252
70
128
10
0.000000
20
0.000000
30
0.000000
71
69
72
10
73
11
0
VERTEX
8
0
6
CONTINUOUS
62
252
70
128
10
0.000000
20
0.000000
30
0.000000
71
69
72
11
73
68
0
VERTEX
8
0
6
CONTINUOUS
62
252
70
128
10
0.000000
20
0.000000
30
0.000000
71
68
72
11
73
12
0
VERTEX
8
0
6
CONTINUOUS
62
252
70
128
10
0.000000
20
0.000000
30
0.000000
71
68
72
12
73
67
0
VERTEX
8
0
6
CONTINUOUS
62
252
70
128
10
0.000000
20
0.000000
30
0.000000
71
67
72
12
73
13
0
VERTEX
8
0
6
CONTINUOUS
62
252
70
128
10
0.000000
20
0.000000
30
0.000000
71
67
72
13
73
66
0
VERTEX
8
0
6
CONTINUOUS
62
252
70
128
10
0.000000
20
0.000000
30
0.000000
71
66
72
13
73
14
0
VERTEX
8
0
6
CONTINUOUS
62
252
70
128
10
0.000000
20
0.000000
30
0.000000
71
66
72
14
73
65
0
VERTEX
8
0
6
CONTINUOUS
62
252
70
128
10
0.000000
20
0.000000
30
0.000000
71
65
72
14
73
15
0
VERTEX
8
0
6
CONTINUOUS
62
252
70
128
10
0.000000
20
0.000000
30
0.000000
71
65
72
15
73
64
0
VERTEX
8
0
6
CONTINUOUS
62
252
70
128
10
0.000000
20
0.000000
30
0.000000
71
64
72
15
73
63
0
VERTEX
8
0
6
CONTINUOUS
62
252
70
128
10
0.000000
20
0.000000
30
0.000000
71
63
72
15
73
16
0
VERTEX
8
0
6
CONTINUOUS
62
252
70
128
10
0.000000
20
0.000000
30
0.000000
71
63
72
16
73
62
0
VERTEX
8
0
6
CONTINUOUS
62
252
70
128
10
0.000000
20
0.000000
30
0.000000
71
62
72
16
73
17
0
VERTEX
8
0
6
CONTINUOUS
62
252
70
128
10
0.000000
20
0.000000
30
0.000000
71
62
72
17
73
61
0
VERTEX
8
0
6
CONTINUOUS
62
252
70
128
10
0.000000
20
0.000000
30
0.000000
71
61
72
17
73
18
0
VERTEX
8
0
6
CONTINUOUS
62
252
70
128
10
0.000000
20
0.000000
30
0.000000
71
61
72
18
73
60
0
VERTEX
8
0
6
CONTINUOUS
62
252
70
128
10
0.000000
20
0.000000
30
0.000000
71
60
72
18
73
19
0
VERTEX
8
0
6
CONTINUOUS
62
252
70
128
10
0.000000
20
0.000000
30
0.000000
71
60
72
19
73
59
0
VERTEX
8
0
6
CONTINUOUS
62
252
70
128
10
0.000000
20
0.000000
30
0.000000
71
59
72
19
73
20
0
VERTEX
8
0
6
CONTINUOUS
62
252
70
128
10
0.000000
20
0.000000
30
0.000000
71
59
72
20
73
58
0
VERTEX
8
0
6
CONTINUOUS
62
252
70
128
10
0.000000
20
0.000000
30
0.000000
71
58
72
20
73
21
0
VERTEX
8
0
6
CONTINUOUS
62
252
70
128
10
0.000000
20
0.000000
30
0.000000
71
58
72
21
73
57
0
VERTEX
8
0
6
CONTINUOUS
62
252
70
128
10
0.000000
20
0.000000
30
0.000000
71
57
72
21
73
56
0
VERTEX
8
0
6
CONTINUOUS
62
252
70
128
10
0.000000
20
0.000000
30
0.000000
71
56
72
21
73
22
0
VERTEX
8
0
6
CONTINUOUS
62
252
70
128
10
0.000000
20
0.000000
30
0.000000
71
56
72
22
73
55
0
VERTEX
8
0
6
CONTINUOUS
62
252
70
128
10
0.000000
20
0.000000
30
0.000000
71
55
72
22
73
23
0
VERTEX
8
0
6
CONTINUOUS
62
252
70
128
10
0.000000
20
0.000000
30
0.000000
71
55
72
23
73
54
0
VERTEX
8
0
6
CONTINUOUS
62
252
70
128
10
0.000000
20
0.000000
30
0.000000
71
54
72
23
73
24
0
VERTEX
8
0
6
CONTINUOUS
62
252
70
128
10
0.000000
20
0.000000
30
0.000000
71
54
72
24
73
53
0
VERTEX
8
0
6
CONTINUOUS
62
252
70
128
10
0.000000
20
0.000000
30
0.000000
71
53
72
24
73
25
0
VERTEX
8
0
6
CONTINUOUS
62
252
70
128
10
0.000000
20
0.000000
30
0.000000
71
53
72
25
73
52
0
VERTEX
8
0
6
CONTINUOUS
62
252
70
128
10
0.000000
20
0.000000
30
0.000000
71
52
72
25
73
26
0
VERTEX
8
0
6
CONTINUOUS
62
252
70
128
10
0.000000
20
0.000000
30
0.000000
71
52
72
26
73
51
0
VERTEX
8
0
6
CONTINUOUS
62
252
70
128
10
0.000000
20
0.000000
30
0.000000
71
51
72
26
73
50
0
VERTEX
8
0
6
CONTINUOUS
62
252
70
128
10
0.000000
20
0.000000
30
0.000000
71
50
72
26
73
27
0
VERTEX
8
0
6
CONTINUOUS
62
252
70
128
10
0.000000
20
0.000000
30
0.000000
71
50
72
27
73
49
0
VERTEX
8
0
6
CONTINUOUS
62
252
70
128
10
0.000000
20
0.000000
30
0.000000
71
49
72
27
73
28
0
VERTEX
8
0
6
CONTINUOUS
62
252
70
128
10
0.000000
20
0.000000
30
0.000000
71
49
72
28
73
48
0
VERTEX
8
0
6
CONTINUOUS
62
252
70
128
10
0.000000
20
0.000000
30
0.000000
71
48
72
28
73
29
0
VERTEX
8
0
6
CONTINUOUS
62
252
70
128
10
0.000000
20
0.000000
30
0.000000
71
48
72
29
73
47
0
VERTEX
8
0
6
CONTINUOUS
62
252
70
128
10
0.000000
20
0.000000
30
0.000000
71
47
72
29
73
30
0
VERTEX
8
0
6
CONTINUOUS
62
252
70
128
10
0.000000
20
0.000000
30
0.000000
71
47
72
30
73
46
0
VERTEX
8
0
6
CONTINUOUS
62
252
70
128
10
0.000000
20
0.000000
30
0.000000
71
46
72
30
73
31
0
VERTEX
8
0
6
CONTINUOUS
62
252
70
128
10
0.000000
20
0.000000
30
0.000000
71
46
72
31
73
45
0
VERTEX
8
0
6
CONTINUOUS
62
252
70
128
10
0.000000
20
0.000000
30
0.000000
71
45
72
31
73
32
0
VERTEX
8
0
6
CONTINUOUS
62
252
70
128
10
0.000000
20
0.000000
30
0.000000
71
45
72
32
73
44
0
VERTEX
8
0
6
CONTINUOUS
62
252
70
128
10
0.000000
20
0.000000
30
0.000000
71
44
72
32
73
43
0
VERTEX
8
0
6
CONTINUOUS
62
252
70
128
10
0.000000
20
0.000000
30
0.000000
71
43
72
32
73
33
0
VERTEX
8
0
6
CONTINUOUS
62
252
70
128
10
0.000000
20
0.000000
30
0.000000
71
43
72
33
73
42
0
VERTEX
8
0
6
CONTINUOUS
62
252
70
128
10
0.000000
20
0.000000
30
0.000000
71
42
72
33
73
34
0
VERTEX
8
0
6
CONTINUOUS
62
252
70
128
10
0.000000
20
0.000000
30
0.000000
71
42
72
34
73
41
0
VERTEX
8
0
6
CONTINUOUS
62
252
70
128
10
0.000000
20
0.000000
30
0.000000
71
41
72
34
73
35
0
VERTEX
8
0
6
CONTINUOUS
62
252
70
128
10
0.000000
20
0.000000
30
0.000000
71
41
72
35
73
40
0
VERTEX
8
0
6
CONTINUOUS
62
252
70
128
10
0.000000
20
0.000000
30
0.000000
71
40
72
35
73
36
0
VERTEX
8
0
6
CONTINUOUS
62
252
70
128
10
0.000000
20
0.000000
30
0.000000
71
40
72
36
73
39
0
VERTEX
8
0
6
CONTINUOUS
62
252
70
128
10
0.000000
20
0.000000
30
0.000000
71
39
72
36
73
37
0
VERTEX
8
0
6
CONTINUOUS
62
252
70
128
10
0.000000
20
0.000000
30
0.000000
71
39
72
37
73
38
0
SEQEND
0
POLYLINE
66
1
8
0
6
CONTINUOUS
62
252
70
64
75
0
10
0.000000
20
0.000000
30
0.000000
0
VERTEX
8
0
6
CONTINUOUS
62
252
70
192
10
26.443119
20
-0.750000
30
-11.727366
0
VERTEX
8
0
6
CONTINUOUS
62
252
70
192
10
26.447935
20
-0.880236
30
-11.737692
0
VERTEX
8
0
6
CONTINUOUS
62
252
70
192
10
26.462235
20
-1.006515
30
-11.768358
0
VERTEX
8
0
6
CONTINUOUS
62
252
70
192
10
26.485585
20
-1.125000
30
-11.818432
0
VERTEX
8
0
6
CONTINUOUS
62
252
70
192
10
26.517275
20
-1.232091
30
-11.886392
0
VERTEX
8
0
6
CONTINUOUS
62
252
70
192
10
26.556343
20
-1.324533
30
-11.970174
0
VERTEX
8
0
6
CONTINUOUS
62
252
70
192
10
26.601601
20
-1.399519
30
-12.067231
0
VERTEX
8
0
6
CONTINUOUS
62
252
70
192
10
26.651675
20
-1.454769
30
-12.174615
0
VERTEX
8
0
6
CONTINUOUS
62
252
70
192
10
26.705043
20
-1.488606
30
-12.289062
0
VERTEX
8
0
6
CONTINUOUS
62
252
70
192
10
26.760083
20
-1.500000
30
-12.407096
0
VERTEX
8
0
6
CONTINUOUS
62
252
70
192
10
26.815123
20
-1.488606
30
-12.525130
0
VERTEX
8
0
6
CONTINUOUS
62
252
70
192
10
26.868491
20
-1.454769
30
-12.639578
0
VERTEX
8
0
6
CONTINUOUS
62
252
70
192
10
26.918565
20
-1.399519
30
-12.746962
0
VERTEX
8
0
6
CONTINUOUS
62
252
70
192
10
26.963823
20
-1.324533
30
-12.844019
0
VERTEX
8
0
6
CONTINUOUS
62
252
70
192
10
27.002891
20
-1.232091
30
-12.927800
0
VERTEX
8
0
6
CONTINUOUS
62
252
70
192
10
27.034582
20
-1.125000
30
-12.995761
0
VERTEX
8
0
6
CONTINUOUS
62
252
70
192
10
27.057932
20
-1.006515
30
-13.045835
0
VERTEX
8
0
6
CONTINUOUS
62
252
70
192
10
27.072231
20
-0.880236
30
-13.076501
0
VERTEX
8
0
6
CONTINUOUS
62
252
70
192
10
27.077047
20
-0.750000
30
-13.086827
0
VERTEX
8
0
6
CONTINUOUS
62
252
70
192
10
27.072231
20
-0.619764
30
-13.076501
0
VERTEX
8
0
6
CONTINUOUS
62
252
70
192
10
27.057932
20
-0.493485
30
-13.045835
0
VERTEX
8
0
6
CONTINUOUS
62
252
70
192
10
27.034582
20
-0.375000
30
-12.995761
0
VERTEX
8
0
6
CONTINUOUS
62
252
70
192
10
27.002891
20
-0.267909
30
-12.927800
0
VERTEX
8
0
6
CONTINUOUS
62
252
70
192
10
26.963823
20
-0.175467
30
-12.844019
0
VERTEX
8
0
6
CONTINUOUS
62
252
70
192
10
26.918565
20
-0.100481
30
-12.746962
0
VERTEX
8
0
6
CONTINUOUS
62
252
70
192
10
26.868491
20
-0.045231
30
-12.639578
0
VERTEX
8
0
6
CONTINUOUS
62
252
70
192
10
26.815123
20
-0.011394
30
-12.525130
0
VERTEX
8
0
6
CONTINUOUS
62
252
70
192
10
26.760083
20
-0.000000
30
-12.407096
0
VERTEX
8
0
6
CONTINUOUS
62
252
70
192
10
26.705043
20
-0.011394
30
-12.289062
0
VERTEX
8
0
6
CONTINUOUS
62
252
70
192
10
26.651675
20
-0.045231
30
-12.174615
0
VERTEX
8
0
6
CONTINUOUS
62
252
70
192
10
26.601601
20
-0.100481
30
-12.067231
0
VERTEX
8
0
6
CONTINUOUS
62
252
70
192
10
26.556343
20
-0.175467
30
-11.970174
0
VERTEX
8
0
6
CONTINUOUS
62
252
70
192
10
26.517275
20
-0.267909
30
-11.886392
0
VERTEX
8
0
6
CONTINUOUS
62
252
70
192
10
26.485585
20
-0.375000
30
-11.818432
0
VERTEX
8
0
6
CONTINUOUS
62
252
70
192
10
26.462235
20
-0.493485
30
-11.768358
0
VERTEX
8
0
6
CONTINUOUS
62
252
70
192
10
26.447935
20
-0.619764
30
-11.737692
0
VERTEX
8
0
6
CONTINUOUS
62
252
70
128
10
0.000000
20
0.000000
30
0.000000
71
36
72
1
73
18
0
VERTEX
8
0
6
CONTINUOUS
62
252
70
128
10
0.000000
20
0.000000
30
0.000000
71
18
72
1
73
2
0
VERTEX
8
0
6
CONTINUOUS
62
252
70
128
10
0.000000
20
0.000000
30
0.000000
71
18
72
2
73
17
0
VERTEX
8
0
6
CONTINUOUS
62
252
70
128
10
0.000000
20
0.000000
30
0.000000
71
17
72
2
73
16
0
VERTEX
8
0
6
CONTINUOUS
62
252
70
128
10
0.000000
20
0.000000
30
0.000000
71
16
72
2
73
15
0
VERTEX
8
0
6
CONTINUOUS
62
252
70
128
10
0.000000
20
0.000000
30
0.000000
71
15
72
2
73
3
0
VERTEX
8
0
6
CONTINUOUS
62
252
70
128
10
0.000000
20
0.000000
30
0.000000
71
15
72
3
73
4
0
VERTEX
8
0
6
CONTINUOUS
62
252
70
128
10
0.000000
20
0.000000
30
0.000000
71
4
72
5
73
15
0
VERTEX
8
0
6
CONTINUOUS
62
252
70
128
10
0.000000
20
0.000000
30
0.000000
71
15
72
5
73
14
0
VERTEX
8
0
6
CONTINUOUS
62
252
70
128
10
0.000000
20
0.000000
30
0.000000
71
14
72
5
73
6
0
VERTEX
8
0
6
CONTINUOUS
62
252
70
128
10
0.000000
20
0.000000
30
0.000000
71
14
72
6
73
13
0
VERTEX
8
0
6
CONTINUOUS
62
252
70
128
10
0.000000
20
0.000000
30
0.000000
71
13
72
6
73
12
0
VERTEX
8
0
6
CONTINUOUS
62
252
70
128
10
0.000000
20
0.000000
30
0.000000
71
12
72
6
73
11
0
VERTEX
8
0
6
CONTINUOUS
62
252
70
128
10
0.000000
20
0.000000
30
0.000000
71
11
72
6
73
7
0
VERTEX
8
0
6
CONTINUOUS
62
252
70
128
10
0.000000
20
0.000000
30
0.000000
71
11
72
7
73
8
0
VERTEX
8
0
6
CONTINUOUS
62
252
70
128
10
0.000000
20
0.000000
30
0.000000
71
8
72
9
73
11
0
VERTEX
8
0
6
CONTINUOUS
62
252
70
128
10
0.000000
20
0.000000
30
0.000000
71
11
72
9
73
10
0
VERTEX
8
0
6
CONTINUOUS
62
252
70
128
10
0.000000
20
0.000000
30
0.000000
71
18
72
19
73
36
0
VERTEX
8
0
6
CONTINUOUS
62
252
70
128
10
0.000000
20
0.000000
30
0.000000
71
36
72
19
73
35
0
VERTEX
8
0
6
CONTINUOUS
62
252
70
128
10
0.000000
20
0.000000
30
0.000000
71
35
72
19
73
20
0
VERTEX
8
0
6
CONTINUOUS
62
252
70
128
10
0.000000
20
0.000000
30
0.000000
71
35
72
20
73
21
0
VERTEX
8
0
6
CONTINUOUS
62
252
70
128
10
0.000000
20
0.000000
30
0.000000
71
22
72
33
73
21
0
VERTEX
8
0
6
CONTINUOUS
62
252
70
128
10
0.000000
20
0.000000
30
0.000000
71
21
72
33
73
34
0
VERTEX
8
0
6
CONTINUOUS
62
252
70
128
10
0.000000
20
0.000000
30
0.000000
71
21
72
34
73
35
0
VERTEX
8
0
6
CONTINUOUS
62
252
70
128
10
0.000000
20
0.000000
30
0.000000
71
22
72
23
73
33
0
VERTEX
8
0
6
CONTINUOUS
62
252
70
128
10
0.000000
20
0.000000
30
0.000000
71
33
72
23
73
32
0
VERTEX
8
0
6
CONTINUOUS
62
252
70
128
10
0.000000
20
0.000000
30
0.000000
71
32
72
23
73
24
0
VERTEX
8
0
6
CONTINUOUS
62
252
70
128
10
0.000000
20
0.000000
30
0.000000
71
32
72
24
73
25
0
VERTEX
8
0
6
CONTINUOUS
62
252
70
128
10
0.000000
20
0.000000
30
0.000000
71
25
72
26
73
32
0
VERTEX
8
0
6
CONTINUOUS
62
252
70
128
10
0.000000
20
0.000000
30
0.000000
71
32
72
26
73
27
0
VERTEX
8
0
6
CONTINUOUS
62
252
70
128
10
0.000000
20
0.000000
30
0.000000
71
32
72
27
73
31
0
VERTEX
8
0
6
CONTINUOUS
62
252
70
128
10
0.000000
20
0.000000
30
0.000000
71
31
72
27
73
30
0
VERTEX
8
0
6
CONTINUOUS
62
252
70
128
10
0.000000
20
0.000000
30
0.000000
71
30
72
27
73
29
0
VERTEX
8
0
6
CONTINUOUS
62
252
70
128
10
0.000000
20
0.000000
30
0.000000
71
29
72
27
73
28
0
SEQEND
0
POLYLINE
66
1
8
0
6
CONTINUOUS
62
252
70
64
75
0
10
0.000000
20
0.000000
30
0.000000
0
VERTEX
8
0
6
CONTINUOUS
62
252
70
192
10
8.873727
20
-0.750000
30
-19.920108
0
VERTEX
8
0
6
CONTINUOUS
62
252
70
192
10
8.875012
20
-0.678322
30
-19.923424
0
VERTEX
8
0
6
CONTINUOUS
62
252
70
192
10
8.878877
20
-0.605639
30
-19.933408
0
VERTEX
8
0
6
CONTINUOUS
62
252
70
192
10
8.885339
20
-0.533301
30
-19.950117
0
VERTEX
8
0
6
CONTINUOUS
62
252
70
192
10
8.894413
20
-0.462658
30
-19.973605
0
VERTEX
8
0
6
CONTINUOUS
62
252
70
192
10
8.906048
20
-0.394985
30
-20.003761
0
VERTEX
8
0
6
CONTINUOUS
62
252
70
192
10
8.919937
20
-0.331264
30
-20.039816
0
VERTEX
8
0
6
CONTINUOUS
62
252
70
192
10
8.935710
20
-0.272408
30
-20.080840
0
VERTEX
8
0
6
CONTINUOUS
62
252
70
192
10
8.952999
20
-0.219325
30
-20.125902
0
VERTEX
8
0
6
CONTINUOUS
62
252
70
192
10
8.972051
20
-0.171234
30
-20.175681
0
VERTEX
8
0
6
CONTINUOUS
62
252
70
192
10
8.993105
20
-0.127483
30
-20.230835
0
VERTEX
8
0
6
CONTINUOUS
62
252
70
192
10
9.015825
20
-0.089056
30
-20.290520
0
VERTEX
8
0
6
CONTINUOUS
62
252
70
192
10
9.039874
20
-0.056937
30
-20.353891
0
VERTEX
8
0
6
CONTINUOUS
62
252
70
192
10
9.064891
20
-0.031932
30
-20.420035
0
VERTEX
8
0
6
CONTINUOUS
62
252
70
192
10
9.090420
20
-0.014150
30
-20.487763
0
VERTEX
8
0
6
CONTINUOUS
62
252
70
192
10
9.115990
20
-0.003527
30
-20.555820
0
VERTEX
8
0
6
CONTINUOUS
62
252
70
192
10
9.141126
20
-0.000000
30
-20.622951
0
VERTEX
8
0
6
CONTINUOUS
62
252
70
192
10
8.963845
20
-0.000000
30
-20.154224
0
VERTEX
8
0
6
CONTINUOUS
62
252
70
192
10
8.782911
20
-0.000000
30
-19.686895
0
VERTEX
8
0
6
CONTINUOUS
62
252
70
192
10
8.598334
20
-0.000000
30
-19.220992
0
VERTEX
8
0
6
CONTINUOUS
62
252
70
192
10
8.624944
20
-0.003534
30
-19.287516
0
VERTEX
8
0
6
CONTINUOUS
62
252
70
192
10
8.651855
20
-0.014176
30
-19.355011
0
VERTEX
8
0
6
CONTINUOUS
62
252
70
192
10
8.678573
20
-0.031984
30
-19.422233
0
VERTEX
8
0
6
CONTINUOUS
62
252
70
192
10
8.704602
20
-0.057019
30
-19.487933
0
VERTEX
8
0
6
CONTINUOUS
62
252
70
192
10
8.729478
20
-0.089168
30
-19.550929
0
VERTEX
8
0
6
CONTINUOUS
62
252
70
192
10
8.752854
20
-0.127619
30
-19.610302
0
VERTEX
8
0
6
CONTINUOUS
62
252
70
192
10
8.774409
20
-0.171386
30
-19.665203
0
VERTEX
8
0
6
CONTINUOUS
62
252
70
192
10
8.793824
20
-0.219481
30
-19.714779
0
VERTEX
8
0
6
CONTINUOUS
62
252
70
192
10
8.811372
20
-0.272570
30
-19.759696
0
VERTEX
8
0
6
CONTINUOUS
62
252
70
192
10
8.827322
20
-0.331423
30
-19.800608
0
VERTEX
8
0
6
CONTINUOUS
62
252
70
192
10
8.841321
20
-0.395130
30
-19.836581
0
VERTEX
8
0
6
CONTINUOUS
62
252
70
192
10
8.853014
20
-0.462782
30
-19.866680
0
VERTEX
8
0
6
CONTINUOUS
62
252
70
192
10
8.862114
20
-0.533399
30
-19.890132
0
VERTEX
8
0
6
CONTINUOUS
62
252
70
192
10
8.868583
20
-0.605706
30
-19.906819
0
VERTEX
8
0
6
CONTINUOUS
62
252
70
192
10
8.872445
20
-0.678355
30
-19.916794
0
VERTEX
8
0
6
CONTINUOUS
62
252
70
128
10
0.000000
20
0.000000
30
0.000000
71
1
72
2
73
35
0
VERTEX
8
0
6
CONTINUOUS
62
252
70
128
10
0.000000
20
0.000000
30
0.000000
71
35
72
2
73
34
0
VERTEX
8
0
6
CONTINUOUS
62
252
70
128
10
0.000000
20
0.000000
30
0.000000
71
34
72
2
73
3
0
VERTEX
8
0
6
CONTINUOUS
62
252
70
128
10
0.000000
20
0.000000
30
0.000000
71
34
72
3
73
33
0
VERTEX
8
0
6
CONTINUOUS
62
252
70
128
10
0.000000
20
0.000000
30
0.000000
71
33
72
3
73
4
0
VERTEX
8
0
6
CONTINUOUS
62
252
70
128
10
0.000000
20
0.000000
30
0.000000
71
33
72
4
73
32
0
VERTEX
8
0
6
CONTINUOUS
62
252
70
128
10
0.000000
20
0.000000
30
0.000000
71
32
72
4
73
5
0
VERTEX
8
0
6
CONTINUOUS
62
252
70
128
10
0.000000
20
0.000000
30
0.000000
71
32
72
5
73
31
0
VERTEX
8
0
6
CONTINUOUS
62
252
70
128
10
0.000000
20
0.000000
30
0.000000
71
31
72
5
73
6
0
VERTEX
8
0
6
CONTINUOUS
62
252
70
128
10
0.000000
20
0.000000
30
0.000000
71
31
72
6
73
30
0
VERTEX
8
0
6
CONTINUOUS
62
252
70
128
10
0.000000
20
0.000000
30
0.000000
71
30
72
6
73
7
0
VERTEX
8
0
6
CONTINUOUS
62
252
70
128
10
0.000000
20
0.000000
30
0.000000
71
30
72
7
73
19
0
VERTEX
8
0
6
CONTINUOUS
62
252
70
128
10
0.000000
20
0.000000
30
0.000000
71
19
72
7
73
18
0
VERTEX
8
0
6
CONTINUOUS
62
252
70
128
10
0.000000
20
0.000000
30
0.000000
71
18
72
7
73
8
0
VERTEX
8
0
6
CONTINUOUS
62
252
70
128
10
0.000000
20
0.000000
30
0.000000
71
18
72
8
73
9
0
VERTEX
8
0
6
CONTINUOUS
62
252
70
128
10
0.000000
20
0.000000
30
0.000000
71
9
72
10
73
18
0
VERTEX
8
0
6
CONTINUOUS
62
252
70
128
10
0.000000
20
0.000000
30
0.000000
71
18
72
10
73
11
0
VERTEX
8
0
6
CONTINUOUS
62
252
70
128
10
0.000000
20
0.000000
30
0.000000
71
18
72
11
73
12
0
VERTEX
8
0
6
CONTINUOUS
62
252
70
128
10
0.000000
20
0.000000
30
0.000000
71
12
72
13
73
18
0
VERTEX
8
0
6
CONTINUOUS
62
252
70
128
10
0.000000
20
0.000000
30
0.000000
71
18
72
13
73
14
0
VERTEX
8
0
6
CONTINUOUS
62
252
70
128
10
0.000000
20
0.000000
30
0.000000
71
18
72
14
73
15
0
VERTEX
8
0
6
CONTINUOUS
62
252
70
128
10
0.000000
20
0.000000
30
0.000000
71
15
72
16
73
18
0
VERTEX
8
0
6
CONTINUOUS
62
252
70
128
10
0.000000
20
0.000000
30
0.000000
71
18
72
16
73
17
0
VERTEX
8
0
6
CONTINUOUS
62
252
70
128
10
0.000000
20
0.000000
30
0.000000
71
20
72
21
73
19
0
VERTEX
8
0
6
CONTINUOUS
62
252
70
128
10
0.000000
20
0.000000
30
0.000000
71
19
72
21
73
22
0
VERTEX
8
0
6
CONTINUOUS
62
252
70
128
10
0.000000
20
0.000000
30
0.000000
71
19
72
22
73
23
0
VERTEX
8
0
6
CONTINUOUS
62
252
70
128
10
0.000000
20
0.000000
30
0.000000
71
23
72
24
73
19
0
VERTEX
8
0
6
CONTINUOUS
62
252
70
128
10
0.000000
20
0.000000
30
0.000000
71
19
72
24
73
25
0
VERTEX
8
0
6
CONTINUOUS
62
252
70
128
10
0.000000
20
0.000000
30
0.000000
71
19
72
25
73
26
0
VERTEX
8
0
6
CONTINUOUS
62
252
70
128
10
0.000000
20
0.000000
30
0.000000
71
26
72
27
73
19
0
VERTEX
8
0
6
CONTINUOUS
62
252
70
128
10
0.000000
20
0.000000
30
0.000000
71
19
72
27
73
28
0
VERTEX
8
0
6
CONTINUOUS
62
252
70
128
10
0.000000
20
0.000000
30
0.000000
71
19
72
28
73
29
0
VERTEX
8
0
6
CONTINUOUS
62
252
70
128
10
0.000000
20
0.000000
30
0.000000
71
29
72
30
73
19
0
SEQEND
0
POLYLINE
66
1
8
0
6
CONTINUOUS
62
252
70
64
75
0
10
0.000000
20
0.000000
30
0.000000
0
VERTEX
8
0
6
CONTINUOUS
62
252
70
192
10
9.141126
20
-0.000000
30
-20.622951
0
VERTEX
8
0
6
CONTINUOUS
62
252
70
192
10
9.178855
20
-0.007949
30
-20.724164
0
VERTEX
8
0
6
CONTINUOUS
62
252
70
192
10
9.216692
20
-0.031932
30
-20.826178
0
VERTEX
8
0
6
CONTINUOUS
62
252
70
192
10
9.253070
20
-0.072132
30
-20.924762
0
VERTEX
8
0
6
CONTINUOUS
62
252
70
192
10
9.286635
20
-0.127443
30
-21.016173
0
VERTEX
8
0
6
CONTINUOUS
62
252
70
192
10
9.316348
20
-0.194725
30
-21.097447
0
VERTEX
8
0
6
CONTINUOUS
62
252
70
192
10
9.341746
20
-0.272290
30
-21.167192
0
VERTEX
8
0
6
CONTINUOUS
62
252
70
192
10
9.363613
20
-0.362417
30
-21.227442
0
VERTEX
8
0
6
CONTINUOUS
62
252
70
192
10
9.380976
20
-0.462478
30
-21.275415
0
VERTEX
8
0
6
CONTINUOUS
62
252
70
192
10
9.392911
20
-0.569158
30
-21.308458
0
VERTEX
8
0
6
CONTINUOUS
62
252
70
192
10
9.399297
20
-0.678153
30
-21.326164
0
VERTEX
8
0
6
CONTINUOUS
62
252
70
192
10
9.400211
20
-0.785486
30
-21.328701
0
VERTEX
8
0
6
CONTINUOUS
62
252
70
192
10
9.395673
20
-0.894235
30
-21.316112
0
VERTEX
8
0
6
CONTINUOUS
62
252
70
192
10
9.385612
20
-1.002203
30
-21.288244
0
VERTEX
8
0
6
CONTINUOUS
62
252
70
192
10
9.370008
20
-1.104904
30
-21.245097
0
VERTEX
8
0
6
CONTINUOUS
62
252
70
192
10
9.349529
20
-1.198713
30
-21.188617
0
VERTEX
8
0
6
CONTINUOUS
62
252
70
192
10
9.325294
20
-1.280549
30
-21.121984
0
VERTEX
8
0
6
CONTINUOUS
62
252
70
192
10
9.297103
20
-1.351112
30
-21.044768
0
VERTEX
8
0
6
CONTINUOUS
62
252
70
192
10
9.264720
20
-1.410816
30
-20.956441
0
VERTEX
8
0
6
CONTINUOUS
62
252
70
192
10
9.229160
20
-1.456370
30
-20.859908
0
VERTEX
8
0
6
CONTINUOUS
62
252
70
192
10
9.191640
20
-1.485788
30
-20.758577
0
VERTEX
8
0
6
CONTINUOUS
62
252
70
192
10
9.153700
20
-1.499104
30
-20.656621
0
VERTEX
8
0
6
CONTINUOUS
62
252
70
192
10
9.116091
20
-1.496501
30
-20.556088
0
VERTEX
8
0
6
CONTINUOUS
62
252
70
192
10
9.077712
20
-1.477921
30
-20.454020
0
VERTEX
8
0
6
CONTINUOUS
62
252
70
192
10
9.039952
20
-1.443154
30
-20.354096
0
VERTEX
8
0
6
CONTINUOUS
62
252
70
192
10
9.004341
20
-1.392564
30
-20.260329
0
VERTEX
8
0
6
CONTINUOUS
62
252
70
192
10
8.972099
20
-1.328875
30
-20.175805
0
VERTEX
8
0
6
CONTINUOUS
62
252
70
192
10
8.944222
20
-1.255017
30
-20.103014
0
VERTEX
8
0
6
CONTINUOUS
62
252
70
192
10
8.919960
20
-1.168833
30
-20.039877
0
VERTEX
8
0
6
CONTINUOUS
62
252
70
192
10
8.899939
20
-1.071696
30
-19.987923
0
VERTEX
8
0
6
CONTINUOUS
62
252
70
192
10
8.885345
20
-0.966756
30
-19.950133
0
VERTEX
8
0
6
CONTINUOUS
62
252
70
192
10
8.876623
20
-0.858007
30
-19.927583
0
VERTEX
8
0
6
CONTINUOUS
62
252
70
192
10
8.873727
20
-0.750000
30
-19.920108
0
VERTEX
8
0
6
CONTINUOUS
62
252
70
192
10
8.870839
20
-0.857908
30
-19.912645
0
VERTEX
8
0
6
CONTINUOUS
62
252
70
192
10
8.862118
20
-0.966561
30
-19.890143
0
VERTEX
8
0
6
CONTINUOUS
62
252
70
192
10
8.847487
20
-1.071424
30
-19.852449
0
VERTEX
8
0
6
CONTINUOUS
62
252
70
192
10
8.827339
20
-1.168509
30
-19.800651
0
VERTEX
8
0
6
CONTINUOUS
62
252
70
192
10
8.802800
20
-1.254679
30
-19.737742
0
VERTEX
8
0
6
CONTINUOUS
62
252
70
192
10
8.774443
20
-1.328538
30
-19.665290
0
VERTEX
8
0
6
CONTINUOUS
62
252
70
192
10
8.741419
20
-1.392258
30
-19.581236
0
VERTEX
8
0
6
CONTINUOUS
62
252
70
192
10
8.704659
20
-1.442917
30
-19.488075
0
VERTEX
8
0
6
CONTINUOUS
62
252
70
192
10
8.665336
20
-1.477775
30
-19.388902
0
VERTEX
8
0
6
CONTINUOUS
62
252
70
192
10
8.625018
20
-1.496446
30
-19.287701
0
VERTEX
8
0
6
CONTINUOUS
62
252
70
192
10
8.585159
20
-1.499128
30
-19.188140
0
VERTEX
8
0
6
CONTINUOUS
62
252
70
192
10
8.544593
20
-1.485867
30
-19.087319
0
VERTEX
8
0
6
CONTINUOUS
62
252
70
192
10
8.504138
20
-1.456477
30
-18.987241
0
VERTEX
8
0
6
CONTINUOUS
62
252
70
192
10
8.465469
20
-1.410921
30
-18.892042
0
VERTEX
8
0
6
CONTINUOUS
62
252
70
192
10
8.429984
20
-1.351194
30
-18.805066
0
VERTEX
8
0
6
CONTINUOUS
62
252
70
192
10
8.398891
20
-1.280607
30
-18.729145
0
VERTEX
8
0
6
CONTINUOUS
62
252
70
192
10
8.372001
20
-1.198749
30
-18.663718
0
VERTEX
8
0
6
CONTINUOUS
62
252
70
192
10
8.349173
20
-1.104948
30
-18.608329
0
VERTEX
8
0
6
CONTINUOUS
62
252
70
192
10
8.331710
20
-1.002285
30
-18.566055
0
VERTEX
8
0
6
CONTINUOUS
62
252
70
192
10
8.320417
20
-0.894382
30
-18.538760
0
VERTEX
8
0
6
CONTINUOUS
62
252
70
192
10
8.315304
20
-0.785712
30
-18.526420
0
VERTEX
8
0
6
CONTINUOUS
62
252
70
192
10
8.316317
20
-0.678473
30
-18.528864
0
VERTEX
8
0
6
CONTINUOUS
62
252
70
192
10
8.323471
20
-0.569554
30
-18.546139
0
VERTEX
8
0
6
CONTINUOUS
62
252
70
192
10
8.336826
20
-0.462908
30
-18.578431
0
VERTEX
8
0
6
CONTINUOUS
62
252
70
192
10
8.356207
20
-0.362836
30
-18.625380
0
VERTEX
8
0
6
CONTINUOUS
62
252
70
192
10
8.380526
20
-0.272652
30
-18.684438
0
VERTEX
8
0
6
CONTINUOUS
62
252
70
192
10
8.408634
20
-0.195006
30
-18.752904
0
VERTEX
8
0
6
CONTINUOUS
62
252
70
192
10
8.441315
20
-0.127648
30
-18.832801
0
VERTEX
8
0
6
CONTINUOUS
62
252
70
192
10
8.477989
20
-0.072254
30
-18.922818
0
VERTEX
8
0
6
CONTINUOUS
62
252
70
192
10
8.517427
20
-0.031984
30
-19.020063
0
VERTEX
8
0
6
CONTINUOUS
62
252
70
192
10
8.558107
20
-0.007962
30
-19.120852
0
VERTEX
8
0
6
CONTINUOUS
62
252
70
192
10
8.598334
20
-0.000000
30
-19.220992
0
VERTEX
8
0
6
CONTINUOUS
62
252
70
192
10
6.725080
20
-0.000000
30
-14.993629
0
VERTEX
8
0
6
CONTINUOUS
62
252
70
192
10
4.552420
20
-0.000000
30
-10.912058
0
VERTEX
8
0
6
CONTINUOUS
62
252
70
192
10
2.091621
20
-0.000000
30
-6.997451
0
VERTEX
8
0
6
CONTINUOUS
62
252
70
192
10
2.091621
20
-40.000000
30
-6.997451
0
VERTEX
8
0
6
CONTINUOUS
62
252
70
192
10
7.064022
20
-40.000000
30
-15.700636
0
VERTEX
8
0
6
CONTINUOUS
62
252
70
192
10
10.621145
20
-40.000000
30
-25.071712
0
VERTEX
8
0
6
CONTINUOUS
62
252
70
192
10
12.676282
20
-40.000000
30
-34.882248
0
VERTEX
8
0
6
CONTINUOUS
62
252
70
192
10
13.179335
20
-40.000000
30
-44.893099
0
VERTEX
8
0
6
CONTINUOUS
62
252
70
192
10
12.118043
20
-40.000000
30
-54.860238
0
VERTEX
8
0
6
CONTINUOUS
62
252
70
192
10
12.118043
20
-0.000000
30
-54.860238
0
VERTEX
8
0
6
CONTINUOUS
62
252
70
192
10
13.128124
20
-0.000000
30
-46.228133
0
VERTEX
8
0
6
CONTINUOUS
62
252
70
192
10
12.963068
20
-0.000000
30
-37.538699
0
VERTEX
8
0
6
CONTINUOUS
62
252
70
192
10
11.625901
20
-0.000000
30
-28.951180
0
VERTEX
8
0
6
CONTINUOUS
62
252
70
128
10
0.000000
20
0.000000
30
0.000000
71
1
72
2
73
78
0
VERTEX
8
0
6
CONTINUOUS
62
252
70
128
10
0.000000
20
0.000000
30
0.000000
71
78
72
2
73
3
0
VERTEX
8
0
6
CONTINUOUS
62
252
70
128
10
0.000000
20
0.000000
30
0.000000
71
78
72
3
73
4
0
VERTEX
8
0
6
CONTINUOUS
62
252
70
128
10
0.000000
20
0.000000
30
0.000000
71
4
72
5
73
78
0
VERTEX
8
0
6
CONTINUOUS
62
252
70
128
10
0.000000
20
0.000000
30
0.000000
71
78
72
5
73
6
0
VERTEX
8
0
6
CONTINUOUS
62
252
70
128
10
0.000000
20
0.000000
30
0.000000
71
78
72
6
73
7
0
VERTEX
8
0
6
CONTINUOUS
62
252
70
128
10
0.000000
20
0.000000
30
0.000000
71
7
72
8
73
78
0
VERTEX
8
0
6
CONTINUOUS
62
252
70
128
10
0.000000
20
0.000000
30
0.000000
71
78
72
8
73
9
0
VERTEX
8
0
6
CONTINUOUS
62
252
70
128
10
0.000000
20
0.000000
30
0.000000
71
78
72
9
73
10
0
VERTEX
8
0
6
CONTINUOUS
62
252
70
128
10
0.000000
20
0.000000
30
0.000000
71
10
72
11
73
78
0
VERTEX
8
0
6
CONTINUOUS
62
252
70
128
10
0.000000
20
0.000000
30
0.000000
71
78
72
11
73
12
0
VERTEX
8
0
6
CONTINUOUS
62
252
70
128
10
0.000000
20
0.000000
30
0.000000
71
78
72
12
73
71
0
VERTEX
8
0
6
CONTINUOUS
62
252
70
128
10
0.000000
20
0.000000
30
0.000000
71
71
72
12
73
13
0
VERTEX
8
0
6
CONTINUOUS
62
252
70
128
10
0.000000
20
0.000000
30
0.000000
71
71
72
13
73
14
0
VERTEX
8
0
6
CONTINUOUS
62
252
70
128
10
0.000000
20
0.000000
30
0.000000
71
14
72
15
73
71
0
VERTEX
8
0
6
CONTINUOUS
62
252
70
128
10
0.000000
20
0.000000
30
0.000000
71
71
72
15
73
16
0
VERTEX
8
0
6
CONTINUOUS
62
252
70
128
10
0.000000
20
0.000000
30
0.000000
71
71
72
16
73
17
0
VERTEX
8
0
6
CONTINUOUS
62
252
70
128
10
0.000000
20
0.000000
30
0.000000
71
17
72
18
73
71
0
VERTEX
8
0
6
CONTINUOUS
62
252
70
128
10
0.000000
20
0.000000
30
0.000000
71
71
72
18
73
19
0
VERTEX
8
0
6
CONTINUOUS
62
252
70
128
10
0.000000
20
0.000000
30
0.000000
71
71
72
19
73
20
0
VERTEX
8
0
6
CONTINUOUS
62
252
70
128
10
0.000000
20
0.000000
30
0.000000
71
20
72
21
73
71
0
VERTEX
8
0
6
CONTINUOUS
62
252
70
128
10
0.000000
20
0.000000
30
0.000000
71
71
72
21
73
22
0
VERTEX
8
0
6
CONTINUOUS
62
252
70
128
10
0.000000
20
0.000000
30
0.000000
71
71
72
22
73
23
0
VERTEX
8
0
6
CONTINUOUS
62
252
70
128
10
0.000000
20
0.000000
30
0.000000
71
23
72
24
73
71
0
VERTEX
8
0
6
CONTINUOUS
62
252
70
128
10
0.000000
20
0.000000
30
0.000000
71
71
72
24
73
70
0
VERTEX
8
0
6
CONTINUOUS
62
252
70
128
10
0.000000
20
0.000000
30
0.000000
71
70
72
24
73
25
0
VERTEX
8
0
6
CONTINUOUS
62
252
70
128
10
0.000000
20
0.000000
30
0.000000
71
70
72
25
73
41
0
VERTEX
8
0
6
CONTINUOUS
62
252
70
128
10
0.000000
20
0.000000
30
0.000000
71
41
72
25
73
26
0
VERTEX
8
0
6
CONTINUOUS
62
252
70
128
10
0.000000
20
0.000000
30
0.000000
71
41
72
26
73
40
0
VERTEX
8
0
6
CONTINUOUS
62
252
70
128
10
0.000000
20
0.000000
30
0.000000
71
40
72
26
73
27
0
VERTEX
8
0
6
CONTINUOUS
62
252
70
128
10
0.000000
20
0.000000
30
0.000000
71
40
72
27
73
39
0
VERTEX
8
0
6
CONTINUOUS
62
252
70
128
10
0.000000
20
0.000000
30
0.000000
71
39
72
27
73
28
0
VERTEX
8
0
6
CONTINUOUS
62
252
70
128
10
0.000000
20
0.000000
30
0.000000
71
39
72
28
73
38
0
VERTEX
8
0
6
CONTINUOUS
62
252
70
128
10
0.000000
20
0.000000
30
0.000000
71
38
72
28
73
29
0
VERTEX
8
0
6
CONTINUOUS
62
252
70
128
10
0.000000
20
0.000000
30
0.000000
71
38
72
29
73
37
0
VERTEX
8
0
6
CONTINUOUS
62
252
70
128
10
0.000000
20
0.000000
30
0.000000
71
37
72
29
73
30
0
VERTEX
8
0
6
CONTINUOUS
62
252
70
128
10
0.000000
20
0.000000
30
0.000000
71
37
72
30
73
36
0
VERTEX
8
0
6
CONTINUOUS
62
252
70
128
10
0.000000
20
0.000000
30
0.000000
71
36
72
30
73
31
0
VERTEX
8
0
6
CONTINUOUS
62
252
70
128
10
0.000000
20
0.000000
30
0.000000
71
36
72
31
73
35
0
VERTEX
8
0
6
CONTINUOUS
62
252
70
128
10
0.000000
20
0.000000
30
0.000000
71
35
72
31
73
32
0
VERTEX
8
0
6
CONTINUOUS
62
252
70
128
10
0.000000
20
0.000000
30
0.000000
71
35
72
32
73
34
0
VERTEX
8
0
6
CONTINUOUS
62
252
70
128
10
0.000000
20
0.000000
30
0.000000
71
34
72
32
73
33
0
VERTEX
8
0
6
CONTINUOUS
62
252
70
128
10
0.000000
20
0.000000
30
0.000000
71
41
72
42
73
70
0
VERTEX
8
0
6
CONTINUOUS
62
252
70
128
10
0.000000
20
0.000000
30
0.000000
71
70
72
42
73
43
0
VERTEX
8
0
6
CONTINUOUS
62
252
70
128
10
0.000000
20
0.000000
30
0.000000
71
70
72
43
73
44
0
VERTEX
8
0
6
CONTINUOUS
62
252
70
128
10
0.000000
20
0.000000
30
0.000000
71
44
72
45
73
70
0
VERTEX
8
0
6
CONTINUOUS
62
252
70
128
10
0.000000
20
0.000000
30
0.000000
71
70
72
45
73
46
0
VERTEX
8
0
6
CONTINUOUS
62
252
70
128
10
0.000000
20
0.000000
30
0.000000
71
70
72
46
73
47
0
VERTEX
8
0
6
CONTINUOUS
62
252
70
128
10
0.000000
20
0.000000
30
0.000000
71
47
72
48
73
70
0
VERTEX
8
0
6
CONTINUOUS
62
252
70
128
10
0.000000
20
0.000000
30
0.000000
71
70
72
48
73
49
0
VERTEX
8
0
6
CONTINUOUS
62
252
70
128
10
0.000000
20
0.000000
30
0.000000
71
70
72
49
73
50
0
VERTEX
8
0
6
CONTINUOUS
62
252
70
128
10
0.000000
20
0.000000
30
0.000000
71
50
72
51
73
70
0
VERTEX
8
0
6
CONTINUOUS
62
252
70
128
10
0.000000
20
0.000000
30
0.000000
71
70
72
51
73
52
0
VERTEX
8
0
6
CONTINUOUS
62
252
70
128
10
0.000000
20
0.000000
30
0.000000
71
70
72
52
73
53
0
VERTEX
8
0
6
CONTINUOUS
62
252
70
128
10
0.000000
20
0.000000
30
0.000000
71
70
72
53
73
66
0
VERTEX
8
0
6
CONTINUOUS
62
252
70
128
10
0.000000
20
0.000000
30
0.000000
71
66
72
53
73
54
0
VERTEX
8
0
6
CONTINUOUS
62
252
70
128
10
0.000000
20
0.000000
30
0.000000
71
66
72
54
73
55
0
VERTEX
8
0
6
CONTINUOUS
62
252
70
128
10
0.000000
20
0.000000
30
0.000000
71
55
72
56
73
66
0
VERTEX
8
0
6
CONTINUOUS
62
252
70
128
10
0.000000
20
0.000000
30
0.000000
71
66
72
56
73
57
0
VERTEX
8
0
6
CONTINUOUS
62
252
70
128
10
0.000000
20
0.000000
30
0.000000
71
66
72
57
73
58
0
VERTEX
8
0
6
CONTINUOUS
62
252
70
128
10
0.000000
20
0.000000
30
0.000000
71
58
72
59
73
66
0
VERTEX
8
0
6
CONTINUOUS
62
252
70
128
10
0.000000
20
0.000000
30
0.000000
71
66
72
59
73
60
0
VERTEX
8
0
6
CONTINUOUS
62
252
70
128
10
0.000000
20
0.000000
30
0.000000
71
66
72
60
73
61
0
VERTEX
8
0
6
CONTINUOUS
62
252
70
128
10
0.000000
20
0.000000
30
0.000000
71
61
72
62
73
66
0
VERTEX
8
0
6
CONTINUOUS
62
252
70
128
10
0.000000
20
0.000000
30
0.000000
71
66
72
62
73
63
0
VERTEX
8
0
6
CONTINUOUS
62
252
70
128
10
0.000000
20
0.000000
30
0.000000
71
66
72
63
73
64
0
VERTEX
8
0
6
CONTINUOUS
62
252
70
128
10
0.000000
20
0.000000
30
0.000000
71
64
72
65
73
66
0
VERTEX
8
0
6
CONTINUOUS
62
252
70
128
10
0.000000
20
0.000000
30
0.000000
71
66
72
67
73
70
0
VERTEX
8
0
6
CONTINUOUS
62
252
70
128
10
0.000000
20
0.000000
30
0.000000
71
70
72
67
73
69
0
VERTEX
8
0
6
CONTINUOUS
62
252
70
128
10
0.000000
20
0.000000
30
0.000000
71
69
72
67
73
68
0
VERTEX
8
0
6
CONTINUOUS
62
252
70
128
10
0.000000
20
0.000000
30
0.000000
71
71
72
72
73
78
0
VERTEX
8
0
6
CONTINUOUS
62
252
70
128
10
0.000000
20
0.000000
30
0.000000
71
78
72
72
73
77
0
VERTEX
8
0
6
CONTINUOUS
62
252
70
128
10
0.000000
20
0.000000
30
0.000000
71
77
72
72
73
73
0
VERTEX
8
0
6
CONTINUOUS
62
252
70
128
10
0.000000
20
0.000000
30
0.000000
71
77
72
73
73
76
0
VERTEX
8
0
6
CONTINUOUS
62
252
70
128
10
0.000000
20
0.000000
30
0.000000
71
76
72
73
73
74
0
VERTEX
8
0
6
CONTINUOUS
62
252
70
128
10
0.000000
20
0.000000
30
0.000000
71
76
72
74
73
75
0
SEQEND
0
POLYLINE
66
1
8
0
6
CONTINUOUS
62
252
70
64
75
0
10
0.000000
20
0.000000
30
0.000000
0
VERTEX
8
0
6
CONTINUOUS
62
252
70
192
10
8.873727
20
-0.750000
30
-19.920108
0
VERTEX
8
0
6
CONTINUOUS
62
252
70
192
10
8.872445
20
-0.678355
30
-19.916794
0
VERTEX
8
0
6
CONTINUOUS
62
252
70
192
10
8.868583
20
-0.605706
30
-19.906819
0
VERTEX
8
0
6
CONTINUOUS
62
252
70
192
10
8.862114
20
-0.533399
30
-19.890132
0
VERTEX
8
0
6
CONTINUOUS
62
252
70
192
10
8.853014
20
-0.462782
30
-19.866680
0
VERTEX
8
0
6
CONTINUOUS
62
252
70
192
10
8.841321
20
-0.395130
30
-19.836581
0
VERTEX
8
0
6
CONTINUOUS
62
252
70
192
10
8.827322
20
-0.331423
30
-19.800608
0
VERTEX
8
0
6
CONTINUOUS
62
252
70
192
10
8.811372
20
-0.272570
30
-19.759696
0
VERTEX
8
0
6
CONTINUOUS
62
252
70
192
10
8.793824
20
-0.219481
30
-19.714779
0
VERTEX
8
0
6
CONTINUOUS
62
252
70
192
10
8.774409
20
-0.171386
30
-19.665203
0
VERTEX
8
0
6
CONTINUOUS
62
252
70
192
10
8.752854
20
-0.127619
30
-19.610302
0
VERTEX
8
0
6
CONTINUOUS
62
252
70
192
10
8.729478
20
-0.089168
30
-19.550929
0
VERTEX
8
0
6
CONTINUOUS
62
252
70
192
10
8.704602
20
-0.057019
30
-19.487933
0
VERTEX
8
0
6
CONTINUOUS
62
252
70
192
10
8.678573
20
-0.031984
30
-19.422233
0
VERTEX
8
0
6
CONTINUOUS
62
252
70
192
10
8.651855
20
-0.014176
30
-19.355011
0
VERTEX
8
0
6
CONTINUOUS
62
252
70
192
10
8.624944
20
-0.003534
30
-19.287516
0
VERTEX
8
0
6
CONTINUOUS
62
252
70
192
10
8.598334
20
-0.000000
30
-19.220992
0
VERTEX
8
0
6
CONTINUOUS
62
252
70
192
10
8.558107
20
-0.007962
30
-19.120852
0
VERTEX
8
0
6
CONTINUOUS
62
252
70
192
10
8.517427
20
-0.031984
30
-19.020063
0
VERTEX
8
0
6
CONTINUOUS
62
252
70
192
10
8.477989
20
-0.072254
30
-18.922818
0
VERTEX
8
0
6
CONTINUOUS
62
252
70
192
10
8.441315
20
-0.127648
30
-18.832801
0
VERTEX
8
0
6
CONTINUOUS
62
252
70
192
10
8.408634
20
-0.195006
30
-18.752904
0
VERTEX
8
0
6
CONTINUOUS
62
252
70
192
10
8.380526
20
-0.272652
30
-18.684438
0
VERTEX
8
0
6
CONTINUOUS
62
252
70
192
10
8.356207
20
-0.362836
30
-18.625380
0
VERTEX
8
0
6
CONTINUOUS
62
252
70
192
10
8.336826
20
-0.462908
30
-18.578431
0
VERTEX
8
0
6
CONTINUOUS
62
252
70
192
10
8.323471
20
-0.569554
30
-18.546139
0
VERTEX
8
0
6
CONTINUOUS
62
252
70
192
10
8.316317
20
-0.678473
30
-18.528864
0
VERTEX
8
0
6
CONTINUOUS
62
252
70
192
10
8.315304
20
-0.785712
30
-18.526420
0
VERTEX
8
0
6
CONTINUOUS
62
252
70
192
10
8.320417
20
-0.894382
30
-18.538760
0
VERTEX
8
0
6
CONTINUOUS
62
252
70
192
10
8.331710
20
-1.002285
30
-18.566055
0
VERTEX
8
0
6
CONTINUOUS
62
252
70
192
10
8.349173
20
-1.104948
30
-18.608329
0
VERTEX
8
0
6
CONTINUOUS
62
252
70
192
10
8.372001
20
-1.198749
30
-18.663718
0
VERTEX
8
0
6
CONTINUOUS
62
252
70
192
10
8.398891
20
-1.280607
30
-18.729145
0
VERTEX
8
0
6
CONTINUOUS
62
252
70
192
10
8.429984
20
-1.351194
30
-18.805066
0
VERTEX
8
0
6
CONTINUOUS
62
252
70
192
10
8.465469
20
-1.410921
30
-18.892042
0
VERTEX
8
0
6
CONTINUOUS
62
252
70
192
10
8.504138
20
-1.456477
30
-18.987241
0
VERTEX
8
0
6
CONTINUOUS
62
252
70
192
10
8.544593
20
-1.485867
30
-19.087319
0
VERTEX
8
0
6
CONTINUOUS
62
252
70
192
10
8.585159
20
-1.499128
30
-19.188140
0
VERTEX
8
0
6
CONTINUOUS
62
252
70
192
10
8.625018
20
-1.496446
30
-19.287701
0
VERTEX
8
0
6
CONTINUOUS
62
252
70
192
10
8.665336
20
-1.477775
30
-19.388902
0
VERTEX
8
0
6
CONTINUOUS
62
252
70
192
10
8.704659
20
-1.442917
30
-19.488075
0
VERTEX
8
0
6
CONTINUOUS
62
252
70
192
10
8.741419
20
-1.392258
30
-19.581236
0
VERTEX
8
0
6
CONTINUOUS
62
252
70
192
10
8.774443
20
-1.328538
30
-19.665290
0
VERTEX
8
0
6
CONTINUOUS
62
252
70
192
10
8.802800
20
-1.254679
30
-19.737742
0
VERTEX
8
0
6
CONTINUOUS
62
252
70
192
10
8.827339
20
-1.168509
30
-19.800651
0
VERTEX
8
0
6
CONTINUOUS
62
252
70
192
10
8.847487
20
-1.071424
30
-19.852449
0
VERTEX
8
0
6
CONTINUOUS
62
252
70
192
10
8.862118
20
-0.966561
30
-19.890143
0
VERTEX
8
0
6
CONTINUOUS
62
252
70
192
10
8.870839
20
-0.857908
30
-19.912645
0
VERTEX
8
0
6
CONTINUOUS
62
252
70
192
10
8.873727
20
-0.750000
30
-19.920108
0
VERTEX
8
0
6
CONTINUOUS
62
252
70
192
10
26.443119
20
-0.750000
30
-11.727366
0
VERTEX
8
0
6
CONTINUOUS
62
252
70
192
10
26.438304
20
-0.880236
30
-11.717039
0
VERTEX
8
0
6
CONTINUOUS
62
252
70
192
10
26.424004
20
-1.006515
30
-11.686373
0
VERTEX
8
0
6
CONTINUOUS
62
252
70
192
10
26.400654
20
-1.125000
30
-11.636299
0
VERTEX
8
0
6
CONTINUOUS
62
252
70
192
10
26.368964
20
-1.232091
30
-11.568339
0
VERTEX
8
0
6
CONTINUOUS
62
252
70
192
10
26.329896
20
-1.324533
30
-11.484557
0
VERTEX
8
0
6
CONTINUOUS
62
252
70
192
10
26.284638
20
-1.399519
30
-11.387500
0
VERTEX
8
0
6
CONTINUOUS
62
252
70
192
10
26.234564
20
-1.454769
30
-11.280116
0
VERTEX
8
0
6
CONTINUOUS
62
252
70
192
10
26.181196
20
-1.488606
30
-11.165669
0
VERTEX
8
0
6
CONTINUOUS
62
252
70
192
10
26.126156
20
-1.500000
30
-11.047635
0
VERTEX
8
0
6
CONTINUOUS
62
252
70
192
10
26.071116
20
-1.488606
30
-10.929601
0
VERTEX
8
0
6
CONTINUOUS
62
252
70
192
10
26.017748
20
-1.454769
30
-10.815153
0
VERTEX
8
0
6
CONTINUOUS
62
252
70
192
10
25.967674
20
-1.399519
30
-10.707769
0
VERTEX
8
0
6
CONTINUOUS
62
252
70
192
10
25.922415
20
-1.324533
30
-10.610712
0
VERTEX
8
0
6
CONTINUOUS
62
252
70
192
10
25.883347
20
-1.232091
30
-10.526931
0
VERTEX
8
0
6
CONTINUOUS
62
252
70
192
10
25.851657
20
-1.125000
30
-10.458971
0
VERTEX
8
0
6
CONTINUOUS
62
252
70
192
10
25.828307
20
-1.006515
30
-10.408897
0
VERTEX
8
0
6
CONTINUOUS
62
252
70
192
10
25.814007
20
-0.880236
30
-10.378231
0
VERTEX
8
0
6
CONTINUOUS
62
252
70
192
10
25.809192
20
-0.750000
30
-10.367904
0
VERTEX
8
0
6
CONTINUOUS
62
252
70
192
10
25.814007
20
-0.619764
30
-10.378231
0
VERTEX
8
0
6
CONTINUOUS
62
252
70
192
10
25.828307
20
-0.493485
30
-10.408897
0
VERTEX
8
0
6
CONTINUOUS
62
252
70
192
10
25.851657
20
-0.375000
30
-10.458971
0
VERTEX
8
0
6
CONTINUOUS
62
252
70
192
10
25.883347
20
-0.267909
30
-10.526931
0
VERTEX
8
0
6
CONTINUOUS
62
252
70
192
10
25.922415
20
-0.175467
30
-10.610712
0
VERTEX
8
0
6
CONTINUOUS
62
252
70
192
10
25.967674
20
-0.100481
30
-10.707769
0
VERTEX
8
0
6
CONTINUOUS
62
252
70
192
10
26.017748
20
-0.045231
30
-10.815153
0
VERTEX
8
0
6
CONTINUOUS
62
252
70
192
10
26.071116
20
-0.011394
30
-10.929601
0
VERTEX
8
0
6
CONTINUOUS
62
252
70
192
10
26.126156
20
-0.000000
30
-11.047635
0
VERTEX
8
0
6
CONTINUOUS
62
252
70
192
10
26.181196
20
-0.011394
30
-11.165669
0
VERTEX
8
0
6
CONTINUOUS
62
252
70
192
10
26.234564
20
-0.045231
30
-11.280116
0
VERTEX
8
0
6
CONTINUOUS
62
252
70
192
10
26.284638
20
-0.100481
30
-11.387500
0
VERTEX
8
0
6
CONTINUOUS
62
252
70
192
10
26.329896
20
-0.175467
30
-11.484557
0
VERTEX
8
0
6
CONTINUOUS
62
252
70
192
10
26.368964
20
-0.267909
30
-11.568339
0
VERTEX
8
0
6
CONTINUOUS
62
252
70
192
10
26.400654
20
-0.375000
30
-11.636299
0
VERTEX
8
0
6
CONTINUOUS
62
252
70
192
10
26.424004
20
-0.493485
30
-11.686373
0
VERTEX
8
0
6
CONTINUOUS
62
252
70
192
10
26.438304
20
-0.619764
30
-11.717039
0
VERTEX
8
0
6
CONTINUOUS
62
252
70
192
10
26.443119
20
-0.750000
30
-11.727366
0
VERTEX
8
0
6
CONTINUOUS
62
252
70
128
10
0.000000
20
0.000000
30
0.000000
71
1
72
2
73
86
0
VERTEX
8
0
6
CONTINUOUS
62
252
70
128
10
0.000000
20
0.000000
30
0.000000
71
86
72
2
73
85
0
VERTEX
8
0
6
CONTINUOUS
62
252
70
128
10
0.000000
20
0.000000
30
0.000000
71
85
72
2
73
3
0
VERTEX
8
0
6
CONTINUOUS
62
252
70
128
10
0.000000
20
0.000000
30
0.000000
71
85
72
3
73
4
0
VERTEX
8
0
6
CONTINUOUS
62
252
70
128
10
0.000000
20
0.000000
30
0.000000
71
85
72
4
73
84
0
VERTEX
8
0
6
CONTINUOUS
62
252
70
128
10
0.000000
20
0.000000
30
0.000000
71
84
72
4
73
5
0
VERTEX
8
0
6
CONTINUOUS
62
252
70
128
10
0.000000
20
0.000000
30
0.000000
71
84
72
5
73
83
0
VERTEX
8
0
6
CONTINUOUS
62
252
70
128
10
0.000000
20
0.000000
30
0.000000
71
83
72
5
73
6
0
VERTEX
8
0
6
CONTINUOUS
62
252
70
128
10
0.000000
20
0.000000
30
0.000000
71
83
72
6
73
7
0
VERTEX
8
0
6
CONTINUOUS
62
252
70
128
10
0.000000
20
0.000000
30
0.000000
71
83
72
7
73
82
0
VERTEX
8
0
6
CONTINUOUS
62
252
70
128
10
0.000000
20
0.000000
30
0.000000
71
82
72
7
73
8
0
VERTEX
8
0
6
CONTINUOUS
62
252
70
128
10
0.000000
20
0.000000
30
0.000000
71
82
72
8
73
9
0
VERTEX
8
0
6
CONTINUOUS
62
252
70
128
10
0.000000
20
0.000000
30
0.000000
71
82
72
9
73
81
0
VERTEX
8
0
6
CONTINUOUS
62
252
70
128
10
0.000000
20
0.000000
30
0.000000
71
81
72
9
73
10
0
VERTEX
8
0
6
CONTINUOUS
62
252
70
128
10
0.000000
20
0.000000
30
0.000000
71
81
72
10
73
11
0
VERTEX
8
0
6
CONTINUOUS
62
252
70
128
10
0.000000
20
0.000000
30
0.000000
71
81
72
11
73
80
0
VERTEX
8
0
6
CONTINUOUS
62
252
70
128
10
0.000000
20
0.000000
30
0.000000
71
80
72
11
73
12
0
VERTEX
8
0
6
CONTINUOUS
62
252
70
128
10
0.000000
20
0.000000
30
0.000000
71
80
72
12
73
13
0
VERTEX
8
0
6
CONTINUOUS
62
252
70
128
10
0.000000
20
0.000000
30
0.000000
71
80
72
13
73
79
0
VERTEX
8
0
6
CONTINUOUS
62
252
70
128
10
0.000000
20
0.000000
30
0.000000
71
79
72
13
73
14
0
VERTEX
8
0
6
CONTINUOUS
62
252
70
128
10
0.000000
20
0.000000
30
0.000000
71
79
72
14
73
78
0
VERTEX
8
0
6
CONTINUOUS
62
252
70
128
10
0.000000
20
0.000000
30
0.000000
71
78
72
14
73
15
0
VERTEX
8
0
6
CONTINUOUS
62
252
70
128
10
0.000000
20
0.000000
30
0.000000
71
78
72
15
73
16
0
VERTEX
8
0
6
CONTINUOUS
62
252
70
128
10
0.000000
20
0.000000
30
0.000000
71
78
72
16
73
77
0
VERTEX
8
0
6
CONTINUOUS
62
252
70
128
10
0.000000
20
0.000000
30
0.000000
71
77
72
16
73
17
0
VERTEX
8
0
6
CONTINUOUS
62
252
70
128
10
0.000000
20
0.000000
30
0.000000
71
77
72
17
73
18
0
VERTEX
8
0
6
CONTINUOUS
62
252
70
128
10
0.000000
20
0.000000
30
0.000000
71
77
72
18
73
76
0
VERTEX
8
0
6
CONTINUOUS
62
252
70
128
10
0.000000
20
0.000000
30
0.000000
71
76
72
18
73
19
0
VERTEX
8
0
6
CONTINUOUS
62
252
70
128
10
0.000000
20
0.000000
30
0.000000
71
76
72
19
73
75
0
VERTEX
8
0
6
CONTINUOUS
62
252
70
128
10
0.000000
20
0.000000
30
0.000000
71
75
72
19
73
20
0
VERTEX
8
0
6
CONTINUOUS
62
252
70
128
10
0.000000
20
0.000000
30
0.000000
71
75
72
20
73
74
0
VERTEX
8
0
6
CONTINUOUS
62
252
70
128
10
0.000000
20
0.000000
30
0.000000
71
74
72
20
73
21
0
VERTEX
8
0
6
CONTINUOUS
62
252
70
128
10
0.000000
20
0.000000
30
0.000000
71
74
72
21
73
73
0
VERTEX
8
0
6
CONTINUOUS
62
252
70
128
10
0.000000
20
0.000000
30
0.000000
71
73
72
21
73
22
0
VERTEX
8
0
6
CONTINUOUS
62
252
70
128
10
0.000000
20
0.000000
30
0.000000
71
73
72
22
73
72
0
VERTEX
8
0
6
CONTINUOUS
62
252
70
128
10
0.000000
20
0.000000
30
0.000000
71
72
72
22
73
23
0
VERTEX
8
0
6
CONTINUOUS
62
252
70
128
10
0.000000
20
0.000000
30
0.000000
71
72
72
23
73
24
0
VERTEX
8
0
6
CONTINUOUS
62
252
70
128
10
0.000000
20
0.000000
30
0.000000
71
72
72
24
73
71
0
VERTEX
8
0
6
CONTINUOUS
62
252
70
128
10
0.000000
20
0.000000
30
0.000000
71
71
72
24
73
25
0
VERTEX
8
0
6
CONTINUOUS
62
252
70
128
10
0.000000
20
0.000000
30
0.000000
71
71
72
25
73
70
0
VERTEX
8
0
6
CONTINUOUS
62
252
70
128
10
0.000000
20
0.000000
30
0.000000
71
70
72
25
73
26
0
VERTEX
8
0
6
CONTINUOUS
62
252
70
128
10
0.000000
20
0.000000
30
0.000000
71
70
72
26
73
69
0
VERTEX
8
0
6
CONTINUOUS
62
252
70
128
10
0.000000
20
0.000000
30
0.000000
71
69
72
26
73
27
0
VERTEX
8
0
6
CONTINUOUS
62
252
70
128
10
0.000000
20
0.000000
30
0.000000
71
69
72
27
73
68
0
VERTEX
8
0
6
CONTINUOUS
62
252
70
128
10
0.000000
20
0.000000
30
0.000000
71
68
72
27
73
28
0
VERTEX
8
0
6
CONTINUOUS
62
252
70
128
10
0.000000
20
0.000000
30
0.000000
71
68
72
28
73
67
0
VERTEX
8
0
6
CONTINUOUS
62
252
70
128
10
0.000000
20
0.000000
30
0.000000
71
67
72
28
73
29
0
VERTEX
8
0
6
CONTINUOUS
62
252
70
128
10
0.000000
20
0.000000
30
0.000000
71
67
72
29
73
66
0
VERTEX
8
0
6
CONTINUOUS
62
252
70
128
10
0.000000
20
0.000000
30
0.000000
71
66
72
29
73
30
0
VERTEX
8
0
6
CONTINUOUS
62
252
70
128
10
0.000000
20
0.000000
30
0.000000
71
66
72
30
73
31
0
VERTEX
8
0
6
CONTINUOUS
62
252
70
128
10
0.000000
20
0.000000
30
0.000000
71
66
72
31
73
65
0
VERTEX
8
0
6
CONTINUOUS
62
252
70
128
10
0.000000
20
0.000000
30
0.000000
71
65
72
31
73
32
0
VERTEX
8
0
6
CONTINUOUS
62
252
70
128
10
0.000000
20
0.000000
30
0.000000
71
65
72
32
73
64
0
VERTEX
8
0
6
CONTINUOUS
62
252
70
128
10
0.000000
20
0.000000
30
0.000000
71
64
72
32
73
33
0
VERTEX
8
0
6
CONTINUOUS
62
252
70
128
10
0.000000
20
0.000000
30
0.000000
71
64
72
33
73
63
0
VERTEX
8
0
6
CONTINUOUS
62
252
70
128
10
0.000000
20
0.000000
30
0.000000
71
63
72
33
73
34
0
VERTEX
8
0
6
CONTINUOUS
62
252
70
128
10
0.000000
20
0.000000
30
0.000000
71
63
72
34
73
62
0
VERTEX
8
0
6
CONTINUOUS
62
252
70
128
10
0.000000
20
0.000000
30
0.000000
71
62
72
34
73
35
0
VERTEX
8
0
6
CONTINUOUS
62
252
70
128
10
0.000000
20
0.000000
30
0.000000
71
62
72
35
73
61
0
VERTEX
8
0
6
CONTINUOUS
62
252
70
128
10
0.000000
20
0.000000
30
0.000000
71
61
72
35
73
36
0
VERTEX
8
0
6
CONTINUOUS
62
252
70
128
10
0.000000
20
0.000000
30
0.000000
71
61
72
36
73
37
0
VERTEX
8
0
6
CONTINUOUS
62
252
70
128
10
0.000000
20
0.000000
30
0.000000
71
61
72
37
73
60
0
VERTEX
8
0
6
CONTINUOUS
62
252
70
128
10
0.000000
20
0.000000
30
0.000000
71
60
72
37
73
38
0
VERTEX
8
0
6
CONTINUOUS
62
252
70
128
10
0.000000
20
0.000000
30
0.000000
71
60
72
38
73
59
0
VERTEX
8
0
6
CONTINUOUS
62
252
70
128
10
0.000000
20
0.000000
30
0.000000
71
59
72
38
73
39
0
VERTEX
8
0
6
CONTINUOUS
62
252
70
128
10
0.000000
20
0.000000
30
0.000000
71
59
72
39
73
58
0
VERTEX
8
0
6
CONTINUOUS
62
252
70
128
10
0.000000
20
0.000000
30
0.000000
71
58
72
39
73
40
0
VERTEX
8
0
6
CONTINUOUS
62
252
70
128
10
0.000000
20
0.000000
30
0.000000
71
58
72
40
73
57
0
VERTEX
8
0
6
CONTINUOUS
62
252
70
128
10
0.000000
20
0.000000
30
0.000000
71
57
72
40
73
41
0
VERTEX
8
0
6
CONTINUOUS
62
252
70
128
10
0.000000
20
0.000000
30
0.000000
71
57
72
41
73
56
0
VERTEX
8
0
6
CONTINUOUS
62
252
70
128
10
0.000000
20
0.000000
30
0.000000
71
56
72
41
73
42
0
VERTEX
8
0
6
CONTINUOUS
62
252
70
128
10
0.000000
20
0.000000
30
0.000000
71
56
72
42
73
55
0
VERTEX
8
0
6
CONTINUOUS
62
252
70
128
10
0.000000
20
0.000000
30
0.000000
71
55
72
42
73
43
0
VERTEX
8
0
6
CONTINUOUS
62
252
70
128
10
0.000000
20
0.000000
30
0.000000
71
55
72
43
73
44
0
VERTEX
8
0
6
CONTINUOUS
62
252
70
128
10
0.000000
20
0.000000
30
0.000000
71
55
72
44
73
54
0
VERTEX
8
0
6
CONTINUOUS
62
252
70
128
10
0.000000
20
0.000000
30
0.000000
71
54
72
44
73
45
0
VERTEX
8
0
6
CONTINUOUS
62
252
70
128
10
0.000000
20
0.000000
30
0.000000
71
54
72
45
73
53
0
VERTEX
8
0
6
CONTINUOUS
62
252
70
128
10
0.000000
20
0.000000
30
0.000000
71
53
72
45
73
46
0
VERTEX
8
0
6
CONTINUOUS
62
252
70
128
10
0.000000
20
0.000000
30
0.000000
71
53
72
46
73
52
0
VERTEX
8
0
6
CONTINUOUS
62
252
70
128
10
0.000000
20
0.000000
30
0.000000
71
52
72
46
73
47
0
VERTEX
8
0
6
CONTINUOUS
62
252
70
128
10
0.000000
20
0.000000
30
0.000000
71
52
72
47
73
51
0
VERTEX
8
0
6
CONTINUOUS
62
252
70
128
10
0.000000
20
0.000000
30
0.000000
71
51
72
47
73
48
0
VERTEX
8
0
6
CONTINUOUS
62
252
70
128
10
0.000000
20
0.000000
30
0.000000
71
51
72
48
73
50
0
VERTEX
8
0
6
CONTINUOUS
62
252
70
128
10
0.000000
20
0.000000
30
0.000000
71
50
72
48
73
49
0
SEQEND
0
POLYLINE
66
1
8
0
6
CONTINUOUS
62
252
70
64
75
0
10
0.000000
20
0.000000
30
0.000000
0
VERTEX
8
0
6
CONTINUOUS
62
252
70
192
10
26.443119
20
-0.750000
30
-11.727366
0
VERTEX
8
0
6
CONTINUOUS
62
252
70
192
10
26.438304
20
-0.619764
30
-11.717039
0
VERTEX
8
0
6
CONTINUOUS
62
252
70
192
10
26.424004
20
-0.493485
30
-11.686373
0
VERTEX
8
0
6
CONTINUOUS
62
252
70
192
10
26.400654
20
-0.375000
30
-11.636299
0
VERTEX
8
0
6
CONTINUOUS
62
252
70
192
10
26.368964
20
-0.267909
30
-11.568339
0
VERTEX
8
0
6
CONTINUOUS
62
252
70
192
10
26.329896
20
-0.175467
30
-11.484557
0
VERTEX
8
0
6
CONTINUOUS
62
252
70
192
10
26.284638
20
-0.100481
30
-11.387500
0
VERTEX
8
0
6
CONTINUOUS
62
252
70
192
10
26.234564
20
-0.045231
30
-11.280116
0
VERTEX
8
0
6
CONTINUOUS
62
252
70
192
10
26.181196
20
-0.011394
30
-11.165669
0
VERTEX
8
0
6
CONTINUOUS
62
252
70
192
10
26.126156
20
-0.000000
30
-11.047635
0
VERTEX
8
0
6
CONTINUOUS
62
252
70
192
10
26.071116
20
-0.011394
30
-10.929601
0
VERTEX
8
0
6
CONTINUOUS
62
252
70
192
10
26.017748
20
-0.045231
30
-10.815153
0
VERTEX
8
0
6
CONTINUOUS
62
252
70
192
10
25.967674
20
-0.100481
30
-10.707769
0
VERTEX
8
0
6
CONTINUOUS
62
252
70
192
10
25.922415
20
-0.175467
30
-10.610712
0
VERTEX
8
0
6
CONTINUOUS
62
252
70
192
10
25.883347
20
-0.267909
30
-10.526931
0
VERTEX
8
0
6
CONTINUOUS
62
252
70
192
10
25.851657
20
-0.375000
30
-10.458971
0
VERTEX
8
0
6
CONTINUOUS
62
252
70
192
10
25.828307
20
-0.493485
30
-10.408897
0
VERTEX
8
0
6
CONTINUOUS
62
252
70
192
10
25.814007
20
-0.619764
30
-10.378231
0
VERTEX
8
0
6
CONTINUOUS
62
252
70
192
10
25.809192
20
-0.750000
30
-10.367904
0
VERTEX
8
0
6
CONTINUOUS
62
252
70
192
10
25.814007
20
-0.880236
30
-10.378231
0
VERTEX
8
0
6
CONTINUOUS
62
252
70
192
10
25.828307
20
-1.006515
30
-10.408897
0
VERTEX
8
0
6
CONTINUOUS
62
252
70
192
10
25.851657
20
-1.125000
30
-10.458971
0
VERTEX
8
0
6
CONTINUOUS
62
252
70
192
10
25.883347
20
-1.232091
30
-10.526931
0
VERTEX
8
0
6
CONTINUOUS
62
252
70
192
10
25.922415
20
-1.324533
30
-10.610712
0
VERTEX
8
0
6
CONTINUOUS
62
252
70
192
10
25.967674
20
-1.399519
30
-10.707769
0
VERTEX
8
0
6
CONTINUOUS
62
252
70
192
10
26.017748
20
-1.454769
30
-10.815153
0
VERTEX
8
0
6
CONTINUOUS
62
252
70
192
10
26.071116
20
-1.488606
30
-10.929601
0
VERTEX
8
0
6
CONTINUOUS
62
252
70
192
10
26.126156
20
-1.500000
30
-11.047635
0
VERTEX
8
0
6
CONTINUOUS
62
252
70
192
10
26.181196
20
-1.488606
30
-11.165669
0
VERTEX
8
0
6
CONTINUOUS
62
252
70
192
10
26.234564
20
-1.454769
30
-11.280116
0
VERTEX
8
0
6
CONTINUOUS
62
252
70
192
10
26.284638
20
-1.399519
30
-11.387500
0
VERTEX
8
0
6
CONTINUOUS
62
252
70
192
10
26.329896
20
-1.324533
30
-11.484557
0
VERTEX
8
0
6
CONTINUOUS
62
252
70
192
10
26.368964
20
-1.232091
30
-11.568339
0
VERTEX
8
0
6
CONTINUOUS
62
252
70
192
10
26.400654
20
-1.125000
30
-11.636299
0
VERTEX
8
0
6
CONTINUOUS
62
252
70
192
10
26.424004
20
-1.006515
30
-11.686373
0
VERTEX
8
0
6
CONTINUOUS
62
252
70
192
10
26.438304
20
-0.880236
30
-11.717039
0
VERTEX
8
0
6
CONTINUOUS
62
252
70
128
10
0.000000
20
0.000000
30
0.000000
71
2
72
16
73
1
0
VERTEX
8
0
6
CONTINUOUS
62
252
70
128
10
0.000000
20
0.000000
30
0.000000
71
1
72
16
73
17
0
VERTEX
8
0
6
CONTINUOUS
62
252
70
128
10
0.000000
20
0.000000
30
0.000000
71
1
72
17
73
18
0
VERTEX
8
0
6
CONTINUOUS
62
252
70
128
10
0.000000
20
0.000000
30
0.000000
71
2
72
3
73
16
0
VERTEX
8
0
6
CONTINUOUS
62
252
70
128
10
0.000000
20
0.000000
30
0.000000
71
16
72
3
73
4
0
VERTEX
8
0
6
CONTINUOUS
62
252
70
128
10
0.000000
20
0.000000
30
0.000000
71
16
72
4
73
5
0
VERTEX
8
0
6
CONTINUOUS
62
252
70
128
10
0.000000
20
0.000000
30
0.000000
71
6
72
12
73
5
0
VERTEX
8
0
6
CONTINUOUS
62
252
70
128
10
0.000000
20
0.000000
30
0.000000
71
5
72
12
73
13
0
VERTEX
8
0
6
CONTINUOUS
62
252
70
128
10
0.000000
20
0.000000
30
0.000000
71
5
72
13
73
14
0
VERTEX
8
0
6
CONTINUOUS
62
252
70
128
10
0.000000
20
0.000000
30
0.000000
71
6
72
7
73
12
0
VERTEX
8
0
6
CONTINUOUS
62
252
70
128
10
0.000000
20
0.000000
30
0.000000
71
12
72
7
73
11
0
VERTEX
8
0
6
CONTINUOUS
62
252
70
128
10
0.000000
20
0.000000
30
0.000000
71
11
72
7
73
8
0
VERTEX
8
0
6
CONTINUOUS
62
252
70
128
10
0.000000
20
0.000000
30
0.000000
71
11
72
8
73
9
0
VERTEX
8
0
6
CONTINUOUS
62
252
70
128
10
0.000000
20
0.000000
30
0.000000
71
9
72
10
73
11
0
VERTEX
8
0
6
CONTINUOUS
62
252
70
128
10
0.000000
20
0.000000
30
0.000000
71
14
72
15
73
5
0
VERTEX
8
0
6
CONTINUOUS
62
252
70
128
10
0.000000
20
0.000000
30
0.000000
71
5
72
15
73
16
0
VERTEX
8
0
6
CONTINUOUS
62
252
70
128
10
0.000000
20
0.000000
30
0.000000
71
18
72
19
73
1
0
VERTEX
8
0
6
CONTINUOUS
62
252
70
128
10
0.000000
20
0.000000
30
0.000000
71
1
72
19
73
20
0
VERTEX
8
0
6
CONTINUOUS
62
252
70
128
10
0.000000
20
0.000000
30
0.000000
71
1
72
20
73
36
0
VERTEX
8
0
6
CONTINUOUS
62
252
70
128
10
0.000000
20
0.000000
30
0.000000
71
36
72
20
73
21
0
VERTEX
8
0
6
CONTINUOUS
62
252
70
128
10
0.000000
20
0.000000
30
0.000000
71
36
72
21
73
22
0
VERTEX
8
0
6
CONTINUOUS
62
252
70
128
10
0.000000
20
0.000000
30
0.000000
71
23
72
31
73
22
0
VERTEX
8
0
6
CONTINUOUS
62
252
70
128
10
0.000000
20
0.000000
30
0.000000
71
22
72
31
73
32
0
VERTEX
8
0
6
CONTINUOUS
62
252
70
128
10
0.000000
20
0.000000
30
0.000000
71
22
72
32
73
33
0
VERTEX
8
0
6
CONTINUOUS
62
252
70
128
10
0.000000
20
0.000000
30
0.000000
71
23
72
24
73
31
0
VERTEX
8
0
6
CONTINUOUS
62
252
70
128
10
0.000000
20
0.000000
30
0.000000
71
31
72
24
73
25
0
VERTEX
8
0
6
CONTINUOUS
62
252
70
128
10
0.000000
20
0.000000
30
0.000000
71
31
72
25
73
30
0
VERTEX
8
0
6
CONTINUOUS
62
252
70
128
10
0.000000
20
0.000000
30
0.000000
71
30
72
25
73
29
0
VERTEX
8
0
6
CONTINUOUS
62
252
70
128
10
0.000000
20
0.000000
30
0.000000
71
29
72
25
73
26
0
VERTEX
8
0
6
CONTINUOUS
62
252
70
128
10
0.000000
20
0.000000
30
0.000000
71
29
72
26
73
27
0
VERTEX
8
0
6
CONTINUOUS
62
252
70
128
10
0.000000
20
0.000000
30
0.000000
71
27
72
28
73
29
0
VERTEX
8
0
6
CONTINUOUS
62
252
70
128
10
0.000000
20
0.000000
30
0.000000
71
33
72
34
73
22
0
VERTEX
8
0
6
CONTINUOUS
62
252
70
128
10
0.000000
20
0.000000
30
0.000000
71
22
72
34
73
35
0
VERTEX
8
0
6
CONTINUOUS
62
252
70
128
10
0.000000
20
0.000000
30
0.000000
71
22
72
35
73
36
0
SEQEND
0
POLYLINE
66
1
8
0
6
CONTINUOUS
62
252
70
64
75
0
10
0.000000
20
0.000000
30
0.000000
0
VERTEX
8
0
6
CONTINUOUS
62
252
70
192
10
-29.660577
20
-25.800000
30
17.451391
0
VERTEX
8
0
6
CONTINUOUS
62
252
70
192
10
-29.296741
20
-25.800000
30
17.321963
0
VERTEX
8
0
6
CONTINUOUS
62
252
70
192
10
-28.933691
20
-25.800000
30
17.190349
0
VERTEX
8
0
6
CONTINUOUS
62
252
70
192
10
-28.571439
20
-25.800000
30
17.056554
0
VERTEX
8
0
6
CONTINUOUS
62
252
70
192
10
-25.983220
20
-25.800000
30
16.027274
0
VERTEX
8
0
6
CONTINUOUS
62
252
70
192
10
-23.442083
20
-25.800000
30
14.886697
0
VERTEX
8
0
6
CONTINUOUS
62
252
70
192
10
-20.952811
20
-25.800000
30
13.636970
0
VERTEX
8
0
6
CONTINUOUS
62
252
70
192
10
-20.071412
20
-25.800000
30
13.161420
0
VERTEX
8
0
6
CONTINUOUS
62
252
70
192
10
-19.197538
20
-25.800000
30
12.672178
0
VERTEX
8
0
6
CONTINUOUS
62
252
70
192
10
-18.331402
20
-25.800000
30
12.169365
0
VERTEX
8
0
6
CONTINUOUS
62
252
70
192
10
-17.483255
20
-25.800000
30
13.988221
0
VERTEX
8
0
6
CONTINUOUS
62
252
70
192
10
-17.685487
20
-25.800000
30
14.106472
0
VERTEX
8
0
6
CONTINUOUS
62
252
70
192
10
-17.888136
20
-25.800000
30
14.224006
0
VERTEX
8
0
6
CONTINUOUS
62
252
70
192
10
-18.091199
20
-25.800000
30
14.340822
0
VERTEX
8
0
6
CONTINUOUS
62
252
70
192
10
-21.355242
20
-25.800000
30
16.091434
0
VERTEX
8
0
6
CONTINUOUS
62
252
70
192
10
-24.712083
20
-25.800000
30
17.656755
0
VERTEX
8
0
6
CONTINUOUS
62
252
70
192
10
-28.151216
20
-25.800000
30
19.031885
0
VERTEX
8
0
6
CONTINUOUS
62
252
70
192
10
-28.371229
20
-25.800000
30
19.112353
0
VERTEX
8
0
6
CONTINUOUS
62
252
70
192
10
-28.591525
20
-25.800000
30
19.192041
0
VERTEX
8
0
6
CONTINUOUS
62
252
70
192
10
-28.812103
20
-25.800000
30
19.270950
0
VERTEX
8
0
6
CONTINUOUS
62
252
70
128
10
0.000000
20
0.000000
30
0.000000
71
2
72
17
73
1
0
VERTEX
8
0
6
CONTINUOUS
62
252
70
128
10
0.000000
20
0.000000
30
0.000000
71
1
72
17
73
18
0
VERTEX
8
0
6
CONTINUOUS
62
252
70
128
10
0.000000
20
0.000000
30
0.000000
71
1
72
18
73
19
0
VERTEX
8
0
6
CONTINUOUS
62
252
70
128
10
0.000000
20
0.000000
30
0.000000
71
2
72
3
73
17
0
VERTEX
8
0
6
CONTINUOUS
62
252
70
128
10
0.000000
20
0.000000
30
0.000000
71
17
72
3
73
4
0
VERTEX
8
0
6
CONTINUOUS
62
252
70
128
10
0.000000
20
0.000000
30
0.000000
71
17
72
4
73
16
0
VERTEX
8
0
6
CONTINUOUS
62
252
70
128
10
0.000000
20
0.000000
30
0.000000
71
16
72
4
73
5
0
VERTEX
8
0
6
CONTINUOUS
62
252
70
128
10
0.000000
20
0.000000
30
0.000000
71
16
72
5
73
15
0
VERTEX
8
0
6
CONTINUOUS
62
252
70
128
10
0.000000
20
0.000000
30
0.000000
71
15
72
5
73
6
0
VERTEX
8
0
6
CONTINUOUS
62
252
70
128
10
0.000000
20
0.000000
30
0.000000
71
15
72
6
73
7
0
VERTEX
8
0
6
CONTINUOUS
62
252
70
128
10
0.000000
20
0.000000
30
0.000000
71
15
72
7
73
14
0
VERTEX
8
0
6
CONTINUOUS
62
252
70
128
10
0.000000
20
0.000000
30
0.000000
71
14
72
7
73
8
0
VERTEX
8
0
6
CONTINUOUS
62
252
70
128
10
0.000000
20
0.000000
30
0.000000
71
14
72
8
73
13
0
VERTEX
8
0
6
CONTINUOUS
62
252
70
128
10
0.000000
20
0.000000
30
0.000000
71
13
72
8
73
12
0
VERTEX
8
0
6
CONTINUOUS
62
252
70
128
10
0.000000
20
0.000000
30
0.000000
71
12
72
8
73
9
0
VERTEX
8
0
6
CONTINUOUS
62
252
70
128
10
0.000000
20
0.000000
30
0.000000
71
12
72
9
73
11
0
VERTEX
8
0
6
CONTINUOUS
62
252
70
128
10
0.000000
20
0.000000
30
0.000000
71
11
72
9
73
10
0
VERTEX
8
0
6
CONTINUOUS
62
252
70
128
10
0.000000
20
0.000000
30
0.000000
71
19
72
20
73
1
0
SEQEND
0
POLYLINE
66
1
8
0
6
CONTINUOUS
62
252
70
64
75
0
10
0.000000
20
0.000000
30
0.000000
0
VERTEX
8
0
6
CONTINUOUS
62
252
70
192
10
-18.331402
20
-25.800000
30
12.169365
0
VERTEX
8
0
6
CONTINUOUS
62
252
70
192
10
-18.331402
20
-18.800000
30
12.169365
0
VERTEX
8
0
6
CONTINUOUS
62
252
70
192
10
-17.483255
20
-18.800000
30
13.988221
0
VERTEX
8
0
6
CONTINUOUS
62
252
70
192
10
-17.483255
20
-25.800000
30
13.988221
0
VERTEX
8
0
6
CONTINUOUS
62
252
70
128
10
0.000000
20
0.000000
30
0.000000
71
2
72
3
73
1
0
VERTEX
8
0
6
CONTINUOUS
62
252
70
128
10
0.000000
20
0.000000
30
0.000000
71
1
72
3
73
4
0
SEQEND
0
POLYLINE
66
1
8
0
6
CONTINUOUS
62
252
70
64
75
0
10
0.000000
20
0.000000
30
0.000000
0
VERTEX
8
0
6
CONTINUOUS
62
252
70
192
10
-29.660577
20
-18.800000
30
17.451391
0
VERTEX
8
0
6
CONTINUOUS
62
252
70
192
10
-29.660577
20
-25.800000
30
17.451391
0
VERTEX
8
0
6
CONTINUOUS
62
252
70
192
10
-28.812103
20
-25.800000
30
19.270950
0
VERTEX
8
0
6
CONTINUOUS
62
252
70
192
10
-28.812103
20
-18.800000
30
19.270950
0
VERTEX
8
0
6
CONTINUOUS
62
252
70
128
10
0.000000
20
0.000000
30
0.000000
71
1
72
2
73
4
0
VERTEX
8
0
6
CONTINUOUS
62
252
70
128
10
0.000000
20
0.000000
30
0.000000
71
4
72
2
73
3
0
SEQEND
0
POLYLINE
66
1
8
0
6
CONTINUOUS
62
252
70
64
75
0
10
0.000000
20
0.000000
30
0.000000
0
VERTEX
8
0
6
CONTINUOUS
62
252
70
192
10
-28.812103
20
-25.800000
30
19.270950
0
VERTEX
8
0
6
CONTINUOUS
62
252
70
192
10
-28.591525
20
-25.800000
30
19.192041
0
VERTEX
8
0
6
CONTINUOUS
62
252
70
192
10
-28.371229
20
-25.800000
30
19.112353
0
VERTEX
8
0
6
CONTINUOUS
62
252
70
192
10
-28.151216
20
-25.800000
30
19.031885
0
VERTEX
8
0
6
CONTINUOUS
62
252
70
192
10
-28.151216
20
-18.800000
30
19.031885
0
VERTEX
8
0
6
CONTINUOUS
62
252
70
192
10
-28.371229
20
-18.800000
30
19.112353
0
VERTEX
8
0
6
CONTINUOUS
62
252
70
192
10
-28.591525
20
-18.800000
30
19.192041
0
VERTEX
8
0
6
CONTINUOUS
62
252
70
192
10
-28.812103
20
-18.800000
30
19.270950
0
VERTEX
8
0
6
CONTINUOUS
62
252
70
128
10
0.000000
20
0.000000
30
0.000000
71
1
72
2
73
8
0
VERTEX
8
0
6
CONTINUOUS
62
252
70
128
10
0.000000
20
0.000000
30
0.000000
71
8
72
2
73
7
0
VERTEX
8
0
6
CONTINUOUS
62
252
70
128
10
0.000000
20
0.000000
30
0.000000
71
7
72
2
73
3
0
VERTEX
8
0
6
CONTINUOUS
62
252
70
128
10
0.000000
20
0.000000
30
0.000000
71
7
72
3
73
6
0
VERTEX
8
0
6
CONTINUOUS
62
252
70
128
10
0.000000
20
0.000000
30
0.000000
71
6
72
3
73
4
0
VERTEX
8
0
6
CONTINUOUS
62
252
70
128
10
0.000000
20
0.000000
30
0.000000
71
6
72
4
73
5
0
SEQEND
0
POLYLINE
66
1
8
0
6
CONTINUOUS
62
252
70
64
75
0
10
0.000000
20
0.000000
30
0.000000
0
VERTEX
8
0
6
CONTINUOUS
62
252
70
192
10
-28.151216
20
-25.800000
30
19.031885
0
VERTEX
8
0
6
CONTINUOUS
62
252
70
192
10
-24.712083
20
-25.800000
30
17.656755
0
VERTEX
8
0
6
CONTINUOUS
62
252
70
192
10
-21.355242
20
-25.800000
30
16.091434
0
VERTEX
8
0
6
CONTINUOUS
62
252
70
192
10
-18.091199
20
-25.800000
30
14.340822
0
VERTEX
8
0
6
CONTINUOUS
62
252
70
192
10
-18.091199
20
-18.800000
30
14.340822
0
VERTEX
8
0
6
CONTINUOUS
62
252
70
192
10
-21.355242
20
-18.800000
30
16.091434
0
VERTEX
8
0
6
CONTINUOUS
62
252
70
192
10
-24.712083
20
-18.800000
30
17.656755
0
VERTEX
8
0
6
CONTINUOUS
62
252
70
192
10
-28.151216
20
-18.800000
30
19.031885
0
VERTEX
8
0
6
CONTINUOUS
62
252
70
128
10
0.000000
20
0.000000
30
0.000000
71
8
72
1
73
7
0
VERTEX
8
0
6
CONTINUOUS
62
252
70
128
10
0.000000
20
0.000000
30
0.000000
71
7
72
1
73
2
0
VERTEX
8
0
6
CONTINUOUS
62
252
70
128
10
0.000000
20
0.000000
30
0.000000
71
7
72
2
73
6
0
VERTEX
8
0
6
CONTINUOUS
62
252
70
128
10
0.000000
20
0.000000
30
0.000000
71
6
72
2
73
3
0
VERTEX
8
0
6
CONTINUOUS
62
252
70
128
10
0.000000
20
0.000000
30
0.000000
71
6
72
3
73
5
0
VERTEX
8
0
6
CONTINUOUS
62
252
70
128
10
0.000000
20
0.000000
30
0.000000
71
5
72
3
73
4
0
SEQEND
0
POLYLINE
66
1
8
0
6
CONTINUOUS
62
252
70
64
75
0
10
0.000000
20
0.000000
30
0.000000
0
VERTEX
8
0
6
CONTINUOUS
62
252
70
192
10
-18.091199
20
-25.800000
30
14.340822
0
VERTEX
8
0
6
CONTINUOUS
62
252
70
192
10
-17.888136
20
-25.800000
30
14.224006
0
VERTEX
8
0
6
CONTINUOUS
62
252
70
192
10
-17.685487
20
-25.800000
30
14.106472
0
VERTEX
8
0
6
CONTINUOUS
62
252
70
192
10
-17.483255
20
-25.800000
30
13.988221
0
VERTEX
8
0
6
CONTINUOUS
62
252
70
192
10
-17.483255
20
-18.800000
30
13.988221
0
VERTEX
8
0
6
CONTINUOUS
62
252
70
192
10
-17.685487
20
-18.800000
30
14.106472
0
VERTEX
8
0
6
CONTINUOUS
62
252
70
192
10
-17.888136
20
-18.800000
30
14.224006
0
VERTEX
8
0
6
CONTINUOUS
62
252
70
192
10
-18.091199
20
-18.800000
30
14.340822
0
VERTEX
8
0
6
CONTINUOUS
62
252
70
128
10
0.000000
20
0.000000
30
0.000000
71
1
72
2
73
8
0
VERTEX
8
0
6
CONTINUOUS
62
252
70
128
10
0.000000
20
0.000000
30
0.000000
71
8
72
2
73
7
0
VERTEX
8
0
6
CONTINUOUS
62
252
70
128
10
0.000000
20
0.000000
30
0.000000
71
7
72
2
73
3
0
VERTEX
8
0
6
CONTINUOUS
62
252
70
128
10
0.000000
20
0.000000
30
0.000000
71
7
72
3
73
6
0
VERTEX
8
0
6
CONTINUOUS
62
252
70
128
10
0.000000
20
0.000000
30
0.000000
71
6
72
3
73
5
0
VERTEX
8
0
6
CONTINUOUS
62
252
70
128
10
0.000000
20
0.000000
30
0.000000
71
5
72
3
73
4
0
SEQEND
0
POLYLINE
66
1
8
0
6
CONTINUOUS
62
252
70
64
75
0
10
0.000000
20
0.000000
30
0.000000
0
VERTEX
8
0
6
CONTINUOUS
62
252
70
192
10
-28.571439
20
-18.800000
30
17.056554
0
VERTEX
8
0
6
CONTINUOUS
62
252
70
192
10
-28.933691
20
-18.800000
30
17.190349
0
VERTEX
8
0
6
CONTINUOUS
62
252
70
192
10
-29.296741
20
-18.800000
30
17.321963
0
VERTEX
8
0
6
CONTINUOUS
62
252
70
192
10
-29.660577
20
-18.800000
30
17.451391
0
VERTEX
8
0
6
CONTINUOUS
62
252
70
192
10
-28.812103
20
-18.800000
30
19.270950
0
VERTEX
8
0
6
CONTINUOUS
62
252
70
192
10
-28.591525
20
-18.800000
30
19.192041
0
VERTEX
8
0
6
CONTINUOUS
62
252
70
192
10
-28.371229
20
-18.800000
30
19.112353
0
VERTEX
8
0
6
CONTINUOUS
62
252
70
192
10
-28.151216
20
-18.800000
30
19.031885
0
VERTEX
8
0
6
CONTINUOUS
62
252
70
192
10
-24.712083
20
-18.800000
30
17.656755
0
VERTEX
8
0
6
CONTINUOUS
62
252
70
192
10
-21.355242
20
-18.800000
30
16.091434
0
VERTEX
8
0
6
CONTINUOUS
62
252
70
192
10
-18.091199
20
-18.800000
30
14.340822
0
VERTEX
8
0
6
CONTINUOUS
62
252
70
192
10
-17.888136
20
-18.800000
30
14.224006
0
VERTEX
8
0
6
CONTINUOUS
62
252
70
192
10
-17.685487
20
-18.800000
30
14.106472
0
VERTEX
8
0
6
CONTINUOUS
62
252
70
192
10
-17.483255
20
-18.800000
30
13.988221
0
VERTEX
8
0
6
CONTINUOUS
62
252
70
192
10
-18.331402
20
-18.800000
30
12.169365
0
VERTEX
8
0
6
CONTINUOUS
62
252
70
192
10
-19.197538
20
-18.800000
30
12.672178
0
VERTEX
8
0
6
CONTINUOUS
62
252
70
192
10
-20.071412
20
-18.800000
30
13.161420
0
VERTEX
8
0
6
CONTINUOUS
62
252
70
192
10
-20.952811
20
-18.800000
30
13.636970
0
VERTEX
8
0
6
CONTINUOUS
62
252
70
192
10
-23.442083
20
-18.800000
30
14.886697
0
VERTEX
8
0
6
CONTINUOUS
62
252
70
192
10
-25.983220
20
-18.800000
30
16.027274
0
VERTEX
8
0
6
CONTINUOUS
62
252
70
128
10
0.000000
20
0.000000
30
0.000000
71
2
72
8
73
1
0
VERTEX
8
0
6
CONTINUOUS
62
252
70
128
10
0.000000
20
0.000000
30
0.000000
71
1
72
8
73
9
0
VERTEX
8
0
6
CONTINUOUS
62
252
70
128
10
0.000000
20
0.000000
30
0.000000
71
1
72
9
73
20
0
VERTEX
8
0
6
CONTINUOUS
62
252
70
128
10
0.000000
20
0.000000
30
0.000000
71
20
72
9
73
10
0
VERTEX
8
0
6
CONTINUOUS
62
252
70
128
10
0.000000
20
0.000000
30
0.000000
71
20
72
10
73
19
0
VERTEX
8
0
6
CONTINUOUS
62
252
70
128
10
0.000000
20
0.000000
30
0.000000
71
19
72
10
73
18
0
VERTEX
8
0
6
CONTINUOUS
62
252
70
128
10
0.000000
20
0.000000
30
0.000000
71
18
72
10
73
11
0
VERTEX
8
0
6
CONTINUOUS
62
252
70
128
10
0.000000
20
0.000000
30
0.000000
71
18
72
11
73
17
0
VERTEX
8
0
6
CONTINUOUS
62
252
70
128
10
0.000000
20
0.000000
30
0.000000
71
17
72
11
73
12
0
VERTEX
8
0
6
CONTINUOUS
62
252
70
128
10
0.000000
20
0.000000
30
0.000000
71
17
72
12
73
13
0
VERTEX
8
0
6
CONTINUOUS
62
252
70
128
10
0.000000
20
0.000000
30
0.000000
71
2
72
3
73
8
0
VERTEX
8
0
6
CONTINUOUS
62
252
70
128
10
0.000000
20
0.000000
30
0.000000
71
8
72
3
73
4
0
VERTEX
8
0
6
CONTINUOUS
62
252
70
128
10
0.000000
20
0.000000
30
0.000000
71
8
72
4
73
7
0
VERTEX
8
0
6
CONTINUOUS
62
252
70
128
10
0.000000
20
0.000000
30
0.000000
71
7
72
4
73
6
0
VERTEX
8
0
6
CONTINUOUS
62
252
70
128
10
0.000000
20
0.000000
30
0.000000
71
6
72
4
73
5
0
VERTEX
8
0
6
CONTINUOUS
62
252
70
128
10
0.000000
20
0.000000
30
0.000000
71
17
72
13
73
16
0
VERTEX
8
0
6
CONTINUOUS
62
252
70
128
10
0.000000
20
0.000000
30
0.000000
71
16
72
13
73
14
0
VERTEX
8
0
6
CONTINUOUS
62
252
70
128
10
0.000000
20
0.000000
30
0.000000
71
16
72
14
73
15
0
SEQEND
0
POLYLINE
66
1
8
0
6
CONTINUOUS
62
252
70
64
75
0
10
0.000000
20
0.000000
30
0.000000
0
VERTEX
8
0
6
CONTINUOUS
62
252
70
192
10
-28.571439
20
-25.800000
30
17.056554
0
VERTEX
8
0
6
CONTINUOUS
62
252
70
192
10
-28.933691
20
-25.800000
30
17.190349
0
VERTEX
8
0
6
CONTINUOUS
62
252
70
192
10
-29.296741
20
-25.800000
30
17.321963
0
VERTEX
8
0
6
CONTINUOUS
62
252
70
192
10
-29.660577
20
-25.800000
30
17.451391
0
VERTEX
8
0
6
CONTINUOUS
62
252
70
192
10
-29.660577
20
-18.800000
30
17.451391
0
VERTEX
8
0
6
CONTINUOUS
62
252
70
192
10
-29.296741
20
-18.800000
30
17.321963
0
VERTEX
8
0
6
CONTINUOUS
62
252
70
192
10
-28.933691
20
-18.800000
30
17.190349
0
VERTEX
8
0
6
CONTINUOUS
62
252
70
192
10
-28.571439
20
-18.800000
30
17.056554
0
VERTEX
8
0
6
CONTINUOUS
62
252
70
192
10
-28.571439
20
0.000000
30
17.056554
0
VERTEX
8
0
6
CONTINUOUS
62
252
70
192
10
-29.011111
20
0.000000
30
17.218623
0
VERTEX
8
0
6
CONTINUOUS
62
252
70
192
10
-29.451954
20
0.000000
30
17.377479
0
VERTEX
8
0
6
CONTINUOUS
62
252
70
192
10
-29.893945
20
0.000000
30
17.533112
0
VERTEX
8
0
6
CONTINUOUS
62
252
70
192
10
-29.893945
20
-40.000000
30
17.533112
0
VERTEX
8
0
6
CONTINUOUS
62
252
70
192
10
-29.451954
20
-40.000000
30
17.377479
0
VERTEX
8
0
6
CONTINUOUS
62
252
70
192
10
-29.011111
20
-40.000000
30
17.218623
0
VERTEX
8
0
6
CONTINUOUS
62
252
70
192
10
-28.571439
20
-40.000000
30
17.056554
0
VERTEX
8
0
6
CONTINUOUS
62
252
70
128
10
0.000000
20
0.000000
30
0.000000
71
1
72
2
73
16
0
VERTEX
8
0
6
CONTINUOUS
62
252
70
128
10
0.000000
20
0.000000
30
0.000000
71
16
72
2
73
15
0
VERTEX
8
0
6
CONTINUOUS
62
252
70
128
10
0.000000
20
0.000000
30
0.000000
71
15
72
2
73
3
0
VERTEX
8
0
6
CONTINUOUS
62
252
70
128
10
0.000000
20
0.000000
30
0.000000
71
15
72
3
73
14
0
VERTEX
8
0
6
CONTINUOUS
62
252
70
128
10
0.000000
20
0.000000
30
0.000000
71
14
72
3
73
4
0
VERTEX
8
0
6
CONTINUOUS
62
252
70
128
10
0.000000
20
0.000000
30
0.000000
71
14
72
4
73
13
0
VERTEX
8
0
6
CONTINUOUS
62
252
70
128
10
0.000000
20
0.000000
30
0.000000
71
13
72
4
73
5
0
VERTEX
8
0
6
CONTINUOUS
62
252
70
128
10
0.000000
20
0.000000
30
0.000000
71
13
72
5
73
12
0
VERTEX
8
0
6
CONTINUOUS
62
252
70
128
10
0.000000
20
0.000000
30
0.000000
71
12
72
5
73
11
0
VERTEX
8
0
6
CONTINUOUS
62
252
70
128
10
0.000000
20
0.000000
30
0.000000
71
11
72
5
73
6
0
VERTEX
8
0
6
CONTINUOUS
62
252
70
128
10
0.000000
20
0.000000
30
0.000000
71
11
72
6
73
10
0
VERTEX
8
0
6
CONTINUOUS
62
252
70
128
10
0.000000
20
0.000000
30
0.000000
71
10
72
6
73
7
0
VERTEX
8
0
6
CONTINUOUS
62
252
70
128
10
0.000000
20
0.000000
30
0.000000
71
10
72
7
73
9
0
VERTEX
8
0
6
CONTINUOUS
62
252
70
128
10
0.000000
20
0.000000
30
0.000000
71
9
72
7
73
8
0
SEQEND
0
POLYLINE
66
1
8
0
6
CONTINUOUS
62
252
70
64
75
0
10
0.000000
20
0.000000
30
0.000000
0
VERTEX
8
0
6
CONTINUOUS
62
252
70
192
10
-28.571439
20
-18.800000
30
17.056554
0
VERTEX
8
0
6
CONTINUOUS
62
252
70
192
10
-25.983220
20
-18.800000
30
16.027274
0
VERTEX
8
0
6
CONTINUOUS
62
252
70
192
10
-23.442083
20
-18.800000
30
14.886697
0
VERTEX
8
0
6
CONTINUOUS
62
252
70
192
10
-20.952811
20
-18.800000
30
13.636970
0
VERTEX
8
0
6
CONTINUOUS
62
252
70
192
10
-20.952811
20
0.000000
30
13.636970
0
VERTEX
8
0
6
CONTINUOUS
62
252
70
192
10
-23.442083
20
0.000000
30
14.886697
0
VERTEX
8
0
6
CONTINUOUS
62
252
70
192
10
-25.983220
20
0.000000
30
16.027274
0
VERTEX
8
0
6
CONTINUOUS
62
252
70
192
10
-28.571439
20
0.000000
30
17.056554
0
VERTEX
8
0
6
CONTINUOUS
62
252
70
128
10
0.000000
20
0.000000
30
0.000000
71
8
72
1
73
7
0
VERTEX
8
0
6
CONTINUOUS
62
252
70
128
10
0.000000
20
0.000000
30
0.000000
71
7
72
1
73
2
0
VERTEX
8
0
6
CONTINUOUS
62
252
70
128
10
0.000000
20
0.000000
30
0.000000
71
7
72
2
73
3
0
VERTEX
8
0
6
CONTINUOUS
62
252
70
128
10
0.000000
20
0.000000
30
0.000000
71
7
72
3
73
6
0
VERTEX
8
0
6
CONTINUOUS
62
252
70
128
10
0.000000
20
0.000000
30
0.000000
71
6
72
3
73
4
0
VERTEX
8
0
6
CONTINUOUS
62
252
70
128
10
0.000000
20
0.000000
30
0.000000
71
6
72
4
73
5
0
SEQEND
0
POLYLINE
66
1
8
0
6
CONTINUOUS
62
252
70
64
75
0
10
0.000000
20
0.000000
30
0.000000
0
VERTEX
8
0
6
CONTINUOUS
62
252
70
192
10
-18.000000
20
-2.000000
30
-47.000000
0
VERTEX
8
0
6
CONTINUOUS
62
252
70
192
10
-18.440575
20
-2.000000
30
-41.964203
0
VERTEX
8
0
6
CONTINUOUS
62
252
70
192
10
-19.748914
20
-2.000000
30
-37.081416
0
VERTEX
8
0
6
CONTINUOUS
62
252
70
192
10
-21.885263
20
-2.000000
30
-32.500000
0
VERTEX
8
0
6
CONTINUOUS
62
252
70
192
10
-24.784711
20
-2.000000
30
-28.359159
0
VERTEX
8
0
6
CONTINUOUS
62
252
70
192
10
-28.359159
20
-2.000000
30
-24.784711
0
VERTEX
8
0
6
CONTINUOUS
62
252
70
192
10
-32.500000
20
-2.000000
30
-21.885263
0
VERTEX
8
0
6
CONTINUOUS
62
252
70
192
10
-37.081416
20
-2.000000
30
-19.748914
0
VERTEX
8
0
6
CONTINUOUS
62
252
70
192
10
-41.964203
20
-2.000000
30
-18.440575
0
VERTEX
8
0
6
CONTINUOUS
62
252
70
192
10
-47.000000
20
-2.000000
30
-18.000000
0
VERTEX
8
0
6
CONTINUOUS
62
252
70
192
10
-52.035797
20
-2.000000
30
-18.440575
0
VERTEX
8
0
6
CONTINUOUS
62
252
70
192
10
-56.918584
20
-2.000000
30
-19.748914
0
VERTEX
8
0
6
CONTINUOUS
62
252
70
192
10
-61.500000
20
-2.000000
30
-21.885263
0
VERTEX
8
0
6
CONTINUOUS
62
252
70
192
10
-65.640841
20
-2.000000
30
-24.784711
0
VERTEX
8
0
6
CONTINUOUS
62
252
70
192
10
-69.215289
20
-2.000000
30
-28.359159
0
VERTEX
8
0
6
CONTINUOUS
62
252
70
192
10
-72.114737
20
-2.000000
30
-32.500000
0
VERTEX
8
0
6
CONTINUOUS
62
252
70
192
10
-74.251086
20
-2.000000
30
-37.081416
0
VERTEX
8
0
6
CONTINUOUS
62
252
70
192
10
-75.559425
20
-2.000000
30
-41.964203
0
VERTEX
8
0
6
CONTINUOUS
62
252
70
192
10
-76.000000
20
-2.000000
30
-47.000000
0
VERTEX
8
0
6
CONTINUOUS
62
252
70
192
10
-75.559425
20
-2.000000
30
-52.035797
0
VERTEX
8
0
6
CONTINUOUS
62
252
70
192
10
-74.251086
20
-2.000000
30
-56.918584
0
VERTEX
8
0
6
CONTINUOUS
62
252
70
192
10
-72.114737
20
-2.000000
30
-61.500000
0
VERTEX
8
0
6
CONTINUOUS
62
252
70
192
10
-69.215289
20
-2.000000
30
-65.640841
0
VERTEX
8
0
6
CONTINUOUS
62
252
70
192
10
-65.640841
20
-2.000000
30
-69.215289
0
VERTEX
8
0
6
CONTINUOUS
62
252
70
192
10
-61.500000
20
-2.000000
30
-72.114737
0
VERTEX
8
0
6
CONTINUOUS
62
252
70
192
10
-56.918584
20
-2.000000
30
-74.251086
0
VERTEX
8
0
6
CONTINUOUS
62
252
70
192
10
-52.035797
20
-2.000000
30
-75.559425
0
VERTEX
8
0
6
CONTINUOUS
62
252
70
192
10
-47.000000
20
-2.000000
30
-76.000000
0
VERTEX
8
0
6
CONTINUOUS
62
252
70
192
10
-41.964203
20
-2.000000
30
-75.559425
0
VERTEX
8
0
6
CONTINUOUS
62
252
70
192
10
-37.081416
20
-2.000000
30
-74.251086
0
VERTEX
8
0
6
CONTINUOUS
62
252
70
192
10
-32.500000
20
-2.000000
30
-72.114737
0
VERTEX
8
0
6
CONTINUOUS
62
252
70
192
10
-28.359159
20
-2.000000
30
-69.215289
0
VERTEX
8
0
6
CONTINUOUS
62
252
70
192
10
-24.784711
20
-2.000000
30
-65.640841
0
VERTEX
8
0
6
CONTINUOUS
62
252
70
192
10
-21.885263
20
-2.000000
30
-61.500000
0
VERTEX
8
0
6
CONTINUOUS
62
252
70
192
10
-19.748914
20
-2.000000
30
-56.918584
0
VERTEX
8
0
6
CONTINUOUS
62
252
70
192
10
-18.440575
20
-2.000000
30
-52.035797
0
VERTEX
8
0
6
CONTINUOUS
62
252
70
192
10
-18.000000
20
-40.000000
30
-47.000000
0
VERTEX
8
0
6
CONTINUOUS
62
252
70
192
10
-18.440575
20
-40.000000
30
-52.035797
0
VERTEX
8
0
6
CONTINUOUS
62
252
70
192
10
-19.748914
20
-40.000000
30
-56.918584
0
VERTEX
8
0
6
CONTINUOUS
62
252
70
192
10
-21.885263
20
-40.000000
30
-61.500000
0
VERTEX
8
0
6
CONTINUOUS
62
252
70
192
10
-24.784711
20
-40.000000
30
-65.640841
0
VERTEX
8
0
6
CONTINUOUS
62
252
70
192
10
-28.359159
20
-40.000000
30
-69.215289
0
VERTEX
8
0
6
CONTINUOUS
62
252
70
192
10
-32.500000
20
-40.000000
30
-72.114737
0
VERTEX
8
0
6
CONTINUOUS
62
252
70
192
10
-37.081416
20
-40.000000
30
-74.251086
0
VERTEX
8
0
6
CONTINUOUS
62
252
70
192
10
-41.964203
20
-40.000000
30
-75.559425
0
VERTEX
8
0
6
CONTINUOUS
62
252
70
192
10
-47.000000
20
-40.000000
30
-76.000000
0
VERTEX
8
0
6
CONTINUOUS
62
252
70
192
10
-52.035797
20
-40.000000
30
-75.559425
0
VERTEX
8
0
6
CONTINUOUS
62
252
70
192
10
-56.918584
20
-40.000000
30
-74.251086
0
VERTEX
8
0
6
CONTINUOUS
62
252
70
192
10
-61.500000
20
-40.000000
30
-72.114737
0
VERTEX
8
0
6
CONTINUOUS
62
252
70
192
10
-65.640841
20
-40.000000
30
-69.215289
0
VERTEX
8
0
6
CONTINUOUS
62
252
70
192
10
-69.215289
20
-40.000000
30
-65.640841
0
VERTEX
8
0
6
CONTINUOUS
62
252
70
192
10
-72.114737
20
-40.000000
30
-61.500000
0
VERTEX
8
0
6
CONTINUOUS
62
252
70
192
10
-74.251086
20
-40.000000
30
-56.918584
0
VERTEX
8
0
6
CONTINUOUS
62
252
70
192
10
-75.559425
20
-40.000000
30
-52.035797
0
VERTEX
8
0
6
CONTINUOUS
62
252
70
192
10
-76.000000
20
-40.000000
30
-47.000000
0
VERTEX
8
0
6
CONTINUOUS
62
252
70
192
10
-75.559425
20
-40.000000
30
-41.964203
0
VERTEX
8
0
6
CONTINUOUS
62
252
70
192
10
-74.251086
20
-40.000000
30
-37.081416
0
VERTEX
8
0
6
CONTINUOUS
62
252
70
192
10
-72.114737
20
-40.000000
30
-32.500000
0
VERTEX
8
0
6
CONTINUOUS
62
252
70
192
10
-69.215289
20
-40.000000
30
-28.359159
0
VERTEX
8
0
6
CONTINUOUS
62
252
70
192
10
-65.640841
20
-40.000000
30
-24.784711
0
VERTEX
8
0
6
CONTINUOUS
62
252
70
192
10
-61.500000
20
-40.000000
30
-21.885263
0
VERTEX
8
0
6
CONTINUOUS
62
252
70
192
10
-56.918584
20
-40.000000
30
-19.748914
0
VERTEX
8
0
6
CONTINUOUS
62
252
70
192
10
-52.035797
20
-40.000000
30
-18.440575
0
VERTEX
8
0
6
CONTINUOUS
62
252
70
192
10
-47.000000
20
-40.000000
30
-18.000000
0
VERTEX
8
0
6
CONTINUOUS
62
252
70
192
10
-41.964203
20
-40.000000
30
-18.440575
0
VERTEX
8
0
6
CONTINUOUS
62
252
70
192
10
-37.081416
20
-40.000000
30
-19.748914
0
VERTEX
8
0
6
CONTINUOUS
62
252
70
192
10
-32.500000
20
-40.000000
30
-21.885263
0
VERTEX
8
0
6
CONTINUOUS
62
252
70
192
10
-28.359159
20
-40.000000
30
-24.784711
0
VERTEX
8
0
6
CONTINUOUS
62
252
70
192
10
-24.784711
20
-40.000000
30
-28.359159
0
VERTEX
8
0
6
CONTINUOUS
62
252
70
192
10
-21.885263
20
-40.000000
30
-32.500000
0
VERTEX
8
0
6
CONTINUOUS
62
252
70
192
10
-19.748914
20
-40.000000
30
-37.081416
0
VERTEX
8
0
6
CONTINUOUS
62
252
70
192
10
-18.440575
20
-40.000000
30
-41.964203
0
VERTEX
8
0
6
CONTINUOUS
62
252
70
128
10
0.000000
20
0.000000
30
0.000000
71
2
72
72
73
1
0
VERTEX
8
0
6
CONTINUOUS
62
252
70
128
10
0.000000
20
0.000000
30
0.000000
71
1
72
72
73
37
0
VERTEX
8
0
6
CONTINUOUS
62
252
70
128
10
0.000000
20
0.000000
30
0.000000
71
1
72
37
73
36
0
VERTEX
8
0
6
CONTINUOUS
62
252
70
128
10
0.000000
20
0.000000
30
0.000000
71
36
72
37
73
38
0
VERTEX
8
0
6
CONTINUOUS
62
252
70
128
10
0.000000
20
0.000000
30
0.000000
71
36
72
38
73
35
0
VERTEX
8
0
6
CONTINUOUS
62
252
70
128
10
0.000000
20
0.000000
30
0.000000
71
35
72
38
73
39
0
VERTEX
8
0
6
CONTINUOUS
62
252
70
128
10
0.000000
20
0.000000
30
0.000000
71
35
72
39
73
34
0
VERTEX
8
0
6
CONTINUOUS
62
252
70
128
10
0.000000
20
0.000000
30
0.000000
71
34
72
39
73
40
0
VERTEX
8
0
6
CONTINUOUS
62
252
70
128
10
0.000000
20
0.000000
30
0.000000
71
34
72
40
73
33
0
VERTEX
8
0
6
CONTINUOUS
62
252
70
128
10
0.000000
20
0.000000
30
0.000000
71
33
72
40
73
41
0
VERTEX
8
0
6
CONTINUOUS
62
252
70
128
10
0.000000
20
0.000000
30
0.000000
71
33
72
41
73
32
0
VERTEX
8
0
6
CONTINUOUS
62
252
70
128
10
0.000000
20
0.000000
30
0.000000
71
32
72
41
73
42
0
VERTEX
8
0
6
CONTINUOUS
62
252
70
128
10
0.000000
20
0.000000
30
0.000000
71
32
72
42
73
31
0
VERTEX
8
0
6
CONTINUOUS
62
252
70
128
10
0.000000
20
0.000000
30
0.000000
71
31
72
42
73
43
0
VERTEX
8
0
6
CONTINUOUS
62
252
70
128
10
0.000000
20
0.000000
30
0.000000
71
31
72
43
73
30
0
VERTEX
8
0
6
CONTINUOUS
62
252
70
128
10
0.000000
20
0.000000
30
0.000000
71
30
72
43
73
44
0
VERTEX
8
0
6
CONTINUOUS
62
252
70
128
10
0.000000
20
0.000000
30
0.000000
71
30
72
44
73
29
0
VERTEX
8
0
6
CONTINUOUS
62
252
70
128
10
0.000000
20
0.000000
30
0.000000
71
29
72
44
73
45
0
VERTEX
8
0
6
CONTINUOUS
62
252
70
128
10
0.000000
20
0.000000
30
0.000000
71
29
72
45
73
28
0
VERTEX
8
0
6
CONTINUOUS
62
252
70
128
10
0.000000
20
0.000000
30
0.000000
71
28
72
45
73
46
0
VERTEX
8
0
6
CONTINUOUS
62
252
70
128
10
0.000000
20
0.000000
30
0.000000
71
28
72
46
73
27
0
VERTEX
8
0
6
CONTINUOUS
62
252
70
128
10
0.000000
20
0.000000
30
0.000000
71
27
72
46
73
47
0
VERTEX
8
0
6
CONTINUOUS
62
252
70
128
10
0.000000
20
0.000000
30
0.000000
71
27
72
47
73
26
0
VERTEX
8
0
6
CONTINUOUS
62
252
70
128
10
0.000000
20
0.000000
30
0.000000
71
26
72
47
73
48
0
VERTEX
8
0
6
CONTINUOUS
62
252
70
128
10
0.000000
20
0.000000
30
0.000000
71
26
72
48
73
25
0
VERTEX
8
0
6
CONTINUOUS
62
252
70
128
10
0.000000
20
0.000000
30
0.000000
71
25
72
48
73
49
0
VERTEX
8
0
6
CONTINUOUS
62
252
70
128
10
0.000000
20
0.000000
30
0.000000
71
25
72
49
73
24
0
VERTEX
8
0
6
CONTINUOUS
62
252
70
128
10
0.000000
20
0.000000
30
0.000000
71
24
72
49
73
50
0
VERTEX
8
0
6
CONTINUOUS
62
252
70
128
10
0.000000
20
0.000000
30
0.000000
71
24
72
50
73
23
0
VERTEX
8
0
6
CONTINUOUS
62
252
70
128
10
0.000000
20
0.000000
30
0.000000
71
23
72
50
73
51
0
VERTEX
8
0
6
CONTINUOUS
62
252
70
128
10
0.000000
20
0.000000
30
0.000000
71
23
72
51
73
22
0
VERTEX
8
0
6
CONTINUOUS
62
252
70
128
10
0.000000
20
0.000000
30
0.000000
71
22
72
51
73
52
0
VERTEX
8
0
6
CONTINUOUS
62
252
70
128
10
0.000000
20
0.000000
30
0.000000
71
22
72
52
73
21
0
VERTEX
8
0
6
CONTINUOUS
62
252
70
128
10
0.000000
20
0.000000
30
0.000000
71
21
72
52
73
53
0
VERTEX
8
0
6
CONTINUOUS
62
252
70
128
10
0.000000
20
0.000000
30
0.000000
71
21
72
53
73
20
0
VERTEX
8
0
6
CONTINUOUS
62
252
70
128
10
0.000000
20
0.000000
30
0.000000
71
20
72
53
73
54
0
VERTEX
8
0
6
CONTINUOUS
62
252
70
128
10
0.000000
20
0.000000
30
0.000000
71
20
72
54
73
19
0
VERTEX
8
0
6
CONTINUOUS
62
252
70
128
10
0.000000
20
0.000000
30
0.000000
71
19
72
54
73
55
0
VERTEX
8
0
6
CONTINUOUS
62
252
70
128
10
0.000000
20
0.000000
30
0.000000
71
19
72
55
73
18
0
VERTEX
8
0
6
CONTINUOUS
62
252
70
128
10
0.000000
20
0.000000
30
0.000000
71
18
72
55
73
56
0
VERTEX
8
0
6
CONTINUOUS
62
252
70
128
10
0.000000
20
0.000000
30
0.000000
71
18
72
56
73
17
0
VERTEX
8
0
6
CONTINUOUS
62
252
70
128
10
0.000000
20
0.000000
30
0.000000
71
17
72
56
73
57
0
VERTEX
8
0
6
CONTINUOUS
62
252
70
128
10
0.000000
20
0.000000
30
0.000000
71
17
72
57
73
16
0
VERTEX
8
0
6
CONTINUOUS
62
252
70
128
10
0.000000
20
0.000000
30
0.000000
71
16
72
57
73
58
0
VERTEX
8
0
6
CONTINUOUS
62
252
70
128
10
0.000000
20
0.000000
30
0.000000
71
16
72
58
73
15
0
VERTEX
8
0
6
CONTINUOUS
62
252
70
128
10
0.000000
20
0.000000
30
0.000000
71
15
72
58
73
59
0
VERTEX
8
0
6
CONTINUOUS
62
252
70
128
10
0.000000
20
0.000000
30
0.000000
71
15
72
59
73
14
0
VERTEX
8
0
6
CONTINUOUS
62
252
70
128
10
0.000000
20
0.000000
30
0.000000
71
14
72
59
73
60
0
VERTEX
8
0
6
CONTINUOUS
62
252
70
128
10
0.000000
20
0.000000
30
0.000000
71
14
72
60
73
13
0
VERTEX
8
0
6
CONTINUOUS
62
252
70
128
10
0.000000
20
0.000000
30
0.000000
71
13
72
60
73
61
0
VERTEX
8
0
6
CONTINUOUS
62
252
70
128
10
0.000000
20
0.000000
30
0.000000
71
13
72
61
73
12
0
VERTEX
8
0
6
CONTINUOUS
62
252
70
128
10
0.000000
20
0.000000
30
0.000000
71
12
72
61
73
62
0
VERTEX
8
0
6
CONTINUOUS
62
252
70
128
10
0.000000
20
0.000000
30
0.000000
71
12
72
62
73
11
0
VERTEX
8
0
6
CONTINUOUS
62
252
70
128
10
0.000000
20
0.000000
30
0.000000
71
11
72
62
73
63
0
VERTEX
8
0
6
CONTINUOUS
62
252
70
128
10
0.000000
20
0.000000
30
0.000000
71
11
72
63
73
10
0
VERTEX
8
0
6
CONTINUOUS
62
252
70
128
10
0.000000
20
0.000000
30
0.000000
71
10
72
63
73
64
0
VERTEX
8
0
6
CONTINUOUS
62
252
70
128
10
0.000000
20
0.000000
30
0.000000
71
10
72
64
73
9
0
VERTEX
8
0
6
CONTINUOUS
62
252
70
128
10
0.000000
20
0.000000
30
0.000000
71
9
72
64
73
65
0
VERTEX
8
0
6
CONTINUOUS
62
252
70
128
10
0.000000
20
0.000000
30
0.000000
71
9
72
65
73
8
0
VERTEX
8
0
6
CONTINUOUS
62
252
70
128
10
0.000000
20
0.000000
30
0.000000
71
8
72
65
73
66
0
VERTEX
8
0
6
CONTINUOUS
62
252
70
128
10
0.000000
20
0.000000
30
0.000000
71
8
72
66
73
7
0
VERTEX
8
0
6
CONTINUOUS
62
252
70
128
10
0.000000
20
0.000000
30
0.000000
71
7
72
66
73
67
0
VERTEX
8
0
6
CONTINUOUS
62
252
70
128
10
0.000000
20
0.000000
30
0.000000
71
7
72
67
73
6
0
VERTEX
8
0
6
CONTINUOUS
62
252
70
128
10
0.000000
20
0.000000
30
0.000000
71
6
72
67
73
68
0
VERTEX
8
0
6
CONTINUOUS
62
252
70
128
10
0.000000
20
0.000000
30
0.000000
71
6
72
68
73
5
0
VERTEX
8
0
6
CONTINUOUS
62
252
70
128
10
0.000000
20
0.000000
30
0.000000
71
5
72
68
73
69
0
VERTEX
8
0
6
CONTINUOUS
62
252
70
128
10
0.000000
20
0.000000
30
0.000000
71
5
72
69
73
4
0
VERTEX
8
0
6
CONTINUOUS
62
252
70
128
10
0.000000
20
0.000000
30
0.000000
71
4
72
69
73
70
0
VERTEX
8
0
6
CONTINUOUS
62
252
70
128
10
0.000000
20
0.000000
30
0.000000
71
4
72
70
73
3
0
VERTEX
8
0
6
CONTINUOUS
62
252
70
128
10
0.000000
20
0.000000
30
0.000000
71
3
72
70
73
71
0
VERTEX
8
0
6
CONTINUOUS
62
252
70
128
10
0.000000
20
0.000000
30
0.000000
71
3
72
71
73
2
0
VERTEX
8
0
6
CONTINUOUS
62
252
70
128
10
0.000000
20
0.000000
30
0.000000
71
2
72
71
73
72
0
SEQEND
0
POLYLINE
66
1
8
0
6
CONTINUOUS
62
252
70
64
75
0
10
0.000000
20
0.000000
30
0.000000
0
VERTEX
8
0
6
CONTINUOUS
62
252
70
192
10
-18.000000
20
-40.000000
30
-47.000000
0
VERTEX
8
0
6
CONTINUOUS
62
252
70
192
10
-18.440575
20
-40.000000
30
-41.964203
0
VERTEX
8
0
6
CONTINUOUS
62
252
70
192
10
-19.748914
20
-40.000000
30
-37.081416
0
VERTEX
8
0
6
CONTINUOUS
62
252
70
192
10
-21.885263
20
-40.000000
30
-32.500000
0
VERTEX
8
0
6
CONTINUOUS
62
252
70
192
10
-24.784711
20
-40.000000
30
-28.359159
0
VERTEX
8
0
6
CONTINUOUS
62
252
70
192
10
-28.359159
20
-40.000000
30
-24.784711
0
VERTEX
8
0
6
CONTINUOUS
62
252
70
192
10
-32.500000
20
-40.000000
30
-21.885263
0
VERTEX
8
0
6
CONTINUOUS
62
252
70
192
10
-37.081416
20
-40.000000
30
-19.748914
0
VERTEX
8
0
6
CONTINUOUS
62
252
70
192
10
-41.964203
20
-40.000000
30
-18.440575
0
VERTEX
8
0
6
CONTINUOUS
62
252
70
192
10
-47.000000
20
-40.000000
30
-18.000000
0
VERTEX
8
0
6
CONTINUOUS
62
252
70
192
10
-52.035797
20
-40.000000
30
-18.440575
0
VERTEX
8
0
6
CONTINUOUS
62
252
70
192
10
-56.918584
20
-40.000000
30
-19.748914
0
VERTEX
8
0
6
CONTINUOUS
62
252
70
192
10
-61.500000
20
-40.000000
30
-21.885263
0
VERTEX
8
0
6
CONTINUOUS
62
252
70
192
10
-65.640841
20
-40.000000
30
-24.784711
0
VERTEX
8
0
6
CONTINUOUS
62
252
70
192
10
-69.215289
20
-40.000000
30
-28.359159
0
VERTEX
8
0
6
CONTINUOUS
62
252
70
192
10
-72.114737
20
-40.000000
30
-32.500000
0
VERTEX
8
0
6
CONTINUOUS
62
252
70
192
10
-74.251086
20
-40.000000
30
-37.081416
0
VERTEX
8
0
6
CONTINUOUS
62
252
70
192
10
-75.559425
20
-40.000000
30
-41.964203
0
VERTEX
8
0
6
CONTINUOUS
62
252
70
192
10
-76.000000
20
-40.000000
30
-47.000000
0
VERTEX
8
0
6
CONTINUOUS
62
252
70
192
10
-75.559425
20
-40.000000
30
-52.035797
0
VERTEX
8
0
6
CONTINUOUS
62
252
70
192
10
-74.251086
20
-40.000000
30
-56.918584
0
VERTEX
8
0
6
CONTINUOUS
62
252
70
192
10
-72.114737
20
-40.000000
30
-61.500000
0
VERTEX
8
0
6
CONTINUOUS
62
252
70
192
10
-69.215289
20
-40.000000
30
-65.640841
0
VERTEX
8
0
6
CONTINUOUS
62
252
70
192
10
-65.640841
20
-40.000000
30
-69.215289
0
VERTEX
8
0
6
CONTINUOUS
62
252
70
192
10
-61.500000
20
-40.000000
30
-72.114737
0
VERTEX
8
0
6
CONTINUOUS
62
252
70
192
10
-56.918584
20
-40.000000
30
-74.251086
0
VERTEX
8
0
6
CONTINUOUS
62
252
70
192
10
-52.035797
20
-40.000000
30
-75.559425
0
VERTEX
8
0
6
CONTINUOUS
62
252
70
192
10
-47.000000
20
-40.000000
30
-76.000000
0
VERTEX
8
0
6
CONTINUOUS
62
252
70
192
10
-41.964203
20
-40.000000
30
-75.559425
0
VERTEX
8
0
6
CONTINUOUS
62
252
70
192
10
-37.081416
20
-40.000000
30
-74.251086
0
VERTEX
8
0
6
CONTINUOUS
62
252
70
192
10
-32.500000
20
-40.000000
30
-72.114737
0
VERTEX
8
0
6
CONTINUOUS
62
252
70
192
10
-28.359159
20
-40.000000
30
-69.215289
0
VERTEX
8
0
6
CONTINUOUS
62
252
70
192
10
-24.784711
20
-40.000000
30
-65.640841
0
VERTEX
8
0
6
CONTINUOUS
62
252
70
192
10
-21.885263
20
-40.000000
30
-61.500000
0
VERTEX
8
0
6
CONTINUOUS
62
252
70
192
10
-19.748914
20
-40.000000
30
-56.918584
0
VERTEX
8
0
6
CONTINUOUS
62
252
70
192
10
-18.440575
20
-40.000000
30
-52.035797
0
VERTEX
8
0
6
CONTINUOUS
62
252
70
128
10
0.000000
20
0.000000
30
0.000000
71
36
72
1
73
17
0
VERTEX
8
0
6
CONTINUOUS
62
252
70
128
10
0.000000
20
0.000000
30
0.000000
71
17
72
1
73
2
0
VERTEX
8
0
6
CONTINUOUS
62
252
70
128
10
0.000000
20
0.000000
30
0.000000
71
17
72
2
73
3
0
VERTEX
8
0
6
CONTINUOUS
62
252
70
128
10
0.000000
20
0.000000
30
0.000000
71
3
72
4
73
17
0
VERTEX
8
0
6
CONTINUOUS
62
252
70
128
10
0.000000
20
0.000000
30
0.000000
71
17
72
4
73
5
0
VERTEX
8
0
6
CONTINUOUS
62
252
70
128
10
0.000000
20
0.000000
30
0.000000
71
17
72
5
73
16
0
VERTEX
8
0
6
CONTINUOUS
62
252
70
128
10
0.000000
20
0.000000
30
0.000000
71
16
72
5
73
15
0
VERTEX
8
0
6
CONTINUOUS
62
252
70
128
10
0.000000
20
0.000000
30
0.000000
71
15
72
5
73
14
0
VERTEX
8
0
6
CONTINUOUS
62
252
70
128
10
0.000000
20
0.000000
30
0.000000
71
14
72
5
73
6
0
VERTEX
8
0
6
CONTINUOUS
62
252
70
128
10
0.000000
20
0.000000
30
0.000000
71
14
72
6
73
7
0
VERTEX
8
0
6
CONTINUOUS
62
252
70
128
10
0.000000
20
0.000000
30
0.000000
71
7
72
8
73
14
0
VERTEX
8
0
6
CONTINUOUS
62
252
70
128
10
0.000000
20
0.000000
30
0.000000
71
14
72
8
73
13
0
VERTEX
8
0
6
CONTINUOUS
62
252
70
128
10
0.000000
20
0.000000
30
0.000000
71
13
72
8
73
12
0
VERTEX
8
0
6
CONTINUOUS
62
252
70
128
10
0.000000
20
0.000000
30
0.000000
71
12
72
8
73
11
0
VERTEX
8
0
6
CONTINUOUS
62
252
70
128
10
0.000000
20
0.000000
30
0.000000
71
11
72
8
73
10
0
VERTEX
8
0
6
CONTINUOUS
62
252
70
128
10
0.000000
20
0.000000
30
0.000000
71
10
72
8
73
9
0
VERTEX
8
0
6
CONTINUOUS
62
252
70
128
10
0.000000
20
0.000000
30
0.000000
71
17
72
18
73
36
0
VERTEX
8
0
6
CONTINUOUS
62
252
70
128
10
0.000000
20
0.000000
30
0.000000
71
36
72
18
73
19
0
VERTEX
8
0
6
CONTINUOUS
62
252
70
128
10
0.000000
20
0.000000
30
0.000000
71
36
72
19
73
20
0
VERTEX
8
0
6
CONTINUOUS
62
252
70
128
10
0.000000
20
0.000000
30
0.000000
71
20
72
21
73
36
0
VERTEX
8
0
6
CONTINUOUS
62
252
70
128
10
0.000000
20
0.000000
30
0.000000
71
36
72
21
73
22
0
VERTEX
8
0
6
CONTINUOUS
62
252
70
128
10
0.000000
20
0.000000
30
0.000000
71
36
72
22
73
35
0
VERTEX
8
0
6
CONTINUOUS
62
252
70
128
10
0.000000
20
0.000000
30
0.000000
71
35
72
22
73
34
0
VERTEX
8
0
6
CONTINUOUS
62
252
70
128
10
0.000000
20
0.000000
30
0.000000
71
34
72
22
73
33
0
VERTEX
8
0
6
CONTINUOUS
62
252
70
128
10
0.000000
20
0.000000
30
0.000000
71
33
72
22
73
32
0
VERTEX
8
0
6
CONTINUOUS
62
252
70
128
10
0.000000
20
0.000000
30
0.000000
71
32
72
22
73
31
0
VERTEX
8
0
6
CONTINUOUS
62
252
70
128
10
0.000000
20
0.000000
30
0.000000
71
31
72
22
73
23
0
VERTEX
8
0
6
CONTINUOUS
62
252
70
128
10
0.000000
20
0.000000
30
0.000000
71
31
72
23
73
24
0
VERTEX
8
0
6
CONTINUOUS
62
252
70
128
10
0.000000
20
0.000000
30
0.000000
71
24
72
25
73
31
0
VERTEX
8
0
6
CONTINUOUS
62
252
70
128
10
0.000000
20
0.000000
30
0.000000
71
31
72
25
73
30
0
VERTEX
8
0
6
CONTINUOUS
62
252
70
128
10
0.000000
20
0.000000
30
0.000000
71
30
72
25
73
26
0
VERTEX
8
0
6
CONTINUOUS
62
252
70
128
10
0.000000
20
0.000000
30
0.000000
71
30
72
26
73
27
0
VERTEX
8
0
6
CONTINUOUS
62
252
70
128
10
0.000000
20
0.000000
30
0.000000
71
27
72
28
73
30
0
VERTEX
8
0
6
CONTINUOUS
62
252
70
128
10
0.000000
20
0.000000
30
0.000000
71
30
72
28
73
29
0
SEQEND
0
POLYLINE
66
1
8
0
6
CONTINUOUS
62
252
70
64
75
0
10
0.000000
20
0.000000
30
0.000000
0
VERTEX
8
0
6
CONTINUOUS
62
252
70
192
10
-3.308353
20
-38.000000
30
-59.700000
0
VERTEX
8
0
6
CONTINUOUS
62
252
70
192
10
-3.308353
20
-2.000000
30
-59.700000
0
VERTEX
8
0
6
CONTINUOUS
62
252
70
192
10
26.904384
20
-2.000000
30
-59.700000
0
VERTEX
8
0
6
CONTINUOUS
62
252
70
192
10
26.904384
20
-38.000000
30
-59.700000
0
VERTEX
8
0
6
CONTINUOUS
62
252
70
128
10
0.000000
20
0.000000
30
0.000000
71
2
72
3
73
1
0
VERTEX
8
0
6
CONTINUOUS
62
252
70
128
10
0.000000
20
0.000000
30
0.000000
71
1
72
3
73
4
0
SEQEND
0
POLYLINE
66
1
8
0
6
CONTINUOUS
62
252
70
64
75
0
10
0.000000
20
0.000000
30
0.000000
0
VERTEX
8
0
6
CONTINUOUS
62
252
70
192
10
26.904384
20
-38.000000
30
-128.900000
0
VERTEX
8
0
6
CONTINUOUS
62
252
70
192
10
26.904384
20
-2.000000
30
-128.900000
0
VERTEX
8
0
6
CONTINUOUS
62
252
70
192
10
-47.000000
20
-2.000000
30
-128.900000
0
VERTEX
8
0
6
CONTINUOUS
62
252
70
192
10
-47.000000
20
-38.000000
30
-128.900000
0
VERTEX
8
0
6
CONTINUOUS
62
252
70
128
10
0.000000
20
0.000000
30
0.000000
71
2
72
3
73
1
0
VERTEX
8
0
6
CONTINUOUS
62
252
70
128
10
0.000000
20
0.000000
30
0.000000
71
1
72
3
73
4
0
SEQEND
0
POLYLINE
66
1
8
0
6
CONTINUOUS
62
252
70
64
75
0
10
0.000000
20
0.000000
30
0.000000
0
VERTEX
8
0
6
CONTINUOUS
62
252
70
192
10
-47.000000
20
-38.000000
30
-92.500000
0
VERTEX
8
0
6
CONTINUOUS
62
252
70
192
10
-39.706568
20
-38.000000
30
-91.911645
0
VERTEX
8
0
6
CONTINUOUS
62
252
70
192
10
-32.601756
20
-38.000000
30
-90.161795
0
VERTEX
8
0
6
CONTINUOUS
62
252
70
192
10
-25.869309
20
-38.000000
30
-87.295706
0
VERTEX
8
0
6
CONTINUOUS
62
252
70
192
10
-19.683338
20
-38.000000
30
-83.387498
0
VERTEX
8
0
6
CONTINUOUS
62
252
70
192
10
-14.203825
20
-38.000000
30
-78.538245
0
VERTEX
8
0
6
CONTINUOUS
62
252
70
192
10
-9.572479
20
-38.000000
30
-72.873358
0
VERTEX
8
0
6
CONTINUOUS
62
252
70
192
10
-5.909074
20
-38.000000
30
-66.539340
0
VERTEX
8
0
6
CONTINUOUS
62
252
70
192
10
-3.308353
20
-38.000000
30
-59.700000
0
VERTEX
8
0
6
CONTINUOUS
62
252
70
192
10
26.904384
20
-38.000000
30
-59.700000
0
VERTEX
8
0
6
CONTINUOUS
62
252
70
192
10
26.904384
20
-38.000000
30
-128.900000
0
VERTEX
8
0
6
CONTINUOUS
62
252
70
192
10
-47.000000
20
-38.000000
30
-128.900000
0
VERTEX
8
0
6
CONTINUOUS
62
252
70
128
10
0.000000
20
0.000000
30
0.000000
71
1
72
2
73
12
0
VERTEX
8
0
6
CONTINUOUS
62
252
70
128
10
0.000000
20
0.000000
30
0.000000
71
12
72
2
73
3
0
VERTEX
8
0
6
CONTINUOUS
62
252
70
128
10
0.000000
20
0.000000
30
0.000000
71
12
72
3
73
4
0
VERTEX
8
0
6
CONTINUOUS
62
252
70
128
10
0.000000
20
0.000000
30
0.000000
71
12
72
4
73
11
0
VERTEX
8
0
6
CONTINUOUS
62
252
70
128
10
0.000000
20
0.000000
30
0.000000
71
11
72
4
73
5
0
VERTEX
8
0
6
CONTINUOUS
62
252
70
128
10
0.000000
20
0.000000
30
0.000000
71
11
72
5
73
6
0
VERTEX
8
0
6
CONTINUOUS
62
252
70
128
10
0.000000
20
0.000000
30
0.000000
71
6
72
7
73
11
0
VERTEX
8
0
6
CONTINUOUS
62
252
70
128
10
0.000000
20
0.000000
30
0.000000
71
11
72
7
73
10
0
VERTEX
8
0
6
CONTINUOUS
62
252
70
128
10
0.000000
20
0.000000
30
0.000000
71
10
72
7
73
8
0
VERTEX
8
0
6
CONTINUOUS
62
252
70
128
10
0.000000
20
0.000000
30
0.000000
71
10
72
8
73
9
0
SEQEND
0
POLYLINE
66
1
8
0
6
CONTINUOUS
62
252
70
64
75
0
10
0.000000
20
0.000000
30
0.000000
0
VERTEX
8
0
6
CONTINUOUS
62
252
70
192
10
-47.000000
20
-2.000000
30
-92.500000
0
VERTEX
8
0
6
CONTINUOUS
62
252
70
192
10
-47.000000
20
-38.000000
30
-92.500000
0
VERTEX
8
0
6
CONTINUOUS
62
252
70
192
10
-47.000000
20
-38.000000
30
-128.900000
0
VERTEX
8
0
6
CONTINUOUS
62
252
70
192
10
-47.000000
20
-2.000000
30
-128.900000
0
VERTEX
8
0
6
CONTINUOUS
62
252
70
128
10
0.000000
20
0.000000
30
0.000000
71
2
72
3
73
1
0
VERTEX
8
0
6
CONTINUOUS
62
252
70
128
10
0.000000
20
0.000000
30
0.000000
71
1
72
3
73
4
0
SEQEND
0
POLYLINE
66
1
8
0
6
CONTINUOUS
62
252
70
64
75
0
10
0.000000
20
0.000000
30
0.000000
0
VERTEX
8
0
6
CONTINUOUS
62
252
70
192
10
-18.000000
20
-2.000000
30
-47.000000
0
VERTEX
8
0
6
CONTINUOUS
62
252
70
192
10
-18.440575
20
-2.000000
30
-52.035797
0
VERTEX
8
0
6
CONTINUOUS
62
252
70
192
10
-19.748914
20
-2.000000
30
-56.918584
0
VERTEX
8
0
6
CONTINUOUS
62
252
70
192
10
-21.885263
20
-2.000000
30
-61.500000
0
VERTEX
8
0
6
CONTINUOUS
62
252
70
192
10
-24.784711
20
-2.000000
30
-65.640841
0
VERTEX
8
0
6
CONTINUOUS
62
252
70
192
10
-28.359159
20
-2.000000
30
-69.215289
0
VERTEX
8
0
6
CONTINUOUS
62
252
70
192
10
-32.500000
20
-2.000000
30
-72.114737
0
VERTEX
8
0
6
CONTINUOUS
62
252
70
192
10
-37.081416
20
-2.000000
30
-74.251086
0
VERTEX
8
0
6
CONTINUOUS
62
252
70
192
10
-41.964203
20
-2.000000
30
-75.559425
0
VERTEX
8
0
6
CONTINUOUS
62
252
70
192
10
-47.000000
20
-2.000000
30
-76.000000
0
VERTEX
8
0
6
CONTINUOUS
62
252
70
192
10
-52.035797
20
-2.000000
30
-75.559425
0
VERTEX
8
0
6
CONTINUOUS
62
252
70
192
10
-56.918584
20
-2.000000
30
-74.251086
0
VERTEX
8
0
6
CONTINUOUS
62
252
70
192
10
-61.500000
20
-2.000000
30
-72.114737
0
VERTEX
8
0
6
CONTINUOUS
62
252
70
192
10
-65.640841
20
-2.000000
30
-69.215289
0
VERTEX
8
0
6
CONTINUOUS
62
252
70
192
10
-69.215289
20
-2.000000
30
-65.640841
0
VERTEX
8
0
6
CONTINUOUS
62
252
70
192
10
-72.114737
20
-2.000000
30
-61.500000
0
VERTEX
8
0
6
CONTINUOUS
62
252
70
192
10
-74.251086
20
-2.000000
30
-56.918584
0
VERTEX
8
0
6
CONTINUOUS
62
252
70
192
10
-75.559425
20
-2.000000
30
-52.035797
0
VERTEX
8
0
6
CONTINUOUS
62
252
70
192
10
-76.000000
20
-2.000000
30
-47.000000
0
VERTEX
8
0
6
CONTINUOUS
62
252
70
192
10
-75.559425
20
-2.000000
30
-41.964203
0
VERTEX
8
0
6
CONTINUOUS
62
252
70
192
10
-74.251086
20
-2.000000
30
-37.081416
0
VERTEX
8
0
6
CONTINUOUS
62
252
70
192
10
-72.114737
20
-2.000000
30
-32.500000
0
VERTEX
8
0
6
CONTINUOUS
62
252
70
192
10
-69.215289
20
-2.000000
30
-28.359159
0
VERTEX
8
0
6
CONTINUOUS
62
252
70
192
10
-65.640841
20
-2.000000
30
-24.784711
0
VERTEX
8
0
6
CONTINUOUS
62
252
70
192
10
-61.500000
20
-2.000000
30
-21.885263
0
VERTEX
8
0
6
CONTINUOUS
62
252
70
192
10
-56.918584
20
-2.000000
30
-19.748914
0
VERTEX
8
0
6
CONTINUOUS
62
252
70
192
10
-52.035797
20
-2.000000
30
-18.440575
0
VERTEX
8
0
6
CONTINUOUS
62
252
70
192
10
-47.000000
20
-2.000000
30
-18.000000
0
VERTEX
8
0
6
CONTINUOUS
62
252
70
192
10
-41.964203
20
-2.000000
30
-18.440575
0
VERTEX
8
0
6
CONTINUOUS
62
252
70
192
10
-37.081416
20
-2.000000
30
-19.748914
0
VERTEX
8
0
6
CONTINUOUS
62
252
70
192
10
-32.500000
20
-2.000000
30
-21.885263
0
VERTEX
8
0
6
CONTINUOUS
62
252
70
192
10
-28.359159
20
-2.000000
30
-24.784711
0
VERTEX
8
0
6
CONTINUOUS
62
252
70
192
10
-24.784711
20
-2.000000
30
-28.359159
0
VERTEX
8
0
6
CONTINUOUS
62
252
70
192
10
-21.885263
20
-2.000000
30
-32.500000
0
VERTEX
8
0
6
CONTINUOUS
62
252
70
192
10
-19.748914
20
-2.000000
30
-37.081416
0
VERTEX
8
0
6
CONTINUOUS
62
252
70
192
10
-18.440575
20
-2.000000
30
-41.964203
0
VERTEX
8
0
6
CONTINUOUS
62
252
70
192
10
-3.308353
20
-2.000000
30
-59.700000
0
VERTEX
8
0
6
CONTINUOUS
62
252
70
192
10
-1.778143
20
-2.000000
30
-52.023308
0
VERTEX
8
0
6
CONTINUOUS
62
252
70
192
10
-1.586363
20
-2.000000
30
-44.197940
0
VERTEX
8
0
6
CONTINUOUS
62
252
70
192
10
-2.738689
20
-2.000000
30
-36.455506
0
VERTEX
8
0
6
CONTINUOUS
62
252
70
192
10
-5.201017
20
-2.000000
30
-29.025156
0
VERTEX
8
0
6
CONTINUOUS
62
252
70
192
10
-8.900468
20
-2.000000
30
-22.126808
0
VERTEX
8
0
6
CONTINUOUS
62
252
70
192
10
-13.727551
20
-2.000000
30
-15.964631
0
VERTEX
8
0
6
CONTINUOUS
62
252
70
192
10
-19.539398
20
-2.000000
30
-10.721007
0
VERTEX
8
0
6
CONTINUOUS
62
252
70
192
10
-26.163996
20
-2.000000
30
-6.551132
0
VERTEX
8
0
6
CONTINUOUS
62
252
70
192
10
-33.405276
20
-2.000000
30
-3.578421
0
VERTEX
8
0
6
CONTINUOUS
62
252
70
192
10
-41.048920
20
-2.000000
30
-1.890859
0
VERTEX
8
0
6
CONTINUOUS
62
252
70
192
10
-48.868697
20
-2.000000
30
-1.538390
0
VERTEX
8
0
6
CONTINUOUS
62
252
70
192
10
-56.633166
20
-2.000000
30
-2.531448
0
VERTEX
8
0
6
CONTINUOUS
62
252
70
192
10
-64.112523
20
-2.000000
30
-4.840641
0
VERTEX
8
0
6
CONTINUOUS
62
252
70
192
10
-71.085401
20
-2.000000
30
-8.397624
0
VERTEX
8
0
6
CONTINUOUS
62
252
70
192
10
-77.345424
20
-2.000000
30
-13.097120
0
VERTEX
8
0
6
CONTINUOUS
62
252
70
192
10
-82.707314
20
-2.000000
30
-18.800040
0
VERTEX
8
0
6
CONTINUOUS
62
252
70
192
10
-87.012375
20
-2.000000
30
-25.337593
0
VERTEX
8
0
6
CONTINUOUS
62
252
70
192
10
-90.133190
20
-2.000000
30
-32.516288
0
VERTEX
8
0
6
CONTINUOUS
62
252
70
192
10
-91.977393
20
-2.000000
30
-40.123657
0
VERTEX
8
0
6
CONTINUOUS
62
252
70
192
10
-92.490401
20
-2.000000
30
-47.934546
0
VERTEX
8
0
6
CONTINUOUS
62
252
70
192
10
-91.657031
20
-2.000000
30
-55.717774
0
VERTEX
8
0
6
CONTINUOUS
62
252
70
192
10
-89.501947
20
-2.000000
30
-63.242983
0
VERTEX
8
0
6
CONTINUOUS
62
252
70
192
10
-86.088934
20
-2.000000
30
-70.287448
0
VERTEX
8
0
6
CONTINUOUS
62
252
70
192
10
-81.519006
20
-2.000000
30
-76.642675
0
VERTEX
8
0
6
CONTINUOUS
62
252
70
192
10
-75.927420
20
-2.000000
30
-82.120569
0
VERTEX
8
0
6
CONTINUOUS
62
252
70
192
10
-69.479670
20
-2.000000
30
-86.559000
0
VERTEX
8
0
6
CONTINUOUS
62
252
70
192
10
-62.366589
20
-2.000000
30
-89.826603
0
VERTEX
8
0
6
CONTINUOUS
62
252
70
192
10
-54.798704
20
-2.000000
30
-91.826669
0
VERTEX
8
0
6
CONTINUOUS
62
252
70
192
10
-47.000000
20
-2.000000
30
-92.500000
0
VERTEX
8
0
6
CONTINUOUS
62
252
70
192
10
-47.000000
20
-2.000000
30
-128.900000
0
VERTEX
8
0
6
CONTINUOUS
62
252
70
192
10
26.904384
20
-2.000000
30
-128.900000
0
VERTEX
8
0
6
CONTINUOUS
62
252
70
192
10
26.904384
20
-2.000000
30
-59.700000
0
VERTEX
8
0
6
CONTINUOUS
62
252
70
128
10
0.000000
20
0.000000
30
0.000000
71
2
72
38
73
1
0
VERTEX
8
0
6
CONTINUOUS
62
252
70
128
10
0.000000
20
0.000000
30
0.000000
71
1
72
38
73
39
0
VERTEX
8
0
6
CONTINUOUS
62
252
70
128
10
0.000000
20
0.000000
30
0.000000
71
1
72
39
73
36
0
VERTEX
8
0
6
CONTINUOUS
62
252
70
128
10
0.000000
20
0.000000
30
0.000000
71
36
72
39
73
40
0
VERTEX
8
0
6
CONTINUOUS
62
252
70
128
10
0.000000
20
0.000000
30
0.000000
71
36
72
40
73
35
0
VERTEX
8
0
6
CONTINUOUS
62
252
70
128
10
0.000000
20
0.000000
30
0.000000
71
35
72
40
73
41
0
VERTEX
8
0
6
CONTINUOUS
62
252
70
128
10
0.000000
20
0.000000
30
0.000000
71
35
72
41
73
34
0
VERTEX
8
0
6
CONTINUOUS
62
252
70
128
10
0.000000
20
0.000000
30
0.000000
71
34
72
41
73
42
0
VERTEX
8
0
6
CONTINUOUS
62
252
70
128
10
0.000000
20
0.000000
30
0.000000
71
34
72
42
73
33
0
VERTEX
8
0
6
CONTINUOUS
62
252
70
128
10
0.000000
20
0.000000
30
0.000000
71
33
72
42
73
43
0
VERTEX
8
0
6
CONTINUOUS
62
252
70
128
10
0.000000
20
0.000000
30
0.000000
71
33
72
43
73
32
0
VERTEX
8
0
6
CONTINUOUS
62
252
70
128
10
0.000000
20
0.000000
30
0.000000
71
32
72
43
73
44
0
VERTEX
8
0
6
CONTINUOUS
62
252
70
128
10
0.000000
20
0.000000
30
0.000000
71
32
72
44
73
31
0
VERTEX
8
0
6
CONTINUOUS
62
252
70
128
10
0.000000
20
0.000000
30
0.000000
71
31
72
44
73
45
0
VERTEX
8
0
6
CONTINUOUS
62
252
70
128
10
0.000000
20
0.000000
30
0.000000
71
31
72
45
73
30
0
VERTEX
8
0
6
CONTINUOUS
62
252
70
128
10
0.000000
20
0.000000
30
0.000000
71
30
72
45
73
46
0
VERTEX
8
0
6
CONTINUOUS
62
252
70
128
10
0.000000
20
0.000000
30
0.000000
71
30
72
46
73
29
0
VERTEX
8
0
6
CONTINUOUS
62
252
70
128
10
0.000000
20
0.000000
30
0.000000
71
29
72
46
73
47
0
VERTEX
8
0
6
CONTINUOUS
62
252
70
128
10
0.000000
20
0.000000
30
0.000000
71
29
72
47
73
28
0
VERTEX
8
0
6
CONTINUOUS
62
252
70
128
10
0.000000
20
0.000000
30
0.000000
71
28
72
47
73
48
0
VERTEX
8
0
6
CONTINUOUS
62
252
70
128
10
0.000000
20
0.000000
30
0.000000
71
28
72
48
73
27
0
VERTEX
8
0
6
CONTINUOUS
62
252
70
128
10
0.000000
20
0.000000
30
0.000000
71
27
72
48
73
49
0
VERTEX
8
0
6
CONTINUOUS
62
252
70
128
10
0.000000
20
0.000000
30
0.000000
71
27
72
49
73
26
0
VERTEX
8
0
6
CONTINUOUS
62
252
70
128
10
0.000000
20
0.000000
30
0.000000
71
26
72
49
73
50
0
VERTEX
8
0
6
CONTINUOUS
62
252
70
128
10
0.000000
20
0.000000
30
0.000000
71
26
72
50
73
25
0
VERTEX
8
0
6
CONTINUOUS
62
252
70
128
10
0.000000
20
0.000000
30
0.000000
71
25
72
50
73
51
0
VERTEX
8
0
6
CONTINUOUS
62
252
70
128
10
0.000000
20
0.000000
30
0.000000
71
25
72
51
73
24
0
VERTEX
8
0
6
CONTINUOUS
62
252
70
128
10
0.000000
20
0.000000
30
0.000000
71
24
72
51
73
52
0
VERTEX
8
0
6
CONTINUOUS
62
252
70
128
10
0.000000
20
0.000000
30
0.000000
71
24
72
52
73
23
0
VERTEX
8
0
6
CONTINUOUS
62
252
70
128
10
0.000000
20
0.000000
30
0.000000
71
23
72
52
73
53
0
VERTEX
8
0
6
CONTINUOUS
62
252
70
128
10
0.000000
20
0.000000
30
0.000000
71
23
72
53
73
22
0
VERTEX
8
0
6
CONTINUOUS
62
252
70
128
10
0.000000
20
0.000000
30
0.000000
71
22
72
53
73
54
0
VERTEX
8
0
6
CONTINUOUS
62
252
70
128
10
0.000000
20
0.000000
30
0.000000
71
22
72
54
73
21
0
VERTEX
8
0
6
CONTINUOUS
62
252
70
128
10
0.000000
20
0.000000
30
0.000000
71
21
72
54
73
55
0
VERTEX
8
0
6
CONTINUOUS
62
252
70
128
10
0.000000
20
0.000000
30
0.000000
71
21
72
55
73
20
0
VERTEX
8
0
6
CONTINUOUS
62
252
70
128
10
0.000000
20
0.000000
30
0.000000
71
20
72
55
73
56
0
VERTEX
8
0
6
CONTINUOUS
62
252
70
128
10
0.000000
20
0.000000
30
0.000000
71
20
72
56
73
19
0
VERTEX
8
0
6
CONTINUOUS
62
252
70
128
10
0.000000
20
0.000000
30
0.000000
71
19
72
56
73
57
0
VERTEX
8
0
6
CONTINUOUS
62
252
70
128
10
0.000000
20
0.000000
30
0.000000
71
19
72
57
73
18
0
VERTEX
8
0
6
CONTINUOUS
62
252
70
128
10
0.000000
20
0.000000
30
0.000000
71
18
72
57
73
58
0
VERTEX
8
0
6
CONTINUOUS
62
252
70
128
10
0.000000
20
0.000000
30
0.000000
71
18
72
58
73
17
0
VERTEX
8
0
6
CONTINUOUS
62
252
70
128
10
0.000000
20
0.000000
30
0.000000
71
17
72
58
73
59
0
VERTEX
8
0
6
CONTINUOUS
62
252
70
128
10
0.000000
20
0.000000
30
0.000000
71
17
72
59
73
60
0
VERTEX
8
0
6
CONTINUOUS
62
252
70
128
10
0.000000
20
0.000000
30
0.000000
71
38
72
2
73
37
0
VERTEX
8
0
6
CONTINUOUS
62
252
70
128
10
0.000000
20
0.000000
30
0.000000
71
37
72
2
73
3
0
VERTEX
8
0
6
CONTINUOUS
62
252
70
128
10
0.000000
20
0.000000
30
0.000000
71
37
72
3
73
4
0
VERTEX
8
0
6
CONTINUOUS
62
252
70
128
10
0.000000
20
0.000000
30
0.000000
71
4
72
5
73
37
0
VERTEX
8
0
6
CONTINUOUS
62
252
70
128
10
0.000000
20
0.000000
30
0.000000
71
37
72
5
73
6
0
VERTEX
8
0
6
CONTINUOUS
62
252
70
128
10
0.000000
20
0.000000
30
0.000000
71
37
72
6
73
68
0
VERTEX
8
0
6
CONTINUOUS
62
252
70
128
10
0.000000
20
0.000000
30
0.000000
71
68
72
6
73
7
0
VERTEX
8
0
6
CONTINUOUS
62
252
70
128
10
0.000000
20
0.000000
30
0.000000
71
68
72
7
73
66
0
VERTEX
8
0
6
CONTINUOUS
62
252
70
128
10
0.000000
20
0.000000
30
0.000000
71
66
72
7
73
8
0
VERTEX
8
0
6
CONTINUOUS
62
252
70
128
10
0.000000
20
0.000000
30
0.000000
71
66
72
8
73
9
0
VERTEX
8
0
6
CONTINUOUS
62
252
70
128
10
0.000000
20
0.000000
30
0.000000
71
9
72
10
73
66
0
VERTEX
8
0
6
CONTINUOUS
62
252
70
128
10
0.000000
20
0.000000
30
0.000000
71
66
72
10
73
11
0
VERTEX
8
0
6
CONTINUOUS
62
252
70
128
10
0.000000
20
0.000000
30
0.000000
71
66
72
11
73
65
0
VERTEX
8
0
6
CONTINUOUS
62
252
70
128
10
0.000000
20
0.000000
30
0.000000
71
65
72
11
73
12
0
VERTEX
8
0
6
CONTINUOUS
62
252
70
128
10
0.000000
20
0.000000
30
0.000000
71
65
72
12
73
64
0
VERTEX
8
0
6
CONTINUOUS
62
252
70
128
10
0.000000
20
0.000000
30
0.000000
71
64
72
12
73
13
0
VERTEX
8
0
6
CONTINUOUS
62
252
70
128
10
0.000000
20
0.000000
30
0.000000
71
64
72
13
73
63
0
VERTEX
8
0
6
CONTINUOUS
62
252
70
128
10
0.000000
20
0.000000
30
0.000000
71
63
72
13
73
14
0
VERTEX
8
0
6
CONTINUOUS
62
252
70
128
10
0.000000
20
0.000000
30
0.000000
71
63
72
14
73
62
0
VERTEX
8
0
6
CONTINUOUS
62
252
70
128
10
0.000000
20
0.000000
30
0.000000
71
62
72
14
73
15
0
VERTEX
8
0
6
CONTINUOUS
62
252
70
128
10
0.000000
20
0.000000
30
0.000000
71
62
72
15
73
61
0
VERTEX
8
0
6
CONTINUOUS
62
252
70
128
10
0.000000
20
0.000000
30
0.000000
71
61
72
15
73
16
0
VERTEX
8
0
6
CONTINUOUS
62
252
70
128
10
0.000000
20
0.000000
30
0.000000
71
61
72
16
73
60
0
VERTEX
8
0
6
CONTINUOUS
62
252
70
128
10
0.000000
20
0.000000
30
0.000000
71
60
72
16
73
17
0
VERTEX
8
0
6
CONTINUOUS
62
252
70
128
10
0.000000
20
0.000000
30
0.000000
71
66
72
67
73
68
0
VERTEX
8
0
6
CONTINUOUS
62
252
70
128
10
0.000000
20
0.000000
30
0.000000
71
68
72
69
73
37
0
SEQEND
0
POLYLINE
66
1
8
0
6
CONTINUOUS
62
252
70
64
75
0
10
0.000000
20
0.000000
30
0.000000
0
VERTEX
8
0
6
CONTINUOUS
62
252
70
192
10
-47.000000
20
-38.000000
30
-92.500000
0
VERTEX
8
0
6
CONTINUOUS
62
252
70
192
10
-47.000000
20
-2.000000
30
-92.500000
0
VERTEX
8
0
6
CONTINUOUS
62
252
70
192
10
-54.798704
20
-2.000000
30
-91.826669
0
VERTEX
8
0
6
CONTINUOUS
62
252
70
192
10
-62.366589
20
-2.000000
30
-89.826603
0
VERTEX
8
0
6
CONTINUOUS
62
252
70
192
10
-69.479670
20
-2.000000
30
-86.559000
0
VERTEX
8
0
6
CONTINUOUS
62
252
70
192
10
-75.927420
20
-2.000000
30
-82.120569
0
VERTEX
8
0
6
CONTINUOUS
62
252
70
192
10
-81.519006
20
-2.000000
30
-76.642675
0
VERTEX
8
0
6
CONTINUOUS
62
252
70
192
10
-86.088934
20
-2.000000
30
-70.287448
0
VERTEX
8
0
6
CONTINUOUS
62
252
70
192
10
-89.501947
20
-2.000000
30
-63.242983
0
VERTEX
8
0
6
CONTINUOUS
62
252
70
192
10
-91.657031
20
-2.000000
30
-55.717774
0
VERTEX
8
0
6
CONTINUOUS
62
252
70
192
10
-92.490401
20
-2.000000
30
-47.934546
0
VERTEX
8
0
6
CONTINUOUS
62
252
70
192
10
-91.977393
20
-2.000000
30
-40.123657
0
VERTEX
8
0
6
CONTINUOUS
62
252
70
192
10
-90.133190
20
-2.000000
30
-32.516288
0
VERTEX
8
0
6
CONTINUOUS
62
252
70
192
10
-87.012375
20
-2.000000
30
-25.337593
0
VERTEX
8
0
6
CONTINUOUS
62
252
70
192
10
-82.707314
20
-2.000000
30
-18.800040
0
VERTEX
8
0
6
CONTINUOUS
62
252
70
192
10
-77.345424
20
-2.000000
30
-13.097120
0
VERTEX
8
0
6
CONTINUOUS
62
252
70
192
10
-71.085401
20
-2.000000
30
-8.397624
0
VERTEX
8
0
6
CONTINUOUS
62
252
70
192
10
-64.112523
20
-2.000000
30
-4.840641
0
VERTEX
8
0
6
CONTINUOUS
62
252
70
192
10
-56.633166
20
-2.000000
30
-2.531448
0
VERTEX
8
0
6
CONTINUOUS
62
252
70
192
10
-48.868697
20
-2.000000
30
-1.538390
0
VERTEX
8
0
6
CONTINUOUS
62
252
70
192
10
-41.048920
20
-2.000000
30
-1.890859
0
VERTEX
8
0
6
CONTINUOUS
62
252
70
192
10
-33.405276
20
-2.000000
30
-3.578421
0
VERTEX
8
0
6
CONTINUOUS
62
252
70
192
10
-26.163996
20
-2.000000
30
-6.551132
0
VERTEX
8
0
6
CONTINUOUS
62
252
70
192
10
-19.539398
20
-2.000000
30
-10.721007
0
VERTEX
8
0
6
CONTINUOUS
62
252
70
192
10
-13.727551
20
-2.000000
30
-15.964631
0
VERTEX
8
0
6
CONTINUOUS
62
252
70
192
10
-8.900468
20
-2.000000
30
-22.126808
0
VERTEX
8
0
6
CONTINUOUS
62
252
70
192
10
-5.201017
20
-2.000000
30
-29.025156
0
VERTEX
8
0
6
CONTINUOUS
62
252
70
192
10
-2.738689
20
-2.000000
30
-36.455506
0
VERTEX
8
0
6
CONTINUOUS
62
252
70
192
10
-1.586363
20
-2.000000
30
-44.197940
0
VERTEX
8
0
6
CONTINUOUS
62
252
70
192
10
-1.778143
20
-2.000000
30
-52.023308
0
VERTEX
8
0
6
CONTINUOUS
62
252
70
192
10
-3.308353
20
-2.000000
30
-59.700000
0
VERTEX
8
0
6
CONTINUOUS
62
252
70
192
10
-3.308353
20
-38.000000
30
-59.700000
0
VERTEX
8
0
6
CONTINUOUS
62
252
70
192
10
-5.909074
20
-38.000000
30
-66.539340
0
VERTEX
8
0
6
CONTINUOUS
62
252
70
192
10
-9.572479
20
-38.000000
30
-72.873358
0
VERTEX
8
0
6
CONTINUOUS
62
252
70
192
10
-14.203825
20
-38.000000
30
-78.538245
0
VERTEX
8
0
6
CONTINUOUS
62
252
70
192
10
-19.683338
20
-38.000000
30
-83.387498
0
VERTEX
8
0
6
CONTINUOUS
62
252
70
192
10
-25.869309
20
-38.000000
30
-87.295706
0
VERTEX
8
0
6
CONTINUOUS
62
252
70
192
10
-32.601756
20
-38.000000
30
-90.161795
0
VERTEX
8
0
6
CONTINUOUS
62
252
70
192
10
-39.706568
20
-38.000000
30
-91.911645
0
VERTEX
8
0
6
CONTINUOUS
62
252
70
192
10
-1.500000
20
-40.000000
30
-47.000000
0
VERTEX
8
0
6
CONTINUOUS
62
252
70
192
10
-2.191247
20
-40.000000
30
-39.099008
0
VERTEX
8
0
6
CONTINUOUS
62
252
70
192
10
-4.243986
20
-40.000000
30
-31.438083
0
VERTEX
8
0
6
CONTINUOUS
62
252
70
192
10
-7.595844
20
-40.000000
30
-24.250000
0
VERTEX
8
0
6
CONTINUOUS
62
252
70
192
10
-12.144978
20
-40.000000
30
-17.753164
0
VERTEX
8
0
6
CONTINUOUS
62
252
70
192
10
-17.753164
20
-40.000000
30
-12.144978
0
VERTEX
8
0
6
CONTINUOUS
62
252
70
192
10
-24.250000
20
-40.000000
30
-7.595844
0
VERTEX
8
0
6
CONTINUOUS
62
252
70
192
10
-31.438083
20
-40.000000
30
-4.243986
0
VERTEX
8
0
6
CONTINUOUS
62
252
70
192
10
-39.099008
20
-40.000000
30
-2.191247
0
VERTEX
8
0
6
CONTINUOUS
62
252
70
192
10
-47.000000
20
-40.000000
30
-1.500000
0
VERTEX
8
0
6
CONTINUOUS
62
252
70
192
10
-54.900992
20
-40.000000
30
-2.191247
0
VERTEX
8
0
6
CONTINUOUS
62
252
70
192
10
-62.561917
20
-40.000000
30
-4.243986
0
VERTEX
8
0
6
CONTINUOUS
62
252
70
192
10
-69.750000
20
-40.000000
30
-7.595844
0
VERTEX
8
0
6
CONTINUOUS
62
252
70
192
10
-76.246836
20
-40.000000
30
-12.144978
0
VERTEX
8
0
6
CONTINUOUS
62
252
70
192
10
-81.855022
20
-40.000000
30
-17.753164
0
VERTEX
8
0
6
CONTINUOUS
62
252
70
192
10
-86.404156
20
-40.000000
30
-24.250000
0
VERTEX
8
0
6
CONTINUOUS
62
252
70
192
10
-89.756014
20
-40.000000
30
-31.438083
0
VERTEX
8
0
6
CONTINUOUS
62
252
70
192
10
-91.808753
20
-40.000000
30
-39.099008
0
VERTEX
8
0
6
CONTINUOUS
62
252
70
192
10
-92.500000
20
-40.000000
30
-47.000000
0
VERTEX
8
0
6
CONTINUOUS
62
252
70
192
10
-91.808753
20
-40.000000
30
-54.900992
0
VERTEX
8
0
6
CONTINUOUS
62
252
70
192
10
-89.756014
20
-40.000000
30
-62.561917
0
VERTEX
8
0
6
CONTINUOUS
62
252
70
192
10
-86.404156
20
-40.000000
30
-69.750000
0
VERTEX
8
0
6
CONTINUOUS
62
252
70
192
10
-81.855022
20
-40.000000
30
-76.246836
0
VERTEX
8
0
6
CONTINUOUS
62
252
70
192
10
-76.246836
20
-40.000000
30
-81.855022
0
VERTEX
8
0
6
CONTINUOUS
62
252
70
192
10
-69.750000
20
-40.000000
30
-86.404156
0
VERTEX
8
0
6
CONTINUOUS
62
252
70
192
10
-62.561917
20
-40.000000
30
-89.756014
0
VERTEX
8
0
6
CONTINUOUS
62
252
70
192
10
-54.900992
20
-40.000000
30
-91.808753
0
VERTEX
8
0
6
CONTINUOUS
62
252
70
192
10
-47.000000
20
-40.000000
30
-92.500000
0
VERTEX
8
0
6
CONTINUOUS
62
252
70
192
10
-39.099008
20
-40.000000
30
-91.808753
0
VERTEX
8
0
6
CONTINUOUS
62
252
70
192
10
-31.438083
20
-40.000000
30
-89.756014
0
VERTEX
8
0
6
CONTINUOUS
62
252
70
192
10
-24.250000
20
-40.000000
30
-86.404156
0
VERTEX
8
0
6
CONTINUOUS
62
252
70
192
10
-17.753164
20
-40.000000
30
-81.855022
0
VERTEX
8
0
6
CONTINUOUS
62
252
70
192
10
-12.144978
20
-40.000000
30
-76.246836
0
VERTEX
8
0
6
CONTINUOUS
62
252
70
192
10
-7.595844
20
-40.000000
30
-69.750000
0
VERTEX
8
0
6
CONTINUOUS
62
252
70
192
10
-4.243986
20
-40.000000
30
-62.561917
0
VERTEX
8
0
6
CONTINUOUS
62
252
70
192
10
-2.191247
20
-40.000000
30
-54.900992
0
VERTEX
8
0
6
CONTINUOUS
62
252
70
128
10
0.000000
20
0.000000
30
0.000000
71
2
72
3
73
1
0
VERTEX
8
0
6
CONTINUOUS
62
252
70
128
10
0.000000
20
0.000000
30
0.000000
71
1
72
3
73
66
0
VERTEX
8
0
6
CONTINUOUS
62
252
70
128
10
0.000000
20
0.000000
30
0.000000
71
1
72
66
73
67
0
VERTEX
8
0
6
CONTINUOUS
62
252
70
128
10
0.000000
20
0.000000
30
0.000000
71
3
72
4
73
66
0
VERTEX
8
0
6
CONTINUOUS
62
252
70
128
10
0.000000
20
0.000000
30
0.000000
71
66
72
4
73
65
0
VERTEX
8
0
6
CONTINUOUS
62
252
70
128
10
0.000000
20
0.000000
30
0.000000
71
65
72
4
73
5
0
VERTEX
8
0
6
CONTINUOUS
62
252
70
128
10
0.000000
20
0.000000
30
0.000000
71
65
72
5
73
64
0
VERTEX
8
0
6
CONTINUOUS
62
252
70
128
10
0.000000
20
0.000000
30
0.000000
71
64
72
5
73
6
0
VERTEX
8
0
6
CONTINUOUS
62
252
70
128
10
0.000000
20
0.000000
30
0.000000
71
64
72
6
73
63
0
VERTEX
8
0
6
CONTINUOUS
62
252
70
128
10
0.000000
20
0.000000
30
0.000000
71
63
72
6
73
7
0
VERTEX
8
0
6
CONTINUOUS
62
252
70
128
10
0.000000
20
0.000000
30
0.000000
71
63
72
7
73
62
0
VERTEX
8
0
6
CONTINUOUS
62
252
70
128
10
0.000000
20
0.000000
30
0.000000
71
62
72
7
73
8
0
VERTEX
8
0
6
CONTINUOUS
62
252
70
128
10
0.000000
20
0.000000
30
0.000000
71
62
72
8
73
61
0
VERTEX
8
0
6
CONTINUOUS
62
252
70
128
10
0.000000
20
0.000000
30
0.000000
71
61
72
8
73
9
0
VERTEX
8
0
6
CONTINUOUS
62
252
70
128
10
0.000000
20
0.000000
30
0.000000
71
61
72
9
73
60
0
VERTEX
8
0
6
CONTINUOUS
62
252
70
128
10
0.000000
20
0.000000
30
0.000000
71
60
72
9
73
10
0
VERTEX
8
0
6
CONTINUOUS
62
252
70
128
10
0.000000
20
0.000000
30
0.000000
71
60
72
10
73
59
0
VERTEX
8
0
6
CONTINUOUS
62
252
70
128
10
0.000000
20
0.000000
30
0.000000
71
59
72
10
73
11
0
VERTEX
8
0
6
CONTINUOUS
62
252
70
128
10
0.000000
20
0.000000
30
0.000000
71
59
72
11
73
58
0
VERTEX
8
0
6
CONTINUOUS
62
252
70
128
10
0.000000
20
0.000000
30
0.000000
71
58
72
11
73
12
0
VERTEX
8
0
6
CONTINUOUS
62
252
70
128
10
0.000000
20
0.000000
30
0.000000
71
58
72
12
73
57
0
VERTEX
8
0
6
CONTINUOUS
62
252
70
128
10
0.000000
20
0.000000
30
0.000000
71
57
72
12
73
13
0
VERTEX
8
0
6
CONTINUOUS
62
252
70
128
10
0.000000
20
0.000000
30
0.000000
71
57
72
13
73
56
0
VERTEX
8
0
6
CONTINUOUS
62
252
70
128
10
0.000000
20
0.000000
30
0.000000
71
56
72
13
73
14
0
VERTEX
8
0
6
CONTINUOUS
62
252
70
128
10
0.000000
20
0.000000
30
0.000000
71
56
72
14
73
55
0
VERTEX
8
0
6
CONTINUOUS
62
252
70
128
10
0.000000
20
0.000000
30
0.000000
71
55
72
14
73
15
0
VERTEX
8
0
6
CONTINUOUS
62
252
70
128
10
0.000000
20
0.000000
30
0.000000
71
55
72
15
73
54
0
VERTEX
8
0
6
CONTINUOUS
62
252
70
128
10
0.000000
20
0.000000
30
0.000000
71
54
72
15
73
16
0
VERTEX
8
0
6
CONTINUOUS
62
252
70
128
10
0.000000
20
0.000000
30
0.000000
71
54
72
16
73
53
0
VERTEX
8
0
6
CONTINUOUS
62
252
70
128
10
0.000000
20
0.000000
30
0.000000
71
53
72
16
73
17
0
VERTEX
8
0
6
CONTINUOUS
62
252
70
128
10
0.000000
20
0.000000
30
0.000000
71
53
72
17
73
52
0
VERTEX
8
0
6
CONTINUOUS
62
252
70
128
10
0.000000
20
0.000000
30
0.000000
71
52
72
17
73
18
0
VERTEX
8
0
6
CONTINUOUS
62
252
70
128
10
0.000000
20
0.000000
30
0.000000
71
52
72
18
73
51
0
VERTEX
8
0
6
CONTINUOUS
62
252
70
128
10
0.000000
20
0.000000
30
0.000000
71
51
72
18
73
19
0
VERTEX
8
0
6
CONTINUOUS
62
252
70
128
10
0.000000
20
0.000000
30
0.000000
71
51
72
19
73
50
0
VERTEX
8
0
6
CONTINUOUS
62
252
70
128
10
0.000000
20
0.000000
30
0.000000
71
50
72
19
73
20
0
VERTEX
8
0
6
CONTINUOUS
62
252
70
128
10
0.000000
20
0.000000
30
0.000000
71
50
72
20
73
49
0
VERTEX
8
0
6
CONTINUOUS
62
252
70
128
10
0.000000
20
0.000000
30
0.000000
71
49
72
20
73
21
0
VERTEX
8
0
6
CONTINUOUS
62
252
70
128
10
0.000000
20
0.000000
30
0.000000
71
49
72
21
73
48
0
VERTEX
8
0
6
CONTINUOUS
62
252
70
128
10
0.000000
20
0.000000
30
0.000000
71
48
72
21
73
22
0
VERTEX
8
0
6
CONTINUOUS
62
252
70
128
10
0.000000
20
0.000000
30
0.000000
71
48
72
22
73
47
0
VERTEX
8
0
6
CONTINUOUS
62
252
70
128
10
0.000000
20
0.000000
30
0.000000
71
47
72
22
73
23
0
VERTEX
8
0
6
CONTINUOUS
62
252
70
128
10
0.000000
20
0.000000
30
0.000000
71
47
72
23
73
46
0
VERTEX
8
0
6
CONTINUOUS
62
252
70
128
10
0.000000
20
0.000000
30
0.000000
71
46
72
23
73
24
0
VERTEX
8
0
6
CONTINUOUS
62
252
70
128
10
0.000000
20
0.000000
30
0.000000
71
46
72
24
73
45
0
VERTEX
8
0
6
CONTINUOUS
62
252
70
128
10
0.000000
20
0.000000
30
0.000000
71
45
72
24
73
25
0
VERTEX
8
0
6
CONTINUOUS
62
252
70
128
10
0.000000
20
0.000000
30
0.000000
71
45
72
25
73
44
0
VERTEX
8
0
6
CONTINUOUS
62
252
70
128
10
0.000000
20
0.000000
30
0.000000
71
44
72
25
73
26
0
VERTEX
8
0
6
CONTINUOUS
62
252
70
128
10
0.000000
20
0.000000
30
0.000000
71
44
72
26
73
43
0
VERTEX
8
0
6
CONTINUOUS
62
252
70
128
10
0.000000
20
0.000000
30
0.000000
71
43
72
26
73
27
0
VERTEX
8
0
6
CONTINUOUS
62
252
70
128
10
0.000000
20
0.000000
30
0.000000
71
43
72
27
73
42
0
VERTEX
8
0
6
CONTINUOUS
62
252
70
128
10
0.000000
20
0.000000
30
0.000000
71
42
72
27
73
28
0
VERTEX
8
0
6
CONTINUOUS
62
252
70
128
10
0.000000
20
0.000000
30
0.000000
71
42
72
28
73
41
0
VERTEX
8
0
6
CONTINUOUS
62
252
70
128
10
0.000000
20
0.000000
30
0.000000
71
41
72
28
73
29
0
VERTEX
8
0
6
CONTINUOUS
62
252
70
128
10
0.000000
20
0.000000
30
0.000000
71
41
72
29
73
40
0
VERTEX
8
0
6
CONTINUOUS
62
252
70
128
10
0.000000
20
0.000000
30
0.000000
71
40
72
29
73
30
0
VERTEX
8
0
6
CONTINUOUS
62
252
70
128
10
0.000000
20
0.000000
30
0.000000
71
40
72
30
73
75
0
VERTEX
8
0
6
CONTINUOUS
62
252
70
128
10
0.000000
20
0.000000
30
0.000000
71
75
72
30
73
31
0
VERTEX
8
0
6
CONTINUOUS
62
252
70
128
10
0.000000
20
0.000000
30
0.000000
71
75
72
31
73
32
0
VERTEX
8
0
6
CONTINUOUS
62
252
70
128
10
0.000000
20
0.000000
30
0.000000
71
75
72
32
73
74
0
VERTEX
8
0
6
CONTINUOUS
62
252
70
128
10
0.000000
20
0.000000
30
0.000000
71
74
72
32
73
33
0
VERTEX
8
0
6
CONTINUOUS
62
252
70
128
10
0.000000
20
0.000000
30
0.000000
71
74
72
33
73
73
0
VERTEX
8
0
6
CONTINUOUS
62
252
70
128
10
0.000000
20
0.000000
30
0.000000
71
73
72
33
73
34
0
VERTEX
8
0
6
CONTINUOUS
62
252
70
128
10
0.000000
20
0.000000
30
0.000000
71
73
72
34
73
72
0
VERTEX
8
0
6
CONTINUOUS
62
252
70
128
10
0.000000
20
0.000000
30
0.000000
71
72
72
34
73
35
0
VERTEX
8
0
6
CONTINUOUS
62
252
70
128
10
0.000000
20
0.000000
30
0.000000
71
72
72
35
73
71
0
VERTEX
8
0
6
CONTINUOUS
62
252
70
128
10
0.000000
20
0.000000
30
0.000000
71
71
72
35
73
36
0
VERTEX
8
0
6
CONTINUOUS
62
252
70
128
10
0.000000
20
0.000000
30
0.000000
71
71
72
36
73
70
0
VERTEX
8
0
6
CONTINUOUS
62
252
70
128
10
0.000000
20
0.000000
30
0.000000
71
70
72
36
73
37
0
VERTEX
8
0
6
CONTINUOUS
62
252
70
128
10
0.000000
20
0.000000
30
0.000000
71
70
72
37
73
69
0
VERTEX
8
0
6
CONTINUOUS
62
252
70
128
10
0.000000
20
0.000000
30
0.000000
71
69
72
37
73
38
0
VERTEX
8
0
6
CONTINUOUS
62
252
70
128
10
0.000000
20
0.000000
30
0.000000
71
69
72
38
73
68
0
VERTEX
8
0
6
CONTINUOUS
62
252
70
128
10
0.000000
20
0.000000
30
0.000000
71
68
72
38
73
39
0
VERTEX
8
0
6
CONTINUOUS
62
252
70
128
10
0.000000
20
0.000000
30
0.000000
71
68
72
39
73
67
0
VERTEX
8
0
6
CONTINUOUS
62
252
70
128
10
0.000000
20
0.000000
30
0.000000
71
67
72
39
73
1
0
SEQEND
0
POLYLINE
66
1
8
0
6
CONTINUOUS
62
252
70
64
75
0
10
0.000000
20
0.000000
30
0.000000
0
VERTEX
8
0
6
CONTINUOUS
62
252
70
192
10
-103.250000
20
0.000000
30
-105.500000
0
VERTEX
8
0
6
CONTINUOUS
62
252
70
192
10
-103.284183
20
-0.000000
30
-105.890708
0
VERTEX
8
0
6
CONTINUOUS
62
252
70
192
10
-103.385692
20
-0.000000
30
-106.269545
0
VERTEX
8
0
6
CONTINUOUS
62
252
70
192
10
-103.551443
20
-0.000000
30
-106.625000
0
VERTEX
8
0
6
CONTINUOUS
62
252
70
192
10
-103.776400
20
-0.000000
30
-106.946272
0
VERTEX
8
0
6
CONTINUOUS
62
252
70
192
10
-104.053728
20
-0.000000
30
-107.223600
0
VERTEX
8
0
6
CONTINUOUS
62
252
70
192
10
-104.375000
20
-0.000000
30
-107.448557
0
VERTEX
8
0
6
CONTINUOUS
62
252
70
192
10
-104.730455
20
-0.000000
30
-107.614308
0
VERTEX
8
0
6
CONTINUOUS
62
252
70
192
10
-105.109292
20
-0.000000
30
-107.715817
0
VERTEX
8
0
6
CONTINUOUS
62
252
70
192
10
-105.500000
20
-0.000000
30
-107.750000
0
VERTEX
8
0
6
CONTINUOUS
62
252
70
192
10
-105.890708
20
-0.000000
30
-107.715817
0
VERTEX
8
0
6
CONTINUOUS
62
252
70
192
10
-106.269545
20
-0.000000
30
-107.614308
0
VERTEX
8
0
6
CONTINUOUS
62
252
70
192
10
-106.625000
20
-0.000000
30
-107.448557
0
VERTEX
8
0
6
CONTINUOUS
62
252
70
192
10
-106.946272
20
-0.000000
30
-107.223600
0
VERTEX
8
0
6
CONTINUOUS
62
252
70
192
10
-107.223600
20
-0.000000
30
-106.946272
0
VERTEX
8
0
6
CONTINUOUS
62
252
70
192
10
-107.448557
20
-0.000000
30
-106.625000
0
VERTEX
8
0
6
CONTINUOUS
62
252
70
192
10
-107.614308
20
-0.000000
30
-106.269545
0
VERTEX
8
0
6
CONTINUOUS
62
252
70
192
10
-107.715817
20
-0.000000
30
-105.890708
0
VERTEX
8
0
6
CONTINUOUS
62
252
70
192
10
-107.750000
20
-0.000000
30
-105.500000
0
VERTEX
8
0
6
CONTINUOUS
62
252
70
192
10
-107.715817
20
-0.000000
30
-105.109292
0
VERTEX
8
0
6
CONTINUOUS
62
252
70
192
10
-107.614308
20
-0.000000
30
-104.730455
0
VERTEX
8
0
6
CONTINUOUS
62
252
70
192
10
-107.448557
20
-0.000000
30
-104.375000
0
VERTEX
8
0
6
CONTINUOUS
62
252
70
192
10
-107.223600
20
-0.000000
30
-104.053728
0
VERTEX
8
0
6
CONTINUOUS
62
252
70
192
10
-106.946272
20
-0.000000
30
-103.776400
0
VERTEX
8
0
6
CONTINUOUS
62
252
70
192
10
-106.625000
20
-0.000000
30
-103.551443
0
VERTEX
8
0
6
CONTINUOUS
62
252
70
192
10
-106.269545
20
-0.000000
30
-103.385692
0
VERTEX
8
0
6
CONTINUOUS
62
252
70
192
10
-105.890708
20
-0.000000
30
-103.284183
0
VERTEX
8
0
6
CONTINUOUS
62
252
70
192
10
-105.500000
20
-0.000000
30
-103.250000
0
VERTEX
8
0
6
CONTINUOUS
62
252
70
192
10
-105.109292
20
-0.000000
30
-103.284183
0
VERTEX
8
0
6
CONTINUOUS
62
252
70
192
10
-104.730455
20
-0.000000
30
-103.385692
0
VERTEX
8
0
6
CONTINUOUS
62
252
70
192
10
-104.375000
20
-0.000000
30
-103.551443
0
VERTEX
8
0
6
CONTINUOUS
62
252
70
192
10
-104.053728
20
-0.000000
30
-103.776400
0
VERTEX
8
0
6
CONTINUOUS
62
252
70
192
10
-103.776400
20
-0.000000
30
-104.053728
0
VERTEX
8
0
6
CONTINUOUS
62
252
70
192
10
-103.551443
20
-0.000000
30
-104.375000
0
VERTEX
8
0
6
CONTINUOUS
62
252
70
192
10
-103.385692
20
-0.000000
30
-104.730455
0
VERTEX
8
0
6
CONTINUOUS
62
252
70
192
10
-103.284183
20
-0.000000
30
-105.109292
0
VERTEX
8
0
6
CONTINUOUS
62
252
70
192
10
-103.250000
20
-40.000000
30
-105.500000
0
VERTEX
8
0
6
CONTINUOUS
62
252
70
192
10
-103.284183
20
-40.000000
30
-105.109292
0
VERTEX
8
0
6
CONTINUOUS
62
252
70
192
10
-103.385692
20
-40.000000
30
-104.730455
0
VERTEX
8
0
6
CONTINUOUS
62
252
70
192
10
-103.551443
20
-40.000000
30
-104.375000
0
VERTEX
8
0
6
CONTINUOUS
62
252
70
192
10
-103.776400
20
-40.000000
30
-104.053728
0
VERTEX
8
0
6
CONTINUOUS
62
252
70
192
10
-104.053728
20
-40.000000
30
-103.776400
0
VERTEX
8
0
6
CONTINUOUS
62
252
70
192
10
-104.375000
20
-40.000000
30
-103.551443
0
VERTEX
8
0
6
CONTINUOUS
62
252
70
192
10
-104.730455
20
-40.000000
30
-103.385692
0
VERTEX
8
0
6
CONTINUOUS
62
252
70
192
10
-105.109292
20
-40.000000
30
-103.284183
0
VERTEX
8
0
6
CONTINUOUS
62
252
70
192
10
-105.500000
20
-40.000000
30
-103.250000
0
VERTEX
8
0
6
CONTINUOUS
62
252
70
192
10
-105.890708
20
-40.000000
30
-103.284183
0
VERTEX
8
0
6
CONTINUOUS
62
252
70
192
10
-106.269545
20
-40.000000
30
-103.385692
0
VERTEX
8
0
6
CONTINUOUS
62
252
70
192
10
-106.625000
20
-40.000000
30
-103.551443
0
VERTEX
8
0
6
CONTINUOUS
62
252
70
192
10
-106.946272
20
-40.000000
30
-103.776400
0
VERTEX
8
0
6
CONTINUOUS
62
252
70
192
10
-107.223600
20
-40.000000
30
-104.053728
0
VERTEX
8
0
6
CONTINUOUS
62
252
70
192
10
-107.448557
20
-40.000000
30
-104.375000
0
VERTEX
8
0
6
CONTINUOUS
62
252
70
192
10
-107.614308
20
-40.000000
30
-104.730455
0
VERTEX
8
0
6
CONTINUOUS
62
252
70
192
10
-107.715817
20
-40.000000
30
-105.109292
0
VERTEX
8
0
6
CONTINUOUS
62
252
70
192
10
-107.750000
20
-40.000000
30
-105.500000
0
VERTEX
8
0
6
CONTINUOUS
62
252
70
192
10
-107.715817
20
-40.000000
30
-105.890708
0
VERTEX
8
0
6
CONTINUOUS
62
252
70
192
10
-107.614308
20
-40.000000
30
-106.269545
0
VERTEX
8
0
6
CONTINUOUS
62
252
70
192
10
-107.448557
20
-40.000000
30
-106.625000
0
VERTEX
8
0
6
CONTINUOUS
62
252
70
192
10
-107.223600
20
-40.000000
30
-106.946272
0
VERTEX
8
0
6
CONTINUOUS
62
252
70
192
10
-106.946272
20
-40.000000
30
-107.223600
0
VERTEX
8
0
6
CONTINUOUS
62
252
70
192
10
-106.625000
20
-40.000000
30
-107.448557
0
VERTEX
8
0
6
CONTINUOUS
62
252
70
192
10
-106.269545
20
-40.000000
30
-107.614308
0
VERTEX
8
0
6
CONTINUOUS
62
252
70
192
10
-105.890708
20
-40.000000
30
-107.715817
0
VERTEX
8
0
6
CONTINUOUS
62
252
70
192
10
-105.500000
20
-40.000000
30
-107.750000
0
VERTEX
8
0
6
CONTINUOUS
62
252
70
192
10
-105.109292
20
-40.000000
30
-107.715817
0
VERTEX
8
0
6
CONTINUOUS
62
252
70
192
10
-104.730455
20
-40.000000
30
-107.614308
0
VERTEX
8
0
6
CONTINUOUS
62
252
70
192
10
-104.375000
20
-40.000000
30
-107.448557
0
VERTEX
8
0
6
CONTINUOUS
62
252
70
192
10
-104.053728
20
-40.000000
30
-107.223600
0
VERTEX
8
0
6
CONTINUOUS
62
252
70
192
10
-103.776400
20
-40.000000
30
-106.946272
0
VERTEX
8
0
6
CONTINUOUS
62
252
70
192
10
-103.551443
20
-40.000000
30
-106.625000
0
VERTEX
8
0
6
CONTINUOUS
62
252
70
192
10
-103.385692
20
-40.000000
30
-106.269545
0
VERTEX
8
0
6
CONTINUOUS
62
252
70
192
10
-103.284183
20
-40.000000
30
-105.890708
0
VERTEX
8
0
6
CONTINUOUS
62
252
70
128
10
0.000000
20
0.000000
30
0.000000
71
2
72
37
73
1
0
VERTEX
8
0
6
CONTINUOUS
62
252
70
128
10
0.000000
20
0.000000
30
0.000000
71
1
72
37
73
38
0
VERTEX
8
0
6
CONTINUOUS
62
252
70
128
10
0.000000
20
0.000000
30
0.000000
71
1
72
38
73
36
0
VERTEX
8
0
6
CONTINUOUS
62
252
70
128
10
0.000000
20
0.000000
30
0.000000
71
36
72
38
73
39
0
VERTEX
8
0
6
CONTINUOUS
62
252
70
128
10
0.000000
20
0.000000
30
0.000000
71
36
72
39
73
35
0
VERTEX
8
0
6
CONTINUOUS
62
252
70
128
10
0.000000
20
0.000000
30
0.000000
71
35
72
39
73
40
0
VERTEX
8
0
6
CONTINUOUS
62
252
70
128
10
0.000000
20
0.000000
30
0.000000
71
35
72
40
73
34
0
VERTEX
8
0
6
CONTINUOUS
62
252
70
128
10
0.000000
20
0.000000
30
0.000000
71
34
72
40
73
41
0
VERTEX
8
0
6
CONTINUOUS
62
252
70
128
10
0.000000
20
0.000000
30
0.000000
71
34
72
41
73
33
0
VERTEX
8
0
6
CONTINUOUS
62
252
70
128
10
0.000000
20
0.000000
30
0.000000
71
33
72
41
73
42
0
VERTEX
8
0
6
CONTINUOUS
62
252
70
128
10
0.000000
20
0.000000
30
0.000000
71
33
72
42
73
32
0
VERTEX
8
0
6
CONTINUOUS
62
252
70
128
10
0.000000
20
0.000000
30
0.000000
71
32
72
42
73
43
0
VERTEX
8
0
6
CONTINUOUS
62
252
70
128
10
0.000000
20
0.000000
30
0.000000
71
32
72
43
73
31
0
VERTEX
8
0
6
CONTINUOUS
62
252
70
128
10
0.000000
20
0.000000
30
0.000000
71
31
72
43
73
44
0
VERTEX
8
0
6
CONTINUOUS
62
252
70
128
10
0.000000
20
0.000000
30
0.000000
71
31
72
44
73
30
0
VERTEX
8
0
6
CONTINUOUS
62
252
70
128
10
0.000000
20
0.000000
30
0.000000
71
30
72
44
73
45
0
VERTEX
8
0
6
CONTINUOUS
62
252
70
128
10
0.000000
20
0.000000
30
0.000000
71
30
72
45
73
29
0
VERTEX
8
0
6
CONTINUOUS
62
252
70
128
10
0.000000
20
0.000000
30
0.000000
71
29
72
45
73
46
0
VERTEX
8
0
6
CONTINUOUS
62
252
70
128
10
0.000000
20
0.000000
30
0.000000
71
29
72
46
73
28
0
VERTEX
8
0
6
CONTINUOUS
62
252
70
128
10
0.000000
20
0.000000
30
0.000000
71
28
72
46
73
27
0
VERTEX
8
0
6
CONTINUOUS
62
252
70
128
10
0.000000
20
0.000000
30
0.000000
71
27
72
46
73
47
0
VERTEX
8
0
6
CONTINUOUS
62
252
70
128
10
0.000000
20
0.000000
30
0.000000
71
27
72
47
73
26
0
VERTEX
8
0
6
CONTINUOUS
62
252
70
128
10
0.000000
20
0.000000
30
0.000000
71
26
72
47
73
48
0
VERTEX
8
0
6
CONTINUOUS
62
252
70
128
10
0.000000
20
0.000000
30
0.000000
71
26
72
48
73
25
0
VERTEX
8
0
6
CONTINUOUS
62
252
70
128
10
0.000000
20
0.000000
30
0.000000
71
25
72
48
73
49
0
VERTEX
8
0
6
CONTINUOUS
62
252
70
128
10
0.000000
20
0.000000
30
0.000000
71
25
72
49
73
24
0
VERTEX
8
0
6
CONTINUOUS
62
252
70
128
10
0.000000
20
0.000000
30
0.000000
71
24
72
49
73
50
0
VERTEX
8
0
6
CONTINUOUS
62
252
70
128
10
0.000000
20
0.000000
30
0.000000
71
24
72
50
73
23
0
VERTEX
8
0
6
CONTINUOUS
62
252
70
128
10
0.000000
20
0.000000
30
0.000000
71
23
72
50
73
51
0
VERTEX
8
0
6
CONTINUOUS
62
252
70
128
10
0.000000
20
0.000000
30
0.000000
71
23
72
51
73
22
0
VERTEX
8
0
6
CONTINUOUS
62
252
70
128
10
0.000000
20
0.000000
30
0.000000
71
22
72
51
73
52
0
VERTEX
8
0
6
CONTINUOUS
62
252
70
128
10
0.000000
20
0.000000
30
0.000000
71
22
72
52
73
21
0
VERTEX
8
0
6
CONTINUOUS
62
252
70
128
10
0.000000
20
0.000000
30
0.000000
71
21
72
52
73
53
0
VERTEX
8
0
6
CONTINUOUS
62
252
70
128
10
0.000000
20
0.000000
30
0.000000
71
21
72
53
73
20
0
VERTEX
8
0
6
CONTINUOUS
62
252
70
128
10
0.000000
20
0.000000
30
0.000000
71
20
72
53
73
54
0
VERTEX
8
0
6
CONTINUOUS
62
252
70
128
10
0.000000
20
0.000000
30
0.000000
71
20
72
54
73
19
0
VERTEX
8
0
6
CONTINUOUS
62
252
70
128
10
0.000000
20
0.000000
30
0.000000
71
19
72
54
73
55
0
VERTEX
8
0
6
CONTINUOUS
62
252
70
128
10
0.000000
20
0.000000
30
0.000000
71
19
72
55
73
18
0
VERTEX
8
0
6
CONTINUOUS
62
252
70
128
10
0.000000
20
0.000000
30
0.000000
71
18
72
55
73
56
0
VERTEX
8
0
6
CONTINUOUS
62
252
70
128
10
0.000000
20
0.000000
30
0.000000
71
18
72
56
73
17
0
VERTEX
8
0
6
CONTINUOUS
62
252
70
128
10
0.000000
20
0.000000
30
0.000000
71
17
72
56
73
57
0
VERTEX
8
0
6
CONTINUOUS
62
252
70
128
10
0.000000
20
0.000000
30
0.000000
71
17
72
57
73
16
0
VERTEX
8
0
6
CONTINUOUS
62
252
70
128
10
0.000000
20
0.000000
30
0.000000
71
16
72
57
73
58
0
VERTEX
8
0
6
CONTINUOUS
62
252
70
128
10
0.000000
20
0.000000
30
0.000000
71
16
72
58
73
15
0
VERTEX
8
0
6
CONTINUOUS
62
252
70
128
10
0.000000
20
0.000000
30
0.000000
71
15
72
58
73
59
0
VERTEX
8
0
6
CONTINUOUS
62
252
70
128
10
0.000000
20
0.000000
30
0.000000
71
15
72
59
73
14
0
VERTEX
8
0
6
CONTINUOUS
62
252
70
128
10
0.000000
20
0.000000
30
0.000000
71
14
72
59
73
60
0
VERTEX
8
0
6
CONTINUOUS
62
252
70
128
10
0.000000
20
0.000000
30
0.000000
71
14
72
60
73
13
0
VERTEX
8
0
6
CONTINUOUS
62
252
70
128
10
0.000000
20
0.000000
30
0.000000
71
13
72
60
73
61
0
VERTEX
8
0
6
CONTINUOUS
62
252
70
128
10
0.000000
20
0.000000
30
0.000000
71
13
72
61
73
12
0
VERTEX
8
0
6
CONTINUOUS
62
252
70
128
10
0.000000
20
0.000000
30
0.000000
71
12
72
61
73
62
0
VERTEX
8
0
6
CONTINUOUS
62
252
70
128
10
0.000000
20
0.000000
30
0.000000
71
12
72
62
73
11
0
VERTEX
8
0
6
CONTINUOUS
62
252
70
128
10
0.000000
20
0.000000
30
0.000000
71
11
72
62
73
63
0
VERTEX
8
0
6
CONTINUOUS
62
252
70
128
10
0.000000
20
0.000000
30
0.000000
71
11
72
63
73
10
0
VERTEX
8
0
6
CONTINUOUS
62
252
70
128
10
0.000000
20
0.000000
30
0.000000
71
10
72
63
73
64
0
VERTEX
8
0
6
CONTINUOUS
62
252
70
128
10
0.000000
20
0.000000
30
0.000000
71
10
72
64
73
65
0
VERTEX
8
0
6
CONTINUOUS
62
252
70
128
10
0.000000
20
0.000000
30
0.000000
71
37
72
2
73
72
0
VERTEX
8
0
6
CONTINUOUS
62
252
70
128
10
0.000000
20
0.000000
30
0.000000
71
72
72
2
73
3
0
VERTEX
8
0
6
CONTINUOUS
62
252
70
128
10
0.000000
20
0.000000
30
0.000000
71
72
72
3
73
71
0
VERTEX
8
0
6
CONTINUOUS
62
252
70
128
10
0.000000
20
0.000000
30
0.000000
71
71
72
3
73
4
0
VERTEX
8
0
6
CONTINUOUS
62
252
70
128
10
0.000000
20
0.000000
30
0.000000
71
71
72
4
73
70
0
VERTEX
8
0
6
CONTINUOUS
62
252
70
128
10
0.000000
20
0.000000
30
0.000000
71
70
72
4
73
5
0
VERTEX
8
0
6
CONTINUOUS
62
252
70
128
10
0.000000
20
0.000000
30
0.000000
71
70
72
5
73
69
0
VERTEX
8
0
6
CONTINUOUS
62
252
70
128
10
0.000000
20
0.000000
30
0.000000
71
69
72
5
73
6
0
VERTEX
8
0
6
CONTINUOUS
62
252
70
128
10
0.000000
20
0.000000
30
0.000000
71
69
72
6
73
68
0
VERTEX
8
0
6
CONTINUOUS
62
252
70
128
10
0.000000
20
0.000000
30
0.000000
71
68
72
6
73
7
0
VERTEX
8
0
6
CONTINUOUS
62
252
70
128
10
0.000000
20
0.000000
30
0.000000
71
68
72
7
73
67
0
VERTEX
8
0
6
CONTINUOUS
62
252
70
128
10
0.000000
20
0.000000
30
0.000000
71
67
72
7
73
8
0
VERTEX
8
0
6
CONTINUOUS
62
252
70
128
10
0.000000
20
0.000000
30
0.000000
71
67
72
8
73
66
0
VERTEX
8
0
6
CONTINUOUS
62
252
70
128
10
0.000000
20
0.000000
30
0.000000
71
66
72
8
73
9
0
VERTEX
8
0
6
CONTINUOUS
62
252
70
128
10
0.000000
20
0.000000
30
0.000000
71
66
72
9
73
65
0
VERTEX
8
0
6
CONTINUOUS
62
252
70
128
10
0.000000
20
0.000000
30
0.000000
71
65
72
9
73
10
0
SEQEND
0
POLYLINE
66
1
8
0
6
CONTINUOUS
62
252
70
64
75
0
10
0.000000
20
0.000000
30
0.000000
0
VERTEX
8
0
6
CONTINUOUS
62
252
70
192
10
-0.000000
20
-0.000000
30
-2.250000
0
VERTEX
8
0
6
CONTINUOUS
62
252
70
192
10
-0.390708
20
-0.000000
30
-2.215817
0
VERTEX
8
0
6
CONTINUOUS
62
252
70
192
10
-0.769545
20
-0.000000
30
-2.114308
0
VERTEX
8
0
6
CONTINUOUS
62
252
70
192
10
-1.125000
20
-0.000000
30
-1.948557
0
VERTEX
8
0
6
CONTINUOUS
62
252
70
192
10
-1.446272
20
-0.000000
30
-1.723600
0
VERTEX
8
0
6
CONTINUOUS
62
252
70
192
10
-1.723600
20
-0.000000
30
-1.446272
0
VERTEX
8
0
6
CONTINUOUS
62
252
70
192
10
-1.948557
20
-0.000000
30
-1.125000
0
VERTEX
8
0
6
CONTINUOUS
62
252
70
192
10
-2.114308
20
-0.000000
30
-0.769545
0
VERTEX
8
0
6
CONTINUOUS
62
252
70
192
10
-2.215817
20
-0.000000
30
-0.390708
0
VERTEX
8
0
6
CONTINUOUS
62
252
70
192
10
-2.250000
20
-0.000000
30
0.000000
0
VERTEX
8
0
6
CONTINUOUS
62
252
70
192
10
-2.215817
20
-0.000000
30
0.390708
0
VERTEX
8
0
6
CONTINUOUS
62
252
70
192
10
-2.114308
20
-0.000000
30
0.769545
0
VERTEX
8
0
6
CONTINUOUS
62
252
70
192
10
-1.948557
20
-0.000000
30
1.125000
0
VERTEX
8
0
6
CONTINUOUS
62
252
70
192
10
-1.723600
20
-0.000000
30
1.446272
0
VERTEX
8
0
6
CONTINUOUS
62
252
70
192
10
-1.446272
20
-0.000000
30
1.723600
0
VERTEX
8
0
6
CONTINUOUS
62
252
70
192
10
-1.125000
20
-0.000000
30
1.948557
0
VERTEX
8
0
6
CONTINUOUS
62
252
70
192
10
-0.769545
20
-0.000000
30
2.114308
0
VERTEX
8
0
6
CONTINUOUS
62
252
70
192
10
-0.390708
20
-0.000000
30
2.215817
0
VERTEX
8
0
6
CONTINUOUS
62
252
70
192
10
0.000000
20
-0.000000
30
2.250000
0
VERTEX
8
0
6
CONTINUOUS
62
252
70
192
10
0.390708
20
-0.000000
30
2.215817
0
VERTEX
8
0
6
CONTINUOUS
62
252
70
192
10
0.769545
20
-0.000000
30
2.114308
0
VERTEX
8
0
6
CONTINUOUS
62
252
70
192
10
1.125000
20
-0.000000
30
1.948557
0
VERTEX
8
0
6
CONTINUOUS
62
252
70
192
10
1.446272
20
-0.000000
30
1.723600
0
VERTEX
8
0
6
CONTINUOUS
62
252
70
192
10
1.723600
20
-0.000000
30
1.446272
0
VERTEX
8
0
6
CONTINUOUS
62
252
70
192
10
1.948557
20
-0.000000
30
1.125000
0
VERTEX
8
0
6
CONTINUOUS
62
252
70
192
10
2.114308
20
-0.000000
30
0.769545
0
VERTEX
8
0
6
CONTINUOUS
62
252
70
192
10
2.215817
20
-0.000000
30
0.390708
0
VERTEX
8
0
6
CONTINUOUS
62
252
70
192
10
2.250000
20
-0.000000
30
-0.000000
0
VERTEX
8
0
6
CONTINUOUS
62
252
70
192
10
2.215817
20
-0.000000
30
-0.390708
0
VERTEX
8
0
6
CONTINUOUS
62
252
70
192
10
2.114308
20
-0.000000
30
-0.769545
0
VERTEX
8
0
6
CONTINUOUS
62
252
70
192
10
1.948557
20
-0.000000
30
-1.125000
0
VERTEX
8
0
6
CONTINUOUS
62
252
70
192
10
1.723600
20
-0.000000
30
-1.446272
0
VERTEX
8
0
6
CONTINUOUS
62
252
70
192
10
1.446272
20
-0.000000
30
-1.723600
0
VERTEX
8
0
6
CONTINUOUS
62
252
70
192
10
1.125000
20
-0.000000
30
-1.948557
0
VERTEX
8
0
6
CONTINUOUS
62
252
70
192
10
0.769545
20
-0.000000
30
-2.114308
0
VERTEX
8
0
6
CONTINUOUS
62
252
70
192
10
0.390708
20
-0.000000
30
-2.215817
0
VERTEX
8
0
6
CONTINUOUS
62
252
70
192
10
-0.000000
20
-40.000000
30
-2.250000
0
VERTEX
8
0
6
CONTINUOUS
62
252
70
192
10
0.390708
20
-40.000000
30
-2.215817
0
VERTEX
8
0
6
CONTINUOUS
62
252
70
192
10
0.769545
20
-40.000000
30
-2.114308
0
VERTEX
8
0
6
CONTINUOUS
62
252
70
192
10
1.125000
20
-40.000000
30
-1.948557
0
VERTEX
8
0
6
CONTINUOUS
62
252
70
192
10
1.446272
20
-40.000000
30
-1.723600
0
VERTEX
8
0
6
CONTINUOUS
62
252
70
192
10
1.723600
20
-40.000000
30
-1.446272
0
VERTEX
8
0
6
CONTINUOUS
62
252
70
192
10
1.948557
20
-40.000000
30
-1.125000
0
VERTEX
8
0
6
CONTINUOUS
62
252
70
192
10
2.114308
20
-40.000000
30
-0.769545
0
VERTEX
8
0
6
CONTINUOUS
62
252
70
192
10
2.215817
20
-40.000000
30
-0.390708
0
VERTEX
8
0
6
CONTINUOUS
62
252
70
192
10
2.250000
20
-40.000000
30
0.000000
0
VERTEX
8
0
6
CONTINUOUS
62
252
70
192
10
2.215817
20
-40.000000
30
0.390708
0
VERTEX
8
0
6
CONTINUOUS
62
252
70
192
10
2.114308
20
-40.000000
30
0.769545
0
VERTEX
8
0
6
CONTINUOUS
62
252
70
192
10
1.948557
20
-40.000000
30
1.125000
0
VERTEX
8
0
6
CONTINUOUS
62
252
70
192
10
1.723600
20
-40.000000
30
1.446272
0
VERTEX
8
0
6
CONTINUOUS
62
252
70
192
10
1.446272
20
-40.000000
30
1.723600
0
VERTEX
8
0
6
CONTINUOUS
62
252
70
192
10
1.125000
20
-40.000000
30
1.948557
0
VERTEX
8
0
6
CONTINUOUS
62
252
70
192
10
0.769545
20
-40.000000
30
2.114308
0
VERTEX
8
0
6
CONTINUOUS
62
252
70
192
10
0.390708
20
-40.000000
30
2.215817
0
VERTEX
8
0
6
CONTINUOUS
62
252
70
192
10
-0.000000
20
-40.000000
30
2.250000
0
VERTEX
8
0
6
CONTINUOUS
62
252
70
192
10
-0.390708
20
-40.000000
30
2.215817
0
VERTEX
8
0
6
CONTINUOUS
62
252
70
192
10
-0.769545
20
-40.000000
30
2.114308
0
VERTEX
8
0
6
CONTINUOUS
62
252
70
192
10
-1.125000
20
-40.000000
30
1.948557
0
VERTEX
8
0
6
CONTINUOUS
62
252
70
192
10
-1.446272
20
-40.000000
30
1.723600
0
VERTEX
8
0
6
CONTINUOUS
62
252
70
192
10
-1.723600
20
-40.000000
30
1.446272
0
VERTEX
8
0
6
CONTINUOUS
62
252
70
192
10
-1.948557
20
-40.000000
30
1.125000
0
VERTEX
8
0
6
CONTINUOUS
62
252
70
192
10
-2.114308
20
-40.000000
30
0.769545
0
VERTEX
8
0
6
CONTINUOUS
62
252
70
192
10
-2.215817
20
-40.000000
30
0.390708
0
VERTEX
8
0
6
CONTINUOUS
62
252
70
192
10
-2.250000
20
-40.000000
30
0.000000
0
VERTEX
8
0
6
CONTINUOUS
62
252
70
192
10
-2.215817
20
-40.000000
30
-0.390708
0
VERTEX
8
0
6
CONTINUOUS
62
252
70
192
10
-2.114308
20
-40.000000
30
-0.769545
0
VERTEX
8
0
6
CONTINUOUS
62
252
70
192
10
-1.948557
20
-40.000000
30
-1.125000
0
VERTEX
8
0
6
CONTINUOUS
62
252
70
192
10
-1.723600
20
-40.000000
30
-1.446272
0
VERTEX
8
0
6
CONTINUOUS
62
252
70
192
10
-1.446272
20
-40.000000
30
-1.723600
0
VERTEX
8
0
6
CONTINUOUS
62
252
70
192
10
-1.125000
20
-40.000000
30
-1.948557
0
VERTEX
8
0
6
CONTINUOUS
62
252
70
192
10
-0.769545
20
-40.000000
30
-2.114308
0
VERTEX
8
0
6
CONTINUOUS
62
252
70
192
10
-0.390708
20
-40.000000
30
-2.215817
0
VERTEX
8
0
6
CONTINUOUS
62
252
70
128
10
0.000000
20
0.000000
30
0.000000
71
2
72
72
73
1
0
VERTEX
8
0
6
CONTINUOUS
62
252
70
128
10
0.000000
20
0.000000
30
0.000000
71
1
72
72
73
37
0
VERTEX
8
0
6
CONTINUOUS
62
252
70
128
10
0.000000
20
0.000000
30
0.000000
71
1
72
37
73
36
0
VERTEX
8
0
6
CONTINUOUS
62
252
70
128
10
0.000000
20
0.000000
30
0.000000
71
36
72
37
73
38
0
VERTEX
8
0
6
CONTINUOUS
62
252
70
128
10
0.000000
20
0.000000
30
0.000000
71
36
72
38
73
35
0
VERTEX
8
0
6
CONTINUOUS
62
252
70
128
10
0.000000
20
0.000000
30
0.000000
71
35
72
38
73
39
0
VERTEX
8
0
6
CONTINUOUS
62
252
70
128
10
0.000000
20
0.000000
30
0.000000
71
35
72
39
73
34
0
VERTEX
8
0
6
CONTINUOUS
62
252
70
128
10
0.000000
20
0.000000
30
0.000000
71
34
72
39
73
40
0
VERTEX
8
0
6
CONTINUOUS
62
252
70
128
10
0.000000
20
0.000000
30
0.000000
71
34
72
40
73
33
0
VERTEX
8
0
6
CONTINUOUS
62
252
70
128
10
0.000000
20
0.000000
30
0.000000
71
33
72
40
73
41
0
VERTEX
8
0
6
CONTINUOUS
62
252
70
128
10
0.000000
20
0.000000
30
0.000000
71
33
72
41
73
32
0
VERTEX
8
0
6
CONTINUOUS
62
252
70
128
10
0.000000
20
0.000000
30
0.000000
71
32
72
41
73
42
0
VERTEX
8
0
6
CONTINUOUS
62
252
70
128
10
0.000000
20
0.000000
30
0.000000
71
32
72
42
73
31
0
VERTEX
8
0
6
CONTINUOUS
62
252
70
128
10
0.000000
20
0.000000
30
0.000000
71
31
72
42
73
43
0
VERTEX
8
0
6
CONTINUOUS
62
252
70
128
10
0.000000
20
0.000000
30
0.000000
71
31
72
43
73
30
0
VERTEX
8
0
6
CONTINUOUS
62
252
70
128
10
0.000000
20
0.000000
30
0.000000
71
30
72
43
73
44
0
VERTEX
8
0
6
CONTINUOUS
62
252
70
128
10
0.000000
20
0.000000
30
0.000000
71
30
72
44
73
29
0
VERTEX
8
0
6
CONTINUOUS
62
252
70
128
10
0.000000
20
0.000000
30
0.000000
71
29
72
44
73
45
0
VERTEX
8
0
6
CONTINUOUS
62
252
70
128
10
0.000000
20
0.000000
30
0.000000
71
29
72
45
73
28
0
VERTEX
8
0
6
CONTINUOUS
62
252
70
128
10
0.000000
20
0.000000
30
0.000000
71
28
72
45
73
46
0
VERTEX
8
0
6
CONTINUOUS
62
252
70
128
10
0.000000
20
0.000000
30
0.000000
71
28
72
46
73
27
0
VERTEX
8
0
6
CONTINUOUS
62
252
70
128
10
0.000000
20
0.000000
30
0.000000
71
27
72
46
73
47
0
VERTEX
8
0
6
CONTINUOUS
62
252
70
128
10
0.000000
20
0.000000
30
0.000000
71
27
72
47
73
26
0
VERTEX
8
0
6
CONTINUOUS
62
252
70
128
10
0.000000
20
0.000000
30
0.000000
71
26
72
47
73
48
0
VERTEX
8
0
6
CONTINUOUS
62
252
70
128
10
0.000000
20
0.000000
30
0.000000
71
26
72
48
73
25
0
VERTEX
8
0
6
CONTINUOUS
62
252
70
128
10
0.000000
20
0.000000
30
0.000000
71
25
72
48
73
49
0
VERTEX
8
0
6
CONTINUOUS
62
252
70
128
10
0.000000
20
0.000000
30
0.000000
71
25
72
49
73
24
0
VERTEX
8
0
6
CONTINUOUS
62
252
70
128
10
0.000000
20
0.000000
30
0.000000
71
24
72
49
73
50
0
VERTEX
8
0
6
CONTINUOUS
62
252
70
128
10
0.000000
20
0.000000
30
0.000000
71
24
72
50
73
23
0
VERTEX
8
0
6
CONTINUOUS
62
252
70
128
10
0.000000
20
0.000000
30
0.000000
71
23
72
50
73
51
0
VERTEX
8
0
6
CONTINUOUS
62
252
70
128
10
0.000000
20
0.000000
30
0.000000
71
23
72
51
73
22
0
VERTEX
8
0
6
CONTINUOUS
62
252
70
128
10
0.000000
20
0.000000
30
0.000000
71
22
72
51
73
52
0
VERTEX
8
0
6
CONTINUOUS
62
252
70
128
10
0.000000
20
0.000000
30
0.000000
71
22
72
52
73
21
0
VERTEX
8
0
6
CONTINUOUS
62
252
70
128
10
0.000000
20
0.000000
30
0.000000
71
21
72
52
73
53
0
VERTEX
8
0
6
CONTINUOUS
62
252
70
128
10
0.000000
20
0.000000
30
0.000000
71
21
72
53
73
20
0
VERTEX
8
0
6
CONTINUOUS
62
252
70
128
10
0.000000
20
0.000000
30
0.000000
71
20
72
53
73
54
0
VERTEX
8
0
6
CONTINUOUS
62
252
70
128
10
0.000000
20
0.000000
30
0.000000
71
20
72
54
73
19
0
VERTEX
8
0
6
CONTINUOUS
62
252
70
128
10
0.000000
20
0.000000
30
0.000000
71
19
72
54
73
55
0
VERTEX
8
0
6
CONTINUOUS
62
252
70
128
10
0.000000
20
0.000000
30
0.000000
71
19
72
55
73
18
0
VERTEX
8
0
6
CONTINUOUS
62
252
70
128
10
0.000000
20
0.000000
30
0.000000
71
18
72
55
73
56
0
VERTEX
8
0
6
CONTINUOUS
62
252
70
128
10
0.000000
20
0.000000
30
0.000000
71
18
72
56
73
17
0
VERTEX
8
0
6
CONTINUOUS
62
252
70
128
10
0.000000
20
0.000000
30
0.000000
71
17
72
56
73
57
0
VERTEX
8
0
6
CONTINUOUS
62
252
70
128
10
0.000000
20
0.000000
30
0.000000
71
17
72
57
73
16
0
VERTEX
8
0
6
CONTINUOUS
62
252
70
128
10
0.000000
20
0.000000
30
0.000000
71
16
72
57
73
58
0
VERTEX
8
0
6
CONTINUOUS
62
252
70
128
10
0.000000
20
0.000000
30
0.000000
71
16
72
58
73
15
0
VERTEX
8
0
6
CONTINUOUS
62
252
70
128
10
0.000000
20
0.000000
30
0.000000
71
15
72
58
73
59
0
VERTEX
8
0
6
CONTINUOUS
62
252
70
128
10
0.000000
20
0.000000
30
0.000000
71
15
72
59
73
14
0
VERTEX
8
0
6
CONTINUOUS
62
252
70
128
10
0.000000
20
0.000000
30
0.000000
71
14
72
59
73
60
0
VERTEX
8
0
6
CONTINUOUS
62
252
70
128
10
0.000000
20
0.000000
30
0.000000
71
14
72
60
73
13
0
VERTEX
8
0
6
CONTINUOUS
62
252
70
128
10
0.000000
20
0.000000
30
0.000000
71
13
72
60
73
61
0
VERTEX
8
0
6
CONTINUOUS
62
252
70
128
10
0.000000
20
0.000000
30
0.000000
71
13
72
61
73
12
0
VERTEX
8
0
6
CONTINUOUS
62
252
70
128
10
0.000000
20
0.000000
30
0.000000
71
12
72
61
73
62
0
VERTEX
8
0
6
CONTINUOUS
62
252
70
128
10
0.000000
20
0.000000
30
0.000000
71
12
72
62
73
11
0
VERTEX
8
0
6
CONTINUOUS
62
252
70
128
10
0.000000
20
0.000000
30
0.000000
71
11
72
62
73
63
0
VERTEX
8
0
6
CONTINUOUS
62
252
70
128
10
0.000000
20
0.000000
30
0.000000
71
11
72
63
73
10
0
VERTEX
8
0
6
CONTINUOUS
62
252
70
128
10
0.000000
20
0.000000
30
0.000000
71
10
72
63
73
64
0
VERTEX
8
0
6
CONTINUOUS
62
252
70
128
10
0.000000
20
0.000000
30
0.000000
71
10
72
64
73
9
0
VERTEX
8
0
6
CONTINUOUS
62
252
70
128
10
0.000000
20
0.000000
30
0.000000
71
9
72
64
73
65
0
VERTEX
8
0
6
CONTINUOUS
62
252
70
128
10
0.000000
20
0.000000
30
0.000000
71
9
72
65
73
8
0
VERTEX
8
0
6
CONTINUOUS
62
252
70
128
10
0.000000
20
0.000000
30
0.000000
71
8
72
65
73
66
0
VERTEX
8
0
6
CONTINUOUS
62
252
70
128
10
0.000000
20
0.000000
30
0.000000
71
8
72
66
73
7
0
VERTEX
8
0
6
CONTINUOUS
62
252
70
128
10
0.000000
20
0.000000
30
0.000000
71
7
72
66
73
67
0
VERTEX
8
0
6
CONTINUOUS
62
252
70
128
10
0.000000
20
0.000000
30
0.000000
71
7
72
67
73
6
0
VERTEX
8
0
6
CONTINUOUS
62
252
70
128
10
0.000000
20
0.000000
30
0.000000
71
6
72
67
73
68
0
VERTEX
8
0
6
CONTINUOUS
62
252
70
128
10
0.000000
20
0.000000
30
0.000000
71
6
72
68
73
5
0
VERTEX
8
0
6
CONTINUOUS
62
252
70
128
10
0.000000
20
0.000000
30
0.000000
71
5
72
68
73
69
0
VERTEX
8
0
6
CONTINUOUS
62
252
70
128
10
0.000000
20
0.000000
30
0.000000
71
5
72
69
73
4
0
VERTEX
8
0
6
CONTINUOUS
62
252
70
128
10
0.000000
20
0.000000
30
0.000000
71
4
72
69
73
70
0
VERTEX
8
0
6
CONTINUOUS
62
252
70
128
10
0.000000
20
0.000000
30
0.000000
71
4
72
70
73
3
0
VERTEX
8
0
6
CONTINUOUS
62
252
70
128
10
0.000000
20
0.000000
30
0.000000
71
3
72
70
73
71
0
VERTEX
8
0
6
CONTINUOUS
62
252
70
128
10
0.000000
20
0.000000
30
0.000000
71
3
72
71
73
2
0
VERTEX
8
0
6
CONTINUOUS
62
252
70
128
10
0.000000
20
0.000000
30
0.000000
71
2
72
71
73
72
0
SEQEND
0
POLYLINE
66
1
8
0
6
CONTINUOUS
62
252
70
64
75
0
10
0.000000
20
0.000000
30
0.000000
0
VERTEX
8
0
6
CONTINUOUS
62
252
70
192
10
3.522362
20
-40.000000
30
-3.265430
0
VERTEX
8
0
6
CONTINUOUS
62
252
70
192
10
2.330046
20
-40.000000
30
-4.459722
0
VERTEX
8
0
6
CONTINUOUS
62
252
70
192
10
2.330046
20
-0.000000
30
-4.459722
0
VERTEX
8
0
6
CONTINUOUS
62
252
70
192
10
3.522362
20
-0.000000
30
-3.265430
0
VERTEX
8
0
6
CONTINUOUS
62
252
70
128
10
0.000000
20
0.000000
30
0.000000
71
2
72
3
73
1
0
VERTEX
8
0
6
CONTINUOUS
62
252
70
128
10
0.000000
20
0.000000
30
0.000000
71
1
72
3
73
4
0
SEQEND
0
POLYLINE
66
1
8
0
6
CONTINUOUS
62
252
70
64
75
0
10
0.000000
20
0.000000
30
0.000000
0
VERTEX
8
0
6
CONTINUOUS
62
252
70
192
10
2.330046
20
-40.000000
30
-4.459722
0
VERTEX
8
0
6
CONTINUOUS
62
252
70
192
10
2.108252
20
-40.000000
30
-4.724004
0
VERTEX
8
0
6
CONTINUOUS
62
252
70
192
10
1.935180
20
-40.000000
30
-5.022472
0
VERTEX
8
0
6
CONTINUOUS
62
252
70
192
10
1.815980
20
-40.000000
30
-5.346244
0
VERTEX
8
0
6
CONTINUOUS
62
252
70
192
10
1.754198
20
-40.000000
30
-5.685685
0
VERTEX
8
0
6
CONTINUOUS
62
252
70
192
10
1.751675
20
-40.000000
30
-6.030693
0
VERTEX
8
0
6
CONTINUOUS
62
252
70
192
10
1.808483
20
-40.000000
30
-6.371001
0
VERTEX
8
0
6
CONTINUOUS
62
252
70
192
10
1.922934
20
-40.000000
30
-6.696483
0
VERTEX
8
0
6
CONTINUOUS
62
252
70
192
10
2.091621
20
-40.000000
30
-6.997451
0
VERTEX
8
0
6
CONTINUOUS
62
252
70
192
10
2.091621
20
-0.000000
30
-6.997451
0
VERTEX
8
0
6
CONTINUOUS
62
252
70
192
10
1.922934
20
-0.000000
30
-6.696483
0
VERTEX
8
0
6
CONTINUOUS
62
252
70
192
10
1.808483
20
-0.000000
30
-6.371001
0
VERTEX
8
0
6
CONTINUOUS
62
252
70
192
10
1.751675
20
-0.000000
30
-6.030693
0
VERTEX
8
0
6
CONTINUOUS
62
252
70
192
10
1.754198
20
-0.000000
30
-5.685685
0
VERTEX
8
0
6
CONTINUOUS
62
252
70
192
10
1.815980
20
-0.000000
30
-5.346244
0
VERTEX
8
0
6
CONTINUOUS
62
252
70
192
10
1.935180
20
-0.000000
30
-5.022472
0
VERTEX
8
0
6
CONTINUOUS
62
252
70
192
10
2.108252
20
-0.000000
30
-4.724004
0
VERTEX
8
0
6
CONTINUOUS
62
252
70
192
10
2.330046
20
-0.000000
30
-4.459722
0
VERTEX
8
0
6
CONTINUOUS
62
252
70
128
10
0.000000
20
0.000000
30
0.000000
71
18
72
1
73
17
0
VERTEX
8
0
6
CONTINUOUS
62
252
70
128
10
0.000000
20
0.000000
30
0.000000
71
17
72
1
73
2
0
VERTEX
8
0
6
CONTINUOUS
62
252
70
128
10
0.000000
20
0.000000
30
0.000000
71
17
72
2
73
16
0
VERTEX
8
0
6
CONTINUOUS
62
252
70
128
10
0.000000
20
0.000000
30
0.000000
71
16
72
2
73
3
0
VERTEX
8
0
6
CONTINUOUS
62
252
70
128
10
0.000000
20
0.000000
30
0.000000
71
16
72
3
73
4
0
VERTEX
8
0
6
CONTINUOUS
62
252
70
128
10
0.000000
20
0.000000
30
0.000000
71
16
72
4
73
15
0
VERTEX
8
0
6
CONTINUOUS
62
252
70
128
10
0.000000
20
0.000000
30
0.000000
71
15
72
4
73
5
0
VERTEX
8
0
6
CONTINUOUS
62
252
70
128
10
0.000000
20
0.000000
30
0.000000
71
15
72
5
73
14
0
VERTEX
8
0
6
CONTINUOUS
62
252
70
128
10
0.000000
20
0.000000
30
0.000000
71
14
72
5
73
6
0
VERTEX
8
0
6
CONTINUOUS
62
252
70
128
10
0.000000
20
0.000000
30
0.000000
71
14
72
6
73
13
0
VERTEX
8
0
6
CONTINUOUS
62
252
70
128
10
0.000000
20
0.000000
30
0.000000
71
13
72
6
73
12
0
VERTEX
8
0
6
CONTINUOUS
62
252
70
128
10
0.000000
20
0.000000
30
0.000000
71
12
72
6
73
7
0
VERTEX
8
0
6
CONTINUOUS
62
252
70
128
10
0.000000
20
0.000000
30
0.000000
71
12
72
7
73
8
0
VERTEX
8
0
6
CONTINUOUS
62
252
70
128
10
0.000000
20
0.000000
30
0.000000
71
12
72
8
73
11
0
VERTEX
8
0
6
CONTINUOUS
62
252
70
128
10
0.000000
20
0.000000
30
0.000000
71
11
72
8
73
9
0
VERTEX
8
0
6
CONTINUOUS
62
252
70
128
10
0.000000
20
0.000000
30
0.000000
71
11
72
9
73
10
0
SEQEND
0
POLYLINE
66
1
8
0
6
CONTINUOUS
62
252
70
64
75
0
10
0.000000
20
0.000000
30
0.000000
0
VERTEX
8
0
6
CONTINUOUS
62
252
70
192
10
12.118043
20
-40.000000
30
-54.860238
0
VERTEX
8
0
6
CONTINUOUS
62
252
70
192
10
12.078064
20
-40.000000
30
-55.244811
0
VERTEX
8
0
6
CONTINUOUS
62
252
70
192
10
12.100358
20
-40.000000
30
-55.630814
0
VERTEX
8
0
6
CONTINUOUS
62
252
70
192
10
12.184346
20
-40.000000
30
-56.008227
0
VERTEX
8
0
6
CONTINUOUS
62
252
70
192
10
12.327850
20
-40.000000
30
-56.367256
0
VERTEX
8
0
6
CONTINUOUS
62
252
70
192
10
12.527143
20
-40.000000
30
-56.698582
0
VERTEX
8
0
6
CONTINUOUS
62
252
70
192
10
12.777054
20
-40.000000
30
-56.993606
0
VERTEX
8
0
6
CONTINUOUS
62
252
70
192
10
13.071097
20
-40.000000
30
-57.244671
0
VERTEX
8
0
6
CONTINUOUS
62
252
70
192
10
13.401639
20
-40.000000
30
-57.445261
0
VERTEX
8
0
6
CONTINUOUS
62
252
70
192
10
13.760103
20
-40.000000
30
-57.590170
0
VERTEX
8
0
6
CONTINUOUS
62
252
70
192
10
14.137184
20
-40.000000
30
-57.675637
0
VERTEX
8
0
6
CONTINUOUS
62
252
70
192
10
14.523096
20
-40.000000
30
-57.699443
0
VERTEX
8
0
6
CONTINUOUS
62
252
70
192
10
14.523096
20
-0.000000
30
-57.699443
0
VERTEX
8
0
6
CONTINUOUS
62
252
70
192
10
14.137184
20
-0.000000
30
-57.675637
0
VERTEX
8
0
6
CONTINUOUS
62
252
70
192
10
13.760103
20
-0.000000
30
-57.590170
0
VERTEX
8
0
6
CONTINUOUS
62
252
70
192
10
13.401639
20
-0.000000
30
-57.445261
0
VERTEX
8
0
6
CONTINUOUS
62
252
70
192
10
13.071097
20
-0.000000
30
-57.244671
0
VERTEX
8
0
6
CONTINUOUS
62
252
70
192
10
12.777054
20
-0.000000
30
-56.993606
0
VERTEX
8
0
6
CONTINUOUS
62
252
70
192
10
12.527143
20
-0.000000
30
-56.698582
0
VERTEX
8
0
6
CONTINUOUS
62
252
70
192
10
12.327850
20
-0.000000
30
-56.367256
0
VERTEX
8
0
6
CONTINUOUS
62
252
70
192
10
12.184346
20
-0.000000
30
-56.008227
0
VERTEX
8
0
6
CONTINUOUS
62
252
70
192
10
12.100358
20
-0.000000
30
-55.630814
0
VERTEX
8
0
6
CONTINUOUS
62
252
70
192
10
12.078064
20
-0.000000
30
-55.244811
0
VERTEX
8
0
6
CONTINUOUS
62
252
70
192
10
12.118043
20
-0.000000
30
-54.860238
0
VERTEX
8
0
6
CONTINUOUS
62
252
70
128
10
0.000000
20
0.000000
30
0.000000
71
24
72
1
73
23
0
VERTEX
8
0
6
CONTINUOUS
62
252
70
128
10
0.000000
20
0.000000
30
0.000000
71
23
72
1
73
2
0
VERTEX
8
0
6
CONTINUOUS
62
252
70
128
10
0.000000
20
0.000000
30
0.000000
71
23
72
2
73
22
0
VERTEX
8
0
6
CONTINUOUS
62
252
70
128
10
0.000000
20
0.000000
30
0.000000
71
22
72
2
73
3
0
VERTEX
8
0
6
CONTINUOUS
62
252
70
128
10
0.000000
20
0.000000
30
0.000000
71
22
72
3
73
21
0
VERTEX
8
0
6
CONTINUOUS
62
252
70
128
10
0.000000
20
0.000000
30
0.000000
71
21
72
3
73
4
0
VERTEX
8
0
6
CONTINUOUS
62
252
70
128
10
0.000000
20
0.000000
30
0.000000
71
21
72
4
73
20
0
VERTEX
8
0
6
CONTINUOUS
62
252
70
128
10
0.000000
20
0.000000
30
0.000000
71
20
72
4
73
5
0
VERTEX
8
0
6
CONTINUOUS
62
252
70
128
10
0.000000
20
0.000000
30
0.000000
71
20
72
5
73
19
0
VERTEX
8
0
6
CONTINUOUS
62
252
70
128
10
0.000000
20
0.000000
30
0.000000
71
19
72
5
73
6
0
VERTEX
8
0
6
CONTINUOUS
62
252
70
128
10
0.000000
20
0.000000
30
0.000000
71
19
72
6
73
18
0
VERTEX
8
0
6
CONTINUOUS
62
252
70
128
10
0.000000
20
0.000000
30
0.000000
71
18
72
6
73
7
0
VERTEX
8
0
6
CONTINUOUS
62
252
70
128
10
0.000000
20
0.000000
30
0.000000
71
18
72
7
73
17
0
VERTEX
8
0
6
CONTINUOUS
62
252
70
128
10
0.000000
20
0.000000
30
0.000000
71
17
72
7
73
8
0
VERTEX
8
0
6
CONTINUOUS
62
252
70
128
10
0.000000
20
0.000000
30
0.000000
71
17
72
8
73
16
0
VERTEX
8
0
6
CONTINUOUS
62
252
70
128
10
0.000000
20
0.000000
30
0.000000
71
16
72
8
73
9
0
VERTEX
8
0
6
CONTINUOUS
62
252
70
128
10
0.000000
20
0.000000
30
0.000000
71
16
72
9
73
15
0
VERTEX
8
0
6
CONTINUOUS
62
252
70
128
10
0.000000
20
0.000000
30
0.000000
71
15
72
9
73
10
0
VERTEX
8
0
6
CONTINUOUS
62
252
70
128
10
0.000000
20
0.000000
30
0.000000
71
15
72
10
73
11
0
VERTEX
8
0
6
CONTINUOUS
62
252
70
128
10
0.000000
20
0.000000
30
0.000000
71
12
72
13
73
11
0
VERTEX
8
0
6
CONTINUOUS
62
252
70
128
10
0.000000
20
0.000000
30
0.000000
71
11
72
13
73
14
0
VERTEX
8
0
6
CONTINUOUS
62
252
70
128
10
0.000000
20
0.000000
30
0.000000
71
11
72
14
73
15
0
SEQEND
0
POLYLINE
66
1
8
0
6
CONTINUOUS
62
252
70
64
75
0
10
0.000000
20
0.000000
30
0.000000
0
VERTEX
8
0
6
CONTINUOUS
62
252
70
192
10
14.523096
20
-40.000000
30
-57.699443
0
VERTEX
8
0
6
CONTINUOUS
62
252
70
192
10
26.904384
20
-40.000000
30
-57.699878
0
VERTEX
8
0
6
CONTINUOUS
62
252
70
192
10
26.904384
20
-0.000000
30
-57.699878
0
VERTEX
8
0
6
CONTINUOUS
62
252
70
192
10
14.523096
20
-0.000000
30
-57.699443
0
VERTEX
8
0
6
CONTINUOUS
62
252
70
128
10
0.000000
20
0.000000
30
0.000000
71
2
72
3
73
1
0
VERTEX
8
0
6
CONTINUOUS
62
252
70
128
10
0.000000
20
0.000000
30
0.000000
71
1
72
3
73
4
0
SEQEND
0
POLYLINE
66
1
8
0
6
CONTINUOUS
62
252
70
64
75
0
10
0.000000
20
0.000000
30
0.000000
0
VERTEX
8
0
6
CONTINUOUS
62
252
70
192
10
26.904384
20
-2.000000
30
-128.900000
0
VERTEX
8
0
6
CONTINUOUS
62
252
70
192
10
26.904384
20
-38.000000
30
-128.900000
0
VERTEX
8
0
6
CONTINUOUS
62
252
70
192
10
26.904384
20
-38.000000
30
-59.700000
0
VERTEX
8
0
6
CONTINUOUS
62
252
70
192
10
26.904384
20
-2.000000
30
-59.700000
0
VERTEX
8
0
6
CONTINUOUS
62
252
70
192
10
26.904384
20
-40.000000
30
-57.699878
0
VERTEX
8
0
6
CONTINUOUS
62
252
70
192
10
26.904384
20
-40.000000
30
-130.899878
0
VERTEX
8
0
6
CONTINUOUS
62
252
70
192
10
26.904384
20
-0.000000
30
-130.899878
0
VERTEX
8
0
6
CONTINUOUS
62
252
70
192
10
26.904384
20
-0.000000
30
-57.699878
0
VERTEX
8
0
6
CONTINUOUS
62
252
70
128
10
0.000000
20
0.000000
30
0.000000
71
4
72
1
73
7
0
VERTEX
8
0
6
CONTINUOUS
62
252
70
128
10
0.000000
20
0.000000
30
0.000000
71
7
72
1
73
2
0
VERTEX
8
0
6
CONTINUOUS
62
252
70
128
10
0.000000
20
0.000000
30
0.000000
71
7
72
2
73
6
0
VERTEX
8
0
6
CONTINUOUS
62
252
70
128
10
0.000000
20
0.000000
30
0.000000
71
6
72
2
73
3
0
VERTEX
8
0
6
CONTINUOUS
62
252
70
128
10
0.000000
20
0.000000
30
0.000000
71
6
72
3
73
5
0
VERTEX
8
0
6
CONTINUOUS
62
252
70
128
10
0.000000
20
0.000000
30
0.000000
71
5
72
3
73
4
0
VERTEX
8
0
6
CONTINUOUS
62
252
70
128
10
0.000000
20
0.000000
30
0.000000
71
5
72
4
73
8
0
VERTEX
8
0
6
CONTINUOUS
62
252
70
128
10
0.000000
20
0.000000
30
0.000000
71
8
72
4
73
7
0
SEQEND
0
POLYLINE
66
1
8
0
6
CONTINUOUS
62
252
70
64
75
0
10
0.000000
20
0.000000
30
0.000000
0
VERTEX
8
0
6
CONTINUOUS
62
252
70
192
10
26.904384
20
-40.000000
30
-130.899878
0
VERTEX
8
0
6
CONTINUOUS
62
252
70
192
10
-48.556005
20
-40.000000
30
-130.899878
0
VERTEX
8
0
6
CONTINUOUS
62
252
70
192
10
-48.556005
20
-0.000000
30
-130.899878
0
VERTEX
8
0
6
CONTINUOUS
62
252
70
192
10
26.904384
20
-0.000000
30
-130.899878
0
VERTEX
8
0
6
CONTINUOUS
62
252
70
128
10
0.000000
20
0.000000
30
0.000000
71
2
72
3
73
1
0
VERTEX
8
0
6
CONTINUOUS
62
252
70
128
10
0.000000
20
0.000000
30
0.000000
71
1
72
3
73
4
0
SEQEND
0
POLYLINE
66
1
8
0
6
CONTINUOUS
62
252
70
64
75
0
10
0.000000
20
0.000000
30
0.000000
0
VERTEX
8
0
6
CONTINUOUS
62
252
70
192
10
-48.556005
20
-40.000000
30
-130.899878
0
VERTEX
8
0
6
CONTINUOUS
62
252
70
192
10
-59.677960
20
-40.000000
30
-129.324318
0
VERTEX
8
0
6
CONTINUOUS
62
252
70
192
10
-70.470689
20
-40.000000
30
-126.210271
0
VERTEX
8
0
6
CONTINUOUS
62
252
70
192
10
-80.722465
20
-40.000000
30
-121.618825
0
VERTEX
8
0
6
CONTINUOUS
62
252
70
192
10
-90.232175
20
-40.000000
30
-115.640052
0
VERTEX
8
0
6
CONTINUOUS
62
252
70
192
10
-98.813261
20
-40.000000
30
-108.391242
0
VERTEX
8
0
6
CONTINUOUS
62
252
70
192
10
-98.813261
20
-0.000000
30
-108.391242
0
VERTEX
8
0
6
CONTINUOUS
62
252
70
192
10
-90.232175
20
-0.000000
30
-115.640052
0
VERTEX
8
0
6
CONTINUOUS
62
252
70
192
10
-80.722465
20
-0.000000
30
-121.618825
0
VERTEX
8
0
6
CONTINUOUS
62
252
70
192
10
-70.470689
20
-0.000000
30
-126.210271
0
VERTEX
8
0
6
CONTINUOUS
62
252
70
192
10
-59.677960
20
-0.000000
30
-129.324318
0
VERTEX
8
0
6
CONTINUOUS
62
252
70
192
10
-48.556005
20
-0.000000
30
-130.899878
0
VERTEX
8
0
6
CONTINUOUS
62
252
70
128
10
0.000000
20
0.000000
30
0.000000
71
1
72
2
73
12
0
VERTEX
8
0
6
CONTINUOUS
62
252
70
128
10
0.000000
20
0.000000
30
0.000000
71
12
72
2
73
11
0
VERTEX
8
0
6
CONTINUOUS
62
252
70
128
10
0.000000
20
0.000000
30
0.000000
71
11
72
2
73
3
0
VERTEX
8
0
6
CONTINUOUS
62
252
70
128
10
0.000000
20
0.000000
30
0.000000
71
11
72
3
73
10
0
VERTEX
8
0
6
CONTINUOUS
62
252
70
128
10
0.000000
20
0.000000
30
0.000000
71
10
72
3
73
4
0
VERTEX
8
0
6
CONTINUOUS
62
252
70
128
10
0.000000
20
0.000000
30
0.000000
71
10
72
4
73
9
0
VERTEX
8
0
6
CONTINUOUS
62
252
70
128
10
0.000000
20
0.000000
30
0.000000
71
9
72
4
73
5
0
VERTEX
8
0
6
CONTINUOUS
62
252
70
128
10
0.000000
20
0.000000
30
0.000000
71
9
72
5
73
8
0
VERTEX
8
0
6
CONTINUOUS
62
252
70
128
10
0.000000
20
0.000000
30
0.000000
71
8
72
5
73
6
0
VERTEX
8
0
6
CONTINUOUS
62
252
70
128
10
0.000000
20
0.000000
30
0.000000
71
8
72
6
73
7
0
SEQEND
0
POLYLINE
66
1
8
0
6
CONTINUOUS
62
252
70
64
75
0
10
0.000000
20
0.000000
30
0.000000
0
VERTEX
8
0
6
CONTINUOUS
62
252
70
192
10
-98.813261
20
-40.000000
30
-108.391242
0
VERTEX
8
0
6
CONTINUOUS
62
252
70
192
10
-99.080704
20
-40.000000
30
-108.172718
0
VERTEX
8
0
6
CONTINUOUS
62
252
70
192
10
-99.381755
20
-40.000000
30
-108.003462
0
VERTEX
8
0
6
CONTINUOUS
62
252
70
192
10
-99.707436
20
-40.000000
30
-107.888523
0
VERTEX
8
0
6
CONTINUOUS
62
252
70
192
10
-100.048034
20
-40.000000
30
-107.831327
0
VERTEX
8
0
6
CONTINUOUS
62
252
70
192
10
-100.393395
20
-40.000000
30
-107.833580
0
VERTEX
8
0
6
CONTINUOUS
62
252
70
192
10
-100.733219
20
-40.000000
30
-107.895215
0
VERTEX
8
0
6
CONTINUOUS
62
252
70
192
10
-101.057372
20
-40.000000
30
-108.014394
0
VERTEX
8
0
6
CONTINUOUS
62
252
70
192
10
-101.356189
20
-40.000000
30
-108.187563
0
VERTEX
8
0
6
CONTINUOUS
62
252
70
192
10
-101.620758
20
-40.000000
30
-108.409558
0
VERTEX
8
0
6
CONTINUOUS
62
252
70
192
10
-101.620758
20
-0.000000
30
-108.409558
0
VERTEX
8
0
6
CONTINUOUS
62
252
70
192
10
-101.356189
20
-0.000000
30
-108.187563
0
VERTEX
8
0
6
CONTINUOUS
62
252
70
192
10
-101.057372
20
-0.000000
30
-108.014394
0
VERTEX
8
0
6
CONTINUOUS
62
252
70
192
10
-100.733219
20
-0.000000
30
-107.895215
0
VERTEX
8
0
6
CONTINUOUS
62
252
70
192
10
-100.393395
20
-0.000000
30
-107.833580
0
VERTEX
8
0
6
CONTINUOUS
62
252
70
192
10
-100.048034
20
-0.000000
30
-107.831327
0
VERTEX
8
0
6
CONTINUOUS
62
252
70
192
10
-99.707436
20
-0.000000
30
-107.888523
0
VERTEX
8
0
6
CONTINUOUS
62
252
70
192
10
-99.381755
20
-0.000000
30
-108.003462
0
VERTEX
8
0
6
CONTINUOUS
62
252
70
192
10
-99.080704
20
-0.000000
30
-108.172718
0
VERTEX
8
0
6
CONTINUOUS
62
252
70
192
10
-98.813261
20
-0.000000
30
-108.391242
0
VERTEX
8
0
6
CONTINUOUS
62
252
70
128
10
0.000000
20
0.000000
30
0.000000
71
1
72
2
73
20
0
VERTEX
8
0
6
CONTINUOUS
62
252
70
128
10
0.000000
20
0.000000
30
0.000000
71
20
72
2
73
19
0
VERTEX
8
0
6
CONTINUOUS
62
252
70
128
10
0.000000
20
0.000000
30
0.000000
71
19
72
2
73
3
0
VERTEX
8
0
6
CONTINUOUS
62
252
70
128
10
0.000000
20
0.000000
30
0.000000
71
19
72
3
73
18
0
VERTEX
8
0
6
CONTINUOUS
62
252
70
128
10
0.000000
20
0.000000
30
0.000000
71
18
72
3
73
4
0
VERTEX
8
0
6
CONTINUOUS
62
252
70
128
10
0.000000
20
0.000000
30
0.000000
71
18
72
4
73
17
0
VERTEX
8
0
6
CONTINUOUS
62
252
70
128
10
0.000000
20
0.000000
30
0.000000
71
17
72
4
73
5
0
VERTEX
8
0
6
CONTINUOUS
62
252
70
128
10
0.000000
20
0.000000
30
0.000000
71
17
72
5
73
16
0
VERTEX
8
0
6
CONTINUOUS
62
252
70
128
10
0.000000
20
0.000000
30
0.000000
71
16
72
5
73
6
0
VERTEX
8
0
6
CONTINUOUS
62
252
70
128
10
0.000000
20
0.000000
30
0.000000
71
16
72
6
73
15
0
VERTEX
8
0
6
CONTINUOUS
62
252
70
128
10
0.000000
20
0.000000
30
0.000000
71
15
72
6
73
14
0
VERTEX
8
0
6
CONTINUOUS
62
252
70
128
10
0.000000
20
0.000000
30
0.000000
71
14
72
6
73
7
0
VERTEX
8
0
6
CONTINUOUS
62
252
70
128
10
0.000000
20
0.000000
30
0.000000
71
14
72
7
73
13
0
VERTEX
8
0
6
CONTINUOUS
62
252
70
128
10
0.000000
20
0.000000
30
0.000000
71
13
72
7
73
8
0
VERTEX
8
0
6
CONTINUOUS
62
252
70
128
10
0.000000
20
0.000000
30
0.000000
71
13
72
8
73
12
0
VERTEX
8
0
6
CONTINUOUS
62
252
70
128
10
0.000000
20
0.000000
30
0.000000
71
12
72
8
73
9
0
VERTEX
8
0
6
CONTINUOUS
62
252
70
128
10
0.000000
20
0.000000
30
0.000000
71
12
72
9
73
11
0
VERTEX
8
0
6
CONTINUOUS
62
252
70
128
10
0.000000
20
0.000000
30
0.000000
71
11
72
9
73
10
0
SEQEND
0
POLYLINE
66
1
8
0
6
CONTINUOUS
62
252
70
64
75
0
10
0.000000
20
0.000000
30
0.000000
0
VERTEX
8
0
6
CONTINUOUS
62
252
70
192
10
-101.620758
20
-40.000000
30
-108.409558
0
VERTEX
8
0
6
CONTINUOUS
62
252
70
192
10
-102.230063
20
-40.000000
30
-109.017855
0
VERTEX
8
0
6
CONTINUOUS
62
252
70
192
10
-102.230063
20
-0.000000
30
-109.017855
0
VERTEX
8
0
6
CONTINUOUS
62
252
70
192
10
-101.620758
20
-0.000000
30
-108.409558
0
VERTEX
8
0
6
CONTINUOUS
62
252
70
128
10
0.000000
20
0.000000
30
0.000000
71
2
72
3
73
1
0
VERTEX
8
0
6
CONTINUOUS
62
252
70
128
10
0.000000
20
0.000000
30
0.000000
71
1
72
3
73
4
0
SEQEND
0
POLYLINE
66
1
8
0
6
CONTINUOUS
62
252
70
64
75
0
10
0.000000
20
0.000000
30
0.000000
0
VERTEX
8
0
6
CONTINUOUS
62
252
70
192
10
-102.230063
20
-40.000000
30
-109.017855
0
VERTEX
8
0
6
CONTINUOUS
62
252
70
192
10
-102.882239
20
-40.000000
30
-109.526075
0
VERTEX
8
0
6
CONTINUOUS
62
252
70
192
10
-103.611957
20
-40.000000
30
-109.914833
0
VERTEX
8
0
6
CONTINUOUS
62
252
70
192
10
-104.397566
20
-40.000000
30
-110.172595
0
VERTEX
8
0
6
CONTINUOUS
62
252
70
192
10
-105.215754
20
-40.000000
30
-110.291712
0
VERTEX
8
0
6
CONTINUOUS
62
252
70
192
10
-106.042246
20
-40.000000
30
-110.268651
0
VERTEX
8
0
6
CONTINUOUS
62
252
70
192
10
-106.852520
20
-40.000000
30
-110.104094
0
VERTEX
8
0
6
CONTINUOUS
62
252
70
192
10
-107.622532
20
-40.000000
30
-109.802926
0
VERTEX
8
0
6
CONTINUOUS
62
252
70
192
10
-108.329437
20
-40.000000
30
-109.374082
0
VERTEX
8
0
6
CONTINUOUS
62
252
70
192
10
-108.952259
20
-40.000000
30
-108.830286
0
VERTEX
8
0
6
CONTINUOUS
62
252
70
192
10
-109.472518
20
-40.000000
30
-108.187674
0
VERTEX
8
0
6
CONTINUOUS
62
252
70
192
10
-109.874779
20
-40.000000
30
-107.465311
0
VERTEX
8
0
6
CONTINUOUS
62
252
70
192
10
-110.147106
20
-40.000000
30
-106.684632
0
VERTEX
8
0
6
CONTINUOUS
62
252
70
192
10
-110.281417
20
-40.000000
30
-105.868800
0
VERTEX
8
0
6
CONTINUOUS
62
252
70
192
10
-110.273729
20
-40.000000
30
-105.042022
0
VERTEX
8
0
6
CONTINUOUS
62
252
70
192
10
-110.124270
20
-40.000000
30
-104.228829
0
VERTEX
8
0
6
CONTINUOUS
62
252
70
192
10
-109.837473
20
-40.000000
30
-103.453349
0
VERTEX
8
0
6
CONTINUOUS
62
252
70
192
10
-109.421848
20
-40.000000
30
-102.738592
0
VERTEX
8
0
6
CONTINUOUS
62
252
70
192
10
-108.889728
20
-40.000000
30
-102.105765
0
VERTEX
8
0
6
CONTINUOUS
62
252
70
192
10
-108.889728
20
-0.000000
30
-102.105765
0
VERTEX
8
0
6
CONTINUOUS
62
252
70
192
10
-109.421848
20
-0.000000
30
-102.738592
0
VERTEX
8
0
6
CONTINUOUS
62
252
70
192
10
-109.837473
20
-0.000000
30
-103.453349
0
VERTEX
8
0
6
CONTINUOUS
62
252
70
192
10
-110.124270
20
-0.000000
30
-104.228829
0
VERTEX
8
0
6
CONTINUOUS
62
252
70
192
10
-110.273729
20
-0.000000
30
-105.042022
0
VERTEX
8
0
6
CONTINUOUS
62
252
70
192
10
-110.281417
20
-0.000000
30
-105.868800
0
VERTEX
8
0
6
CONTINUOUS
62
252
70
192
10
-110.147106
20
-0.000000
30
-106.684632
0
VERTEX
8
0
6
CONTINUOUS
62
252
70
192
10
-109.874779
20
-0.000000
30
-107.465311
0
VERTEX
8
0
6
CONTINUOUS
62
252
70
192
10
-109.472518
20
-0.000000
30
-108.187674
0
VERTEX
8
0
6
CONTINUOUS
62
252
70
192
10
-108.952259
20
-0.000000
30
-108.830286
0
VERTEX
8
0
6
CONTINUOUS
62
252
70
192
10
-108.329437
20
-0.000000
30
-109.374082
0
VERTEX
8
0
6
CONTINUOUS
62
252
70
192
10
-107.622532
20
-0.000000
30
-109.802926
0
VERTEX
8
0
6
CONTINUOUS
62
252
70
192
10
-106.852520
20
-0.000000
30
-110.104094
0
VERTEX
8
0
6
CONTINUOUS
62
252
70
192
10
-106.042246
20
-0.000000
30
-110.268651
0
VERTEX
8
0
6
CONTINUOUS
62
252
70
192
10
-105.215754
20
-0.000000
30
-110.291712
0
VERTEX
8
0
6
CONTINUOUS
62
252
70
192
10
-104.397566
20
-0.000000
30
-110.172595
0
VERTEX
8
0
6
CONTINUOUS
62
252
70
192
10
-103.611957
20
-0.000000
30
-109.914833
0
VERTEX
8
0
6
CONTINUOUS
62
252
70
192
10
-102.882239
20
-0.000000
30
-109.526075
0
VERTEX
8
0
6
CONTINUOUS
62
252
70
192
10
-102.230063
20
-0.000000
30
-109.017855
0
VERTEX
8
0
6
CONTINUOUS
62
252
70
128
10
0.000000
20
0.000000
30
0.000000
71
1
72
2
73
38
0
VERTEX
8
0
6
CONTINUOUS
62
252
70
128
10
0.000000
20
0.000000
30
0.000000
71
38
72
2
73
37
0
VERTEX
8
0
6
CONTINUOUS
62
252
70
128
10
0.000000
20
0.000000
30
0.000000
71
37
72
2
73
3
0
VERTEX
8
0
6
CONTINUOUS
62
252
70
128
10
0.000000
20
0.000000
30
0.000000
71
37
72
3
73
36
0
VERTEX
8
0
6
CONTINUOUS
62
252
70
128
10
0.000000
20
0.000000
30
0.000000
71
36
72
3
73
4
0
VERTEX
8
0
6
CONTINUOUS
62
252
70
128
10
0.000000
20
0.000000
30
0.000000
71
36
72
4
73
35
0
VERTEX
8
0
6
CONTINUOUS
62
252
70
128
10
0.000000
20
0.000000
30
0.000000
71
35
72
4
73
5
0
VERTEX
8
0
6
CONTINUOUS
62
252
70
128
10
0.000000
20
0.000000
30
0.000000
71
35
72
5
73
34
0
VERTEX
8
0
6
CONTINUOUS
62
252
70
128
10
0.000000
20
0.000000
30
0.000000
71
34
72
5
73
6
0
VERTEX
8
0
6
CONTINUOUS
62
252
70
128
10
0.000000
20
0.000000
30
0.000000
71
34
72
6
73
33
0
VERTEX
8
0
6
CONTINUOUS
62
252
70
128
10
0.000000
20
0.000000
30
0.000000
71
33
72
6
73
7
0
VERTEX
8
0
6
CONTINUOUS
62
252
70
128
10
0.000000
20
0.000000
30
0.000000
71
33
72
7
73
32
0
VERTEX
8
0
6
CONTINUOUS
62
252
70
128
10
0.000000
20
0.000000
30
0.000000
71
32
72
7
73
8
0
VERTEX
8
0
6
CONTINUOUS
62
252
70
128
10
0.000000
20
0.000000
30
0.000000
71
32
72
8
73
31
0
VERTEX
8
0
6
CONTINUOUS
62
252
70
128
10
0.000000
20
0.000000
30
0.000000
71
31
72
8
73
9
0
VERTEX
8
0
6
CONTINUOUS
62
252
70
128
10
0.000000
20
0.000000
30
0.000000
71
31
72
9
73
30
0
VERTEX
8
0
6
CONTINUOUS
62
252
70
128
10
0.000000
20
0.000000
30
0.000000
71
30
72
9
73
10
0
VERTEX
8
0
6
CONTINUOUS
62
252
70
128
10
0.000000
20
0.000000
30
0.000000
71
30
72
10
73
29
0
VERTEX
8
0
6
CONTINUOUS
62
252
70
128
10
0.000000
20
0.000000
30
0.000000
71
29
72
10
73
11
0
VERTEX
8
0
6
CONTINUOUS
62
252
70
128
10
0.000000
20
0.000000
30
0.000000
71
29
72
11
73
28
0
VERTEX
8
0
6
CONTINUOUS
62
252
70
128
10
0.000000
20
0.000000
30
0.000000
71
28
72
11
73
12
0
VERTEX
8
0
6
CONTINUOUS
62
252
70
128
10
0.000000
20
0.000000
30
0.000000
71
28
72
12
73
27
0
VERTEX
8
0
6
CONTINUOUS
62
252
70
128
10
0.000000
20
0.000000
30
0.000000
71
27
72
12
73
13
0
VERTEX
8
0
6
CONTINUOUS
62
252
70
128
10
0.000000
20
0.000000
30
0.000000
71
27
72
13
73
26
0
VERTEX
8
0
6
CONTINUOUS
62
252
70
128
10
0.000000
20
0.000000
30
0.000000
71
26
72
13
73
14
0
VERTEX
8
0
6
CONTINUOUS
62
252
70
128
10
0.000000
20
0.000000
30
0.000000
71
26
72
14
73
25
0
VERTEX
8
0
6
CONTINUOUS
62
252
70
128
10
0.000000
20
0.000000
30
0.000000
71
25
72
14
73
15
0
VERTEX
8
0
6
CONTINUOUS
62
252
70
128
10
0.000000
20
0.000000
30
0.000000
71
25
72
15
73
24
0
VERTEX
8
0
6
CONTINUOUS
62
252
70
128
10
0.000000
20
0.000000
30
0.000000
71
24
72
15
73
16
0
VERTEX
8
0
6
CONTINUOUS
62
252
70
128
10
0.000000
20
0.000000
30
0.000000
71
24
72
16
73
23
0
VERTEX
8
0
6
CONTINUOUS
62
252
70
128
10
0.000000
20
0.000000
30
0.000000
71
23
72
16
73
17
0
VERTEX
8
0
6
CONTINUOUS
62
252
70
128
10
0.000000
20
0.000000
30
0.000000
71
23
72
17
73
22
0
VERTEX
8
0
6
CONTINUOUS
62
252
70
128
10
0.000000
20
0.000000
30
0.000000
71
22
72
17
73
18
0
VERTEX
8
0
6
CONTINUOUS
62
252
70
128
10
0.000000
20
0.000000
30
0.000000
71
22
72
18
73
21
0
VERTEX
8
0
6
CONTINUOUS
62
252
70
128
10
0.000000
20
0.000000
30
0.000000
71
21
72
18
73
19
0
VERTEX
8
0
6
CONTINUOUS
62
252
70
128
10
0.000000
20
0.000000
30
0.000000
71
21
72
19
73
20
0
SEQEND
0
POLYLINE
66
1
8
0
6
CONTINUOUS
62
252
70
64
75
0
10
0.000000
20
0.000000
30
0.000000
0
VERTEX
8
0
6
CONTINUOUS
62
252
70
192
10
-108.889728
20
-40.000000
30
-102.105765
0
VERTEX
8
0
6
CONTINUOUS
62
252
70
192
10
-107.742608
20
-40.000000
30
-100.958645
0
VERTEX
8
0
6
CONTINUOUS
62
252
70
192
10
-107.742608
20
-0.000000
30
-100.958645
0
VERTEX
8
0
6
CONTINUOUS
62
252
70
192
10
-108.889728
20
-0.000000
30
-102.105765
0
VERTEX
8
0
6
CONTINUOUS
62
252
70
128
10
0.000000
20
0.000000
30
0.000000
71
1
72
2
73
4
0
VERTEX
8
0
6
CONTINUOUS
62
252
70
128
10
0.000000
20
0.000000
30
0.000000
71
4
72
2
73
3
0
SEQEND
0
POLYLINE
66
1
8
0
6
CONTINUOUS
62
252
70
64
75
0
10
0.000000
20
0.000000
30
0.000000
0
VERTEX
8
0
6
CONTINUOUS
62
252
70
192
10
-107.742608
20
-40.000000
30
-100.958645
0
VERTEX
8
0
6
CONTINUOUS
62
252
70
192
10
-107.538141
20
-40.000000
30
-100.719112
0
VERTEX
8
0
6
CONTINUOUS
62
252
70
192
10
-107.373811
20
-40.000000
30
-100.450451
0
VERTEX
8
0
6
CONTINUOUS
62
252
70
192
10
-107.253691
20
-40.000000
30
-100.159326
0
VERTEX
8
0
6
CONTINUOUS
62
252
70
192
10
-107.180761
20
-40.000000
30
-99.852953
0
VERTEX
8
0
6
CONTINUOUS
62
252
70
192
10
-107.156829
20
-40.000000
30
-99.538931
0
VERTEX
8
0
6
CONTINUOUS
62
252
70
192
10
-107.182488
20
-40.000000
30
-99.225045
0
VERTEX
8
0
6
CONTINUOUS
62
252
70
192
10
-107.257102
20
-40.000000
30
-98.919078
0
VERTEX
8
0
6
CONTINUOUS
62
252
70
192
10
-107.378821
20
-40.000000
30
-98.628618
0
VERTEX
8
0
6
CONTINUOUS
62
252
70
192
10
-107.544627
20
-40.000000
30
-98.360866
0
VERTEX
8
0
6
CONTINUOUS
62
252
70
192
10
-107.544627
20
-0.000000
30
-98.360866
0
VERTEX
8
0
6
CONTINUOUS
62
252
70
192
10
-107.378821
20
-0.000000
30
-98.628618
0
VERTEX
8
0
6
CONTINUOUS
62
252
70
192
10
-107.257102
20
-0.000000
30
-98.919078
0
VERTEX
8
0
6
CONTINUOUS
62
252
70
192
10
-107.182488
20
-0.000000
30
-99.225045
0
VERTEX
8
0
6
CONTINUOUS
62
252
70
192
10
-107.156829
20
-0.000000
30
-99.538931
0
VERTEX
8
0
6
CONTINUOUS
62
252
70
192
10
-107.180761
20
-0.000000
30
-99.852953
0
VERTEX
8
0
6
CONTINUOUS
62
252
70
192
10
-107.253691
20
-0.000000
30
-100.159326
0
VERTEX
8
0
6
CONTINUOUS
62
252
70
192
10
-107.373811
20
-0.000000
30
-100.450451
0
VERTEX
8
0
6
CONTINUOUS
62
252
70
192
10
-107.538141
20
-0.000000
30
-100.719112
0
VERTEX
8
0
6
CONTINUOUS
62
252
70
192
10
-107.742608
20
-0.000000
30
-100.958645
0
VERTEX
8
0
6
CONTINUOUS
62
252
70
128
10
0.000000
20
0.000000
30
0.000000
71
1
72
2
73
20
0
VERTEX
8
0
6
CONTINUOUS
62
252
70
128
10
0.000000
20
0.000000
30
0.000000
71
20
72
2
73
19
0
VERTEX
8
0
6
CONTINUOUS
62
252
70
128
10
0.000000
20
0.000000
30
0.000000
71
19
72
2
73
3
0
VERTEX
8
0
6
CONTINUOUS
62
252
70
128
10
0.000000
20
0.000000
30
0.000000
71
19
72
3
73
18
0
VERTEX
8
0
6
CONTINUOUS
62
252
70
128
10
0.000000
20
0.000000
30
0.000000
71
18
72
3
73
4
0
VERTEX
8
0
6
CONTINUOUS
62
252
70
128
10
0.000000
20
0.000000
30
0.000000
71
18
72
4
73
17
0
VERTEX
8
0
6
CONTINUOUS
62
252
70
128
10
0.000000
20
0.000000
30
0.000000
71
17
72
4
73
5
0
VERTEX
8
0
6
CONTINUOUS
62
252
70
128
10
0.000000
20
0.000000
30
0.000000
71
17
72
5
73
16
0
VERTEX
8
0
6
CONTINUOUS
62
252
70
128
10
0.000000
20
0.000000
30
0.000000
71
16
72
5
73
6
0
VERTEX
8
0
6
CONTINUOUS
62
252
70
128
10
0.000000
20
0.000000
30
0.000000
71
16
72
6
73
15
0
VERTEX
8
0
6
CONTINUOUS
62
252
70
128
10
0.000000
20
0.000000
30
0.000000
71
15
72
6
73
7
0
VERTEX
8
0
6
CONTINUOUS
62
252
70
128
10
0.000000
20
0.000000
30
0.000000
71
15
72
7
73
14
0
VERTEX
8
0
6
CONTINUOUS
62
252
70
128
10
0.000000
20
0.000000
30
0.000000
71
14
72
7
73
8
0
VERTEX
8
0
6
CONTINUOUS
62
252
70
128
10
0.000000
20
0.000000
30
0.000000
71
14
72
8
73
13
0
VERTEX
8
0
6
CONTINUOUS
62
252
70
128
10
0.000000
20
0.000000
30
0.000000
71
13
72
8
73
9
0
VERTEX
8
0
6
CONTINUOUS
62
252
70
128
10
0.000000
20
0.000000
30
0.000000
71
13
72
9
73
12
0
VERTEX
8
0
6
CONTINUOUS
62
252
70
128
10
0.000000
20
0.000000
30
0.000000
71
12
72
9
73
10
0
VERTEX
8
0
6
CONTINUOUS
62
252
70
128
10
0.000000
20
0.000000
30
0.000000
71
12
72
10
73
11
0
SEQEND
0
POLYLINE
66
1
8
0
6
CONTINUOUS
62
252
70
64
75
0
10
0.000000
20
0.000000
30
0.000000
0
VERTEX
8
0
6
CONTINUOUS
62
252
70
192
10
-107.544627
20
-40.000000
30
-98.360866
0
VERTEX
8
0
6
CONTINUOUS
62
252
70
192
10
-110.606707
20
-40.000000
30
-93.879502
0
VERTEX
8
0
6
CONTINUOUS
62
252
70
192
10
-113.358668
20
-40.000000
30
-89.201291
0
VERTEX
8
0
6
CONTINUOUS
62
252
70
192
10
-115.787907
20
-40.000000
30
-84.347657
0
VERTEX
8
0
6
CONTINUOUS
62
252
70
192
10
-115.787907
20
-0.000000
30
-84.347657
0
VERTEX
8
0
6
CONTINUOUS
62
252
70
192
10
-113.358668
20
-0.000000
30
-89.201291
0
VERTEX
8
0
6
CONTINUOUS
62
252
70
192
10
-110.606707
20
-0.000000
30
-93.879502
0
VERTEX
8
0
6
CONTINUOUS
62
252
70
192
10
-107.544627
20
-0.000000
30
-98.360866
0
VERTEX
8
0
6
CONTINUOUS
62
252
70
128
10
0.000000
20
0.000000
30
0.000000
71
1
72
2
73
8
0
VERTEX
8
0
6
CONTINUOUS
62
252
70
128
10
0.000000
20
0.000000
30
0.000000
71
8
72
2
73
7
0
VERTEX
8
0
6
CONTINUOUS
62
252
70
128
10
0.000000
20
0.000000
30
0.000000
71
7
72
2
73
3
0
VERTEX
8
0
6
CONTINUOUS
62
252
70
128
10
0.000000
20
0.000000
30
0.000000
71
7
72
3
73
6
0
VERTEX
8
0
6
CONTINUOUS
62
252
70
128
10
0.000000
20
0.000000
30
0.000000
71
6
72
3
73
4
0
VERTEX
8
0
6
CONTINUOUS
62
252
70
128
10
0.000000
20
0.000000
30
0.000000
71
6
72
4
73
5
0
SEQEND
0
POLYLINE
66
1
8
0
6
CONTINUOUS
62
252
70
64
75
0
10
0.000000
20
0.000000
30
0.000000
0
VERTEX
8
0
6
CONTINUOUS
62
252
70
192
10
-115.787907
20
-40.000000
30
-84.347657
0
VERTEX
8
0
6
CONTINUOUS
62
252
70
192
10
-117.052418
20
-40.000000
30
-81.441795
0
VERTEX
8
0
6
CONTINUOUS
62
252
70
192
10
-118.201140
20
-40.000000
30
-78.488245
0
VERTEX
8
0
6
CONTINUOUS
62
252
70
192
10
-119.232280
20
-40.000000
30
-75.491618
0
VERTEX
8
0
6
CONTINUOUS
62
252
70
192
10
-119.232280
20
-0.000000
30
-75.491618
0
VERTEX
8
0
6
CONTINUOUS
62
252
70
192
10
-118.201140
20
-0.000000
30
-78.488245
0
VERTEX
8
0
6
CONTINUOUS
62
252
70
192
10
-117.052418
20
-0.000000
30
-81.441795
0
VERTEX
8
0
6
CONTINUOUS
62
252
70
192
10
-115.787907
20
-0.000000
30
-84.347657
0
VERTEX
8
0
6
CONTINUOUS
62
252
70
128
10
0.000000
20
0.000000
30
0.000000
71
1
72
2
73
8
0
VERTEX
8
0
6
CONTINUOUS
62
252
70
128
10
0.000000
20
0.000000
30
0.000000
71
8
72
2
73
7
0
VERTEX
8
0
6
CONTINUOUS
62
252
70
128
10
0.000000
20
0.000000
30
0.000000
71
7
72
2
73
3
0
VERTEX
8
0
6
CONTINUOUS
62
252
70
128
10
0.000000
20
0.000000
30
0.000000
71
7
72
3
73
6
0
VERTEX
8
0
6
CONTINUOUS
62
252
70
128
10
0.000000
20
0.000000
30
0.000000
71
6
72
3
73
5
0
VERTEX
8
0
6
CONTINUOUS
62
252
70
128
10
0.000000
20
0.000000
30
0.000000
71
5
72
3
73
4
0
SEQEND
0
POLYLINE
66
1
8
0
6
CONTINUOUS
62
252
70
64
75
0
10
0.000000
20
0.000000
30
0.000000
0
VERTEX
8
0
6
CONTINUOUS
62
252
70
192
10
-119.232280
20
-40.000000
30
-75.491618
0
VERTEX
8
0
6
CONTINUOUS
62
252
70
192
10
-119.582554
20
-40.000000
30
-74.376537
0
VERTEX
8
0
6
CONTINUOUS
62
252
70
192
10
-119.916540
20
-40.000000
30
-73.256469
0
VERTEX
8
0
6
CONTINUOUS
62
252
70
192
10
-120.234168
20
-40.000000
30
-72.131653
0
VERTEX
8
0
6
CONTINUOUS
62
252
70
192
10
-120.234168
20
-0.000000
30
-72.131653
0
VERTEX
8
0
6
CONTINUOUS
62
252
70
192
10
-119.916540
20
-0.000000
30
-73.256469
0
VERTEX
8
0
6
CONTINUOUS
62
252
70
192
10
-119.582554
20
-0.000000
30
-74.376537
0
VERTEX
8
0
6
CONTINUOUS
62
252
70
192
10
-119.232280
20
-0.000000
30
-75.491618
0
VERTEX
8
0
6
CONTINUOUS
62
252
70
128
10
0.000000
20
0.000000
30
0.000000
71
1
72
2
73
8
0
VERTEX
8
0
6
CONTINUOUS
62
252
70
128
10
0.000000
20
0.000000
30
0.000000
71
8
72
2
73
7
0
VERTEX
8
0
6
CONTINUOUS
62
252
70
128
10
0.000000
20
0.000000
30
0.000000
71
7
72
2
73
6
0
VERTEX
8
0
6
CONTINUOUS
62
252
70
128
10
0.000000
20
0.000000
30
0.000000
71
6
72
2
73
3
0
VERTEX
8
0
6
CONTINUOUS
62
252
70
128
10
0.000000
20
0.000000
30
0.000000
71
6
72
3
73
4
0
VERTEX
8
0
6
CONTINUOUS
62
252
70
128
10
0.000000
20
0.000000
30
0.000000
71
4
72
5
73
6
0
SEQEND
0
POLYLINE
66
1
8
0
6
CONTINUOUS
62
252
70
64
75
0
10
0.000000
20
0.000000
30
0.000000
0
VERTEX
8
0
6
CONTINUOUS
62
252
70
192
10
-120.234168
20
-40.000000
30
-72.131653
0
VERTEX
8
0
6
CONTINUOUS
62
252
70
192
10
-121.637177
20
-40.000000
30
-66.440910
0
VERTEX
8
0
6
CONTINUOUS
62
252
70
192
10
-122.561364
20
-40.000000
30
-60.653090
0
VERTEX
8
0
6
CONTINUOUS
62
252
70
192
10
-123.000309
20
-40.000000
30
-54.808408
0
VERTEX
8
0
6
CONTINUOUS
62
252
70
192
10
-123.000309
20
-0.000000
30
-54.808408
0
VERTEX
8
0
6
CONTINUOUS
62
252
70
192
10
-122.561364
20
-0.000000
30
-60.653090
0
VERTEX
8
0
6
CONTINUOUS
62
252
70
192
10
-121.637177
20
-0.000000
30
-66.440910
0
VERTEX
8
0
6
CONTINUOUS
62
252
70
192
10
-120.234168
20
-0.000000
30
-72.131653
0
VERTEX
8
0
6
CONTINUOUS
62
252
70
128
10
0.000000
20
0.000000
30
0.000000
71
8
72
1
73
7
0
VERTEX
8
0
6
CONTINUOUS
62
252
70
128
10
0.000000
20
0.000000
30
0.000000
71
7
72
1
73
2
0
VERTEX
8
0
6
CONTINUOUS
62
252
70
128
10
0.000000
20
0.000000
30
0.000000
71
7
72
2
73
6
0
VERTEX
8
0
6
CONTINUOUS
62
252
70
128
10
0.000000
20
0.000000
30
0.000000
71
6
72
2
73
3
0
VERTEX
8
0
6
CONTINUOUS
62
252
70
128
10
0.000000
20
0.000000
30
0.000000
71
6
72
3
73
4
0
VERTEX
8
0
6
CONTINUOUS
62
252
70
128
10
0.000000
20
0.000000
30
0.000000
71
4
72
5
73
6
0
SEQEND
0
POLYLINE
66
1
8
0
6
CONTINUOUS
62
252
70
64
75
0
10
0.000000
20
0.000000
30
0.000000
0
VERTEX
8
0
6
CONTINUOUS
62
252
70
192
10
-123.000309
20
-40.000000
30
-54.808408
0
VERTEX
8
0
6
CONTINUOUS
62
252
70
192
10
-122.671795
20
-40.000000
30
-43.288341
0
VERTEX
8
0
6
CONTINUOUS
62
252
70
192
10
-120.514469
20
-40.000000
30
-31.967307
0
VERTEX
8
0
6
CONTINUOUS
62
252
70
192
10
-116.583299
20
-40.000000
30
-21.133759
0
VERTEX
8
0
6
CONTINUOUS
62
252
70
192
10
-110.978449
20
-40.000000
30
-11.063729
0
VERTEX
8
0
6
CONTINUOUS
62
252
70
192
10
-103.842726
20
-40.000000
30
-2.013794
0
VERTEX
8
0
6
CONTINUOUS
62
252
70
192
10
-95.357944
20
-40.000000
30
5.785458
0
VERTEX
8
0
6
CONTINUOUS
62
252
70
192
10
-85.740290
20
-40.000000
30
12.135308
0
VERTEX
8
0
6
CONTINUOUS
62
252
70
192
10
-75.234816
20
-40.000000
30
16.873965
0
VERTEX
8
0
6
CONTINUOUS
62
252
70
192
10
-64.109195
20
-40.000000
30
19.880692
0
VERTEX
8
0
6
CONTINUOUS
62
252
70
192
10
-52.646899
20
-40.000000
30
21.078880
0
VERTEX
8
0
6
CONTINUOUS
62
252
70
192
10
-52.646899
20
0.000000
30
21.078880
0
VERTEX
8
0
6
CONTINUOUS
62
252
70
192
10
-64.109195
20
0.000000
30
19.880692
0
VERTEX
8
0
6
CONTINUOUS
62
252
70
192
10
-75.234816
20
0.000000
30
16.873965
0
VERTEX
8
0
6
CONTINUOUS
62
252
70
192
10
-85.740290
20
0.000000
30
12.135308
0
VERTEX
8
0
6
CONTINUOUS
62
252
70
192
10
-95.357944
20
0.000000
30
5.785458
0
VERTEX
8
0
6
CONTINUOUS
62
252
70
192
10
-103.842726
20
-0.000000
30
-2.013794
0
VERTEX
8
0
6
CONTINUOUS
62
252
70
192
10
-110.978449
20
-0.000000
30
-11.063729
0
VERTEX
8
0
6
CONTINUOUS
62
252
70
192
10
-116.583299
20
-0.000000
30
-21.133759
0
VERTEX
8
0
6
CONTINUOUS
62
252
70
192
10
-120.514469
20
-0.000000
30
-31.967307
0
VERTEX
8
0
6
CONTINUOUS
62
252
70
192
10
-122.671795
20
-0.000000
30
-43.288341
0
VERTEX
8
0
6
CONTINUOUS
62
252
70
192
10
-123.000309
20
-0.000000
30
-54.808408
0
VERTEX
8
0
6
CONTINUOUS
62
252
70
128
10
0.000000
20
0.000000
30
0.000000
71
1
72
2
73
22
0
VERTEX
8
0
6
CONTINUOUS
62
252
70
128
10
0.000000
20
0.000000
30
0.000000
71
22
72
2
73
21
0
VERTEX
8
0
6
CONTINUOUS
62
252
70
128
10
0.000000
20
0.000000
30
0.000000
71
21
72
2
73
3
0
VERTEX
8
0
6
CONTINUOUS
62
252
70
128
10
0.000000
20
0.000000
30
0.000000
71
21
72
3
73
20
0
VERTEX
8
0
6
CONTINUOUS
62
252
70
128
10
0.000000
20
0.000000
30
0.000000
71
20
72
3
73
4
0
VERTEX
8
0
6
CONTINUOUS
62
252
70
128
10
0.000000
20
0.000000
30
0.000000
71
20
72
4
73
19
0
VERTEX
8
0
6
CONTINUOUS
62
252
70
128
10
0.000000
20
0.000000
30
0.000000
71
19
72
4
73
5
0
VERTEX
8
0
6
CONTINUOUS
62
252
70
128
10
0.000000
20
0.000000
30
0.000000
71
19
72
5
73
18
0
VERTEX
8
0
6
CONTINUOUS
62
252
70
128
10
0.000000
20
0.000000
30
0.000000
71
18
72
5
73
6
0
VERTEX
8
0
6
CONTINUOUS
62
252
70
128
10
0.000000
20
0.000000
30
0.000000
71
18
72
6
73
17
0
VERTEX
8
0
6
CONTINUOUS
62
252
70
128
10
0.000000
20
0.000000
30
0.000000
71
17
72
6
73
7
0
VERTEX
8
0
6
CONTINUOUS
62
252
70
128
10
0.000000
20
0.000000
30
0.000000
71
17
72
7
73
16
0
VERTEX
8
0
6
CONTINUOUS
62
252
70
128
10
0.000000
20
0.000000
30
0.000000
71
16
72
7
73
8
0
VERTEX
8
0
6
CONTINUOUS
62
252
70
128
10
0.000000
20
0.000000
30
0.000000
71
16
72
8
73
15
0
VERTEX
8
0
6
CONTINUOUS
62
252
70
128
10
0.000000
20
0.000000
30
0.000000
71
15
72
8
73
9
0
VERTEX
8
0
6
CONTINUOUS
62
252
70
128
10
0.000000
20
0.000000
30
0.000000
71
15
72
9
73
14
0
VERTEX
8
0
6
CONTINUOUS
62
252
70
128
10
0.000000
20
0.000000
30
0.000000
71
14
72
9
73
10
0
VERTEX
8
0
6
CONTINUOUS
62
252
70
128
10
0.000000
20
0.000000
30
0.000000
71
14
72
10
73
13
0
VERTEX
8
0
6
CONTINUOUS
62
252
70
128
10
0.000000
20
0.000000
30
0.000000
71
13
72
10
73
12
0
VERTEX
8
0
6
CONTINUOUS
62
252
70
128
10
0.000000
20
0.000000
30
0.000000
71
12
72
10
73
11
0
SEQEND
0
POLYLINE
66
1
8
0
6
CONTINUOUS
62
252
70
64
75
0
10
0.000000
20
0.000000
30
0.000000
0
VERTEX
8
0
6
CONTINUOUS
62
252
70
192
10
-52.646899
20
-40.000000
30
21.078880
0
VERTEX
8
0
6
CONTINUOUS
62
252
70
192
10
-44.938598
20
-40.000000
30
20.812798
0
VERTEX
8
0
6
CONTINUOUS
62
252
70
192
10
-37.317689
20
-40.000000
30
19.625173
0
VERTEX
8
0
6
CONTINUOUS
62
252
70
192
10
-29.893945
20
-40.000000
30
17.533112
0
VERTEX
8
0
6
CONTINUOUS
62
252
70
192
10
-29.893945
20
0.000000
30
17.533112
0
VERTEX
8
0
6
CONTINUOUS
62
252
70
192
10
-37.317689
20
0.000000
30
19.625173
0
VERTEX
8
0
6
CONTINUOUS
62
252
70
192
10
-44.938598
20
0.000000
30
20.812798
0
VERTEX
8
0
6
CONTINUOUS
62
252
70
192
10
-52.646899
20
0.000000
30
21.078880
0
VERTEX
8
0
6
CONTINUOUS
62
252
70
128
10
0.000000
20
0.000000
30
0.000000
71
8
72
1
73
7
0
VERTEX
8
0
6
CONTINUOUS
62
252
70
128
10
0.000000
20
0.000000
30
0.000000
71
7
72
1
73
2
0
VERTEX
8
0
6
CONTINUOUS
62
252
70
128
10
0.000000
20
0.000000
30
0.000000
71
7
72
2
73
3
0
VERTEX
8
0
6
CONTINUOUS
62
252
70
128
10
0.000000
20
0.000000
30
0.000000
71
7
72
3
73
6
0
VERTEX
8
0
6
CONTINUOUS
62
252
70
128
10
0.000000
20
0.000000
30
0.000000
71
6
72
3
73
4
0
VERTEX
8
0
6
CONTINUOUS
62
252
70
128
10
0.000000
20
0.000000
30
0.000000
71
6
72
4
73
5
0
SEQEND
0
POLYLINE
66
1
8
0
6
CONTINUOUS
62
252
70
64
75
0
10
0.000000
20
0.000000
30
0.000000
0
VERTEX
8
0
6
CONTINUOUS
62
252
70
192
10
-20.952811
20
-25.800000
30
13.636970
0
VERTEX
8
0
6
CONTINUOUS
62
252
70
192
10
-23.442083
20
-25.800000
30
14.886697
0
VERTEX
8
0
6
CONTINUOUS
62
252
70
192
10
-25.983220
20
-25.800000
30
16.027274
0
VERTEX
8
0
6
CONTINUOUS
62
252
70
192
10
-28.571439
20
-25.800000
30
17.056554
0
VERTEX
8
0
6
CONTINUOUS
62
252
70
192
10
-28.571439
20
-40.000000
30
17.056554
0
VERTEX
8
0
6
CONTINUOUS
62
252
70
192
10
-25.983220
20
-40.000000
30
16.027274
0
VERTEX
8
0
6
CONTINUOUS
62
252
70
192
10
-23.442083
20
-40.000000
30
14.886697
0
VERTEX
8
0
6
CONTINUOUS
62
252
70
192
10
-20.952811
20
-40.000000
30
13.636970
0
VERTEX
8
0
6
CONTINUOUS
62
252
70
128
10
0.000000
20
0.000000
30
0.000000
71
8
72
1
73
7
0
VERTEX
8
0
6
CONTINUOUS
62
252
70
128
10
0.000000
20
0.000000
30
0.000000
71
7
72
1
73
2
0
VERTEX
8
0
6
CONTINUOUS
62
252
70
128
10
0.000000
20
0.000000
30
0.000000
71
7
72
2
73
3
0
VERTEX
8
0
6
CONTINUOUS
62
252
70
128
10
0.000000
20
0.000000
30
0.000000
71
7
72
3
73
6
0
VERTEX
8
0
6
CONTINUOUS
62
252
70
128
10
0.000000
20
0.000000
30
0.000000
71
6
72
3
73
4
0
VERTEX
8
0
6
CONTINUOUS
62
252
70
128
10
0.000000
20
0.000000
30
0.000000
71
6
72
4
73
5
0
SEQEND
0
POLYLINE
66
1
8
0
6
CONTINUOUS
62
252
70
64
75
0
10
0.000000
20
0.000000
30
0.000000
0
VERTEX
8
0
6
CONTINUOUS
62
252
70
192
10
-18.331402
20
-25.800000
30
12.169365
0
VERTEX
8
0
6
CONTINUOUS
62
252
70
192
10
-19.197538
20
-25.800000
30
12.672178
0
VERTEX
8
0
6
CONTINUOUS
62
252
70
192
10
-20.071412
20
-25.800000
30
13.161420
0
VERTEX
8
0
6
CONTINUOUS
62
252
70
192
10
-20.952811
20
-25.800000
30
13.636970
0
VERTEX
8
0
6
CONTINUOUS
62
252
70
192
10
-20.952811
20
-40.000000
30
13.636970
0
VERTEX
8
0
6
CONTINUOUS
62
252
70
192
10
-15.794313
20
-40.000000
30
10.589118
0
VERTEX
8
0
6
CONTINUOUS
62
252
70
192
10
-10.942418
20
-40.000000
30
7.073635
0
VERTEX
8
0
6
CONTINUOUS
62
252
70
192
10
-6.439387
20
-40.000000
30
3.121140
0
VERTEX
8
0
6
CONTINUOUS
62
252
70
192
10
-6.439387
20
0.000000
30
3.121140
0
VERTEX
8
0
6
CONTINUOUS
62
252
70
192
10
-10.942418
20
0.000000
30
7.073635
0
VERTEX
8
0
6
CONTINUOUS
62
252
70
192
10
-15.794313
20
0.000000
30
10.589118
0
VERTEX
8
0
6
CONTINUOUS
62
252
70
192
10
-20.952811
20
0.000000
30
13.636970
0
VERTEX
8
0
6
CONTINUOUS
62
252
70
192
10
-20.952811
20
-18.800000
30
13.636970
0
VERTEX
8
0
6
CONTINUOUS
62
252
70
192
10
-20.071412
20
-18.800000
30
13.161420
0
VERTEX
8
0
6
CONTINUOUS
62
252
70
192
10
-19.197538
20
-18.800000
30
12.672178
0
VERTEX
8
0
6
CONTINUOUS
62
252
70
192
10
-18.331402
20
-18.800000
30
12.169365
0
VERTEX
8
0
6
CONTINUOUS
62
252
70
128
10
0.000000
20
0.000000
30
0.000000
71
2
72
5
73
1
0
VERTEX
8
0
6
CONTINUOUS
62
252
70
128
10
0.000000
20
0.000000
30
0.000000
71
1
72
5
73
6
0
VERTEX
8
0
6
CONTINUOUS
62
252
70
128
10
0.000000
20
0.000000
30
0.000000
71
1
72
6
73
16
0
VERTEX
8
0
6
CONTINUOUS
62
252
70
128
10
0.000000
20
0.000000
30
0.000000
71
16
72
6
73
11
0
VERTEX
8
0
6
CONTINUOUS
62
252
70
128
10
0.000000
20
0.000000
30
0.000000
71
16
72
11
73
12
0
VERTEX
8
0
6
CONTINUOUS
62
252
70
128
10
0.000000
20
0.000000
30
0.000000
71
2
72
3
73
5
0
VERTEX
8
0
6
CONTINUOUS
62
252
70
128
10
0.000000
20
0.000000
30
0.000000
71
5
72
3
73
4
0
VERTEX
8
0
6
CONTINUOUS
62
252
70
128
10
0.000000
20
0.000000
30
0.000000
71
6
72
7
73
11
0
VERTEX
8
0
6
CONTINUOUS
62
252
70
128
10
0.000000
20
0.000000
30
0.000000
71
11
72
7
73
10
0
VERTEX
8
0
6
CONTINUOUS
62
252
70
128
10
0.000000
20
0.000000
30
0.000000
71
10
72
7
73
8
0
VERTEX
8
0
6
CONTINUOUS
62
252
70
128
10
0.000000
20
0.000000
30
0.000000
71
10
72
8
73
9
0
VERTEX
8
0
6
CONTINUOUS
62
252
70
128
10
0.000000
20
0.000000
30
0.000000
71
13
72
14
73
12
0
VERTEX
8
0
6
CONTINUOUS
62
252
70
128
10
0.000000
20
0.000000
30
0.000000
71
12
72
14
73
15
0
VERTEX
8
0
6
CONTINUOUS
62
252
70
128
10
0.000000
20
0.000000
30
0.000000
71
12
72
15
73
16
0
SEQEND
0
POLYLINE
66
1
8
0
6
CONTINUOUS
62
252
70
64
75
0
10
0.000000
20
0.000000
30
0.000000
0
VERTEX
8
0
6
CONTINUOUS
62
252
70
192
10
-6.439387
20
-40.000000
30
3.121140
0
VERTEX
8
0
6
CONTINUOUS
62
252
70
192
10
-6.171641
20
-40.000000
30
2.904264
0
VERTEX
8
0
6
CONTINUOUS
62
252
70
192
10
-5.870642
20
-40.000000
30
2.736562
0
VERTEX
8
0
6
CONTINUOUS
62
252
70
192
10
-5.545326
20
-40.000000
30
2.623012
0
VERTEX
8
0
6
CONTINUOUS
62
252
70
192
10
-5.205349
20
-40.000000
30
2.566986
0
VERTEX
8
0
6
CONTINUOUS
62
252
70
192
10
-4.860800
20
-40.000000
30
2.570145
0
VERTEX
8
0
6
CONTINUOUS
62
252
70
192
10
-4.521906
20
-40.000000
30
2.632396
0
VERTEX
8
0
6
CONTINUOUS
62
252
70
192
10
-4.198727
20
-40.000000
30
2.751891
0
VERTEX
8
0
6
CONTINUOUS
62
252
70
192
10
-3.900854
20
-40.000000
30
2.925084
0
VERTEX
8
0
6
CONTINUOUS
62
252
70
192
10
-3.637129
20
-40.000000
30
3.146834
0
VERTEX
8
0
6
CONTINUOUS
62
252
70
192
10
-3.637129
20
0.000000
30
3.146834
0
VERTEX
8
0
6
CONTINUOUS
62
252
70
192
10
-3.900854
20
0.000000
30
2.925084
0
VERTEX
8
0
6
CONTINUOUS
62
252
70
192
10
-4.198727
20
0.000000
30
2.751891
0
VERTEX
8
0
6
CONTINUOUS
62
252
70
192
10
-4.521906
20
0.000000
30
2.632396
0
VERTEX
8
0
6
CONTINUOUS
62
252
70
192
10
-4.860800
20
0.000000
30
2.570145
0
VERTEX
8
0
6
CONTINUOUS
62
252
70
192
10
-5.205349
20
0.000000
30
2.566986
0
VERTEX
8
0
6
CONTINUOUS
62
252
70
192
10
-5.545326
20
0.000000
30
2.623012
0
VERTEX
8
0
6
CONTINUOUS
62
252
70
192
10
-5.870642
20
0.000000
30
2.736562
0
VERTEX
8
0
6
CONTINUOUS
62
252
70
192
10
-6.171641
20
0.000000
30
2.904264
0
VERTEX
8
0
6
CONTINUOUS
62
252
70
192
10
-6.439387
20
0.000000
30
3.121140
0
VERTEX
8
0
6
CONTINUOUS
62
252
70
128
10
0.000000
20
0.000000
30
0.000000
71
1
72
2
73
20
0
VERTEX
8
0
6
CONTINUOUS
62
252
70
128
10
0.000000
20
0.000000
30
0.000000
71
20
72
2
73
19
0
VERTEX
8
0
6
CONTINUOUS
62
252
70
128
10
0.000000
20
0.000000
30
0.000000
71
19
72
2
73
3
0
VERTEX
8
0
6
CONTINUOUS
62
252
70
128
10
0.000000
20
0.000000
30
0.000000
71
19
72
3
73
18
0
VERTEX
8
0
6
CONTINUOUS
62
252
70
128
10
0.000000
20
0.000000
30
0.000000
71
18
72
3
73
4
0
VERTEX
8
0
6
CONTINUOUS
62
252
70
128
10
0.000000
20
0.000000
30
0.000000
71
18
72
4
73
17
0
VERTEX
8
0
6
CONTINUOUS
62
252
70
128
10
0.000000
20
0.000000
30
0.000000
71
17
72
4
73
5
0
VERTEX
8
0
6
CONTINUOUS
62
252
70
128
10
0.000000
20
0.000000
30
0.000000
71
17
72
5
73
16
0
VERTEX
8
0
6
CONTINUOUS
62
252
70
128
10
0.000000
20
0.000000
30
0.000000
71
16
72
5
73
6
0
VERTEX
8
0
6
CONTINUOUS
62
252
70
128
10
0.000000
20
0.000000
30
0.000000
71
16
72
6
73
15
0
VERTEX
8
0
6
CONTINUOUS
62
252
70
128
10
0.000000
20
0.000000
30
0.000000
71
15
72
6
73
14
0
VERTEX
8
0
6
CONTINUOUS
62
252
70
128
10
0.000000
20
0.000000
30
0.000000
71
14
72
6
73
7
0
VERTEX
8
0
6
CONTINUOUS
62
252
70
128
10
0.000000
20
0.000000
30
0.000000
71
14
72
7
73
13
0
VERTEX
8
0
6
CONTINUOUS
62
252
70
128
10
0.000000
20
0.000000
30
0.000000
71
13
72
7
73
8
0
VERTEX
8
0
6
CONTINUOUS
62
252
70
128
10
0.000000
20
0.000000
30
0.000000
71
13
72
8
73
9
0
VERTEX
8
0
6
CONTINUOUS
62
252
70
128
10
0.000000
20
0.000000
30
0.000000
71
10
72
11
73
9
0
VERTEX
8
0
6
CONTINUOUS
62
252
70
128
10
0.000000
20
0.000000
30
0.000000
71
9
72
11
73
12
0
VERTEX
8
0
6
CONTINUOUS
62
252
70
128
10
0.000000
20
0.000000
30
0.000000
71
9
72
12
73
13
0
SEQEND
0
POLYLINE
66
1
8
0
6
CONTINUOUS
62
252
70
64
75
0
10
0.000000
20
0.000000
30
0.000000
0
VERTEX
8
0
6
CONTINUOUS
62
252
70
192
10
-3.637129
20
-40.000000
30
3.146834
0
VERTEX
8
0
6
CONTINUOUS
62
252
70
192
10
-3.063166
20
-40.000000
30
3.707171
0
VERTEX
8
0
6
CONTINUOUS
62
252
70
192
10
-2.404005
20
-40.000000
30
4.164249
0
VERTEX
8
0
6
CONTINUOUS
62
252
70
192
10
-1.678008
20
-40.000000
30
4.505336
0
VERTEX
8
0
6
CONTINUOUS
62
252
70
192
10
-0.905395
20
-40.000000
30
4.720932
0
VERTEX
8
0
6
CONTINUOUS
62
252
70
192
10
-0.107686
20
-40.000000
30
4.805031
0
VERTEX
8
0
6
CONTINUOUS
62
252
70
192
10
0.692900
20
-40.000000
30
4.755292
0
VERTEX
8
0
6
CONTINUOUS
62
252
70
192
10
1.474065
20
-40.000000
30
4.573100
0
VERTEX
8
0
6
CONTINUOUS
62
252
70
192
10
2.214050
20
-40.000000
30
4.263529
0
VERTEX
8
0
6
CONTINUOUS
62
252
70
192
10
2.892245
20
-40.000000
30
3.835202
0
VERTEX
8
0
6
CONTINUOUS
62
252
70
192
10
3.489760
20
-40.000000
30
3.300049
0
VERTEX
8
0
6
CONTINUOUS
62
252
70
192
10
3.989952
20
-40.000000
30
2.672976
0
VERTEX
8
0
6
CONTINUOUS
62
252
70
192
10
4.378889
20
-40.000000
30
1.971449
0
VERTEX
8
0
6
CONTINUOUS
62
252
70
192
10
4.645738
20
-40.000000
30
1.215007
0
VERTEX
8
0
6
CONTINUOUS
62
252
70
192
10
4.783066
20
-40.000000
30
0.424720
0
VERTEX
8
0
6
CONTINUOUS
62
252
70
192
10
4.787049
20
-40.000000
30
-0.377400
0
VERTEX
8
0
6
CONTINUOUS
62
252
70
192
10
4.657576
20
-40.000000
30
-1.169011
0
VERTEX
8
0
6
CONTINUOUS
62
252
70
192
10
4.398252
20
-40.000000
30
-1.928066
0
VERTEX
8
0
6
CONTINUOUS
62
252
70
192
10
4.016301
20
-40.000000
30
-2.633421
0
VERTEX
8
0
6
CONTINUOUS
62
252
70
192
10
3.522362
20
-40.000000
30
-3.265430
0
VERTEX
8
0
6
CONTINUOUS
62
252
70
192
10
3.522362
20
-0.000000
30
-3.265430
0
VERTEX
8
0
6
CONTINUOUS
62
252
70
192
10
4.016301
20
-0.000000
30
-2.633421
0
VERTEX
8
0
6
CONTINUOUS
62
252
70
192
10
4.398252
20
-0.000000
30
-1.928066
0
VERTEX
8
0
6
CONTINUOUS
62
252
70
192
10
4.657576
20
-0.000000
30
-1.169011
0
VERTEX
8
0
6
CONTINUOUS
62
252
70
192
10
4.787049
20
-0.000000
30
-0.377400
0
VERTEX
8
0
6
CONTINUOUS
62
252
70
192
10
4.783066
20
0.000000
30
0.424720
0
VERTEX
8
0
6
CONTINUOUS
62
252
70
192
10
4.645738
20
0.000000
30
1.215007
0
VERTEX
8
0
6
CONTINUOUS
62
252
70
192
10
4.378889
20
0.000000
30
1.971449
0
VERTEX
8
0
6
CONTINUOUS
62
252
70
192
10
3.989952
20
0.000000
30
2.672976
0
VERTEX
8
0
6
CONTINUOUS
62
252
70
192
10
3.489760
20
0.000000
30
3.300049
0
VERTEX
8
0
6
CONTINUOUS
62
252
70
192
10
2.892245
20
0.000000
30
3.835202
0
VERTEX
8
0
6
CONTINUOUS
62
252
70
192
10
2.214050
20
0.000000
30
4.263529
0
VERTEX
8
0
6
CONTINUOUS
62
252
70
192
10
1.474065
20
0.000000
30
4.573100
0
VERTEX
8
0
6
CONTINUOUS
62
252
70
192
10
0.692900
20
0.000000
30
4.755292
0
VERTEX
8
0
6
CONTINUOUS
62
252
70
192
10
-0.107686
20
0.000000
30
4.805031
0
VERTEX
8
0
6
CONTINUOUS
62
252
70
192
10
-0.905395
20
0.000000
30
4.720932
0
VERTEX
8
0
6
CONTINUOUS
62
252
70
192
10
-1.678008
20
0.000000
30
4.505336
0
VERTEX
8
0
6
CONTINUOUS
62
252
70
192
10
-2.404005
20
0.000000
30
4.164249
0
VERTEX
8
0
6
CONTINUOUS
62
252
70
192
10
-3.063166
20
0.000000
30
3.707171
0
VERTEX
8
0
6
CONTINUOUS
62
252
70
192
10
-3.637129
20
0.000000
30
3.146834
0
VERTEX
8
0
6
CONTINUOUS
62
252
70
128
10
0.000000
20
0.000000
30
0.000000
71
1
72
2
73
40
0
VERTEX
8
0
6
CONTINUOUS
62
252
70
128
10
0.000000
20
0.000000
30
0.000000
71
40
72
2
73
39
0
VERTEX
8
0
6
CONTINUOUS
62
252
70
128
10
0.000000
20
0.000000
30
0.000000
71
39
72
2
73
3
0
VERTEX
8
0
6
CONTINUOUS
62
252
70
128
10
0.000000
20
0.000000
30
0.000000
71
39
72
3
73
38
0
VERTEX
8
0
6
CONTINUOUS
62
252
70
128
10
0.000000
20
0.000000
30
0.000000
71
38
72
3
73
4
0
VERTEX
8
0
6
CONTINUOUS
62
252
70
128
10
0.000000
20
0.000000
30
0.000000
71
38
72
4
73
37
0
VERTEX
8
0
6
CONTINUOUS
62
252
70
128
10
0.000000
20
0.000000
30
0.000000
71
37
72
4
73
5
0
VERTEX
8
0
6
CONTINUOUS
62
252
70
128
10
0.000000
20
0.000000
30
0.000000
71
37
72
5
73
36
0
VERTEX
8
0
6
CONTINUOUS
62
252
70
128
10
0.000000
20
0.000000
30
0.000000
71
36
72
5
73
6
0
VERTEX
8
0
6
CONTINUOUS
62
252
70
128
10
0.000000
20
0.000000
30
0.000000
71
36
72
6
73
35
0
VERTEX
8
0
6
CONTINUOUS
62
252
70
128
10
0.000000
20
0.000000
30
0.000000
71
35
72
6
73
7
0
VERTEX
8
0
6
CONTINUOUS
62
252
70
128
10
0.000000
20
0.000000
30
0.000000
71
35
72
7
73
34
0
VERTEX
8
0
6
CONTINUOUS
62
252
70
128
10
0.000000
20
0.000000
30
0.000000
71
34
72
7
73
8
0
VERTEX
8
0
6
CONTINUOUS
62
252
70
128
10
0.000000
20
0.000000
30
0.000000
71
34
72
8
73
33
0
VERTEX
8
0
6
CONTINUOUS
62
252
70
128
10
0.000000
20
0.000000
30
0.000000
71
33
72
8
73
9
0
VERTEX
8
0
6
CONTINUOUS
62
252
70
128
10
0.000000
20
0.000000
30
0.000000
71
33
72
9
73
32
0
VERTEX
8
0
6
CONTINUOUS
62
252
70
128
10
0.000000
20
0.000000
30
0.000000
71
32
72
9
73
10
0
VERTEX
8
0
6
CONTINUOUS
62
252
70
128
10
0.000000
20
0.000000
30
0.000000
71
32
72
10
73
31
0
VERTEX
8
0
6
CONTINUOUS
62
252
70
128
10
0.000000
20
0.000000
30
0.000000
71
31
72
10
73
11
0
VERTEX
8
0
6
CONTINUOUS
62
252
70
128
10
0.000000
20
0.000000
30
0.000000
71
31
72
11
73
30
0
VERTEX
8
0
6
CONTINUOUS
62
252
70
128
10
0.000000
20
0.000000
30
0.000000
71
30
72
11
73
12
0
VERTEX
8
0
6
CONTINUOUS
62
252
70
128
10
0.000000
20
0.000000
30
0.000000
71
30
72
12
73
29
0
VERTEX
8
0
6
CONTINUOUS
62
252
70
128
10
0.000000
20
0.000000
30
0.000000
71
29
72
12
73
13
0
VERTEX
8
0
6
CONTINUOUS
62
252
70
128
10
0.000000
20
0.000000
30
0.000000
71
29
72
13
73
28
0
VERTEX
8
0
6
CONTINUOUS
62
252
70
128
10
0.000000
20
0.000000
30
0.000000
71
28
72
13
73
14
0
VERTEX
8
0
6
CONTINUOUS
62
252
70
128
10
0.000000
20
0.000000
30
0.000000
71
28
72
14
73
27
0
VERTEX
8
0
6
CONTINUOUS
62
252
70
128
10
0.000000
20
0.000000
30
0.000000
71
27
72
14
73
15
0
VERTEX
8
0
6
CONTINUOUS
62
252
70
128
10
0.000000
20
0.000000
30
0.000000
71
27
72
15
73
26
0
VERTEX
8
0
6
CONTINUOUS
62
252
70
128
10
0.000000
20
0.000000
30
0.000000
71
26
72
15
73
16
0
VERTEX
8
0
6
CONTINUOUS
62
252
70
128
10
0.000000
20
0.000000
30
0.000000
71
26
72
16
73
25
0
VERTEX
8
0
6
CONTINUOUS
62
252
70
128
10
0.000000
20
0.000000
30
0.000000
71
25
72
16
73
24
0
VERTEX
8
0
6
CONTINUOUS
62
252
70
128
10
0.000000
20
0.000000
30
0.000000
71
24
72
16
73
17
0
VERTEX
8
0
6
CONTINUOUS
62
252
70
128
10
0.000000
20
0.000000
30
0.000000
71
24
72
17
73
23
0
VERTEX
8
0
6
CONTINUOUS
62
252
70
128
10
0.000000
20
0.000000
30
0.000000
71
23
72
17
73
18
0
VERTEX
8
0
6
CONTINUOUS
62
252
70
128
10
0.000000
20
0.000000
30
0.000000
71
23
72
18
73
22
0
VERTEX
8
0
6
CONTINUOUS
62
252
70
128
10
0.000000
20
0.000000
30
0.000000
71
22
72
18
73
19
0
VERTEX
8
0
6
CONTINUOUS
62
252
70
128
10
0.000000
20
0.000000
30
0.000000
71
22
72
19
73
21
0
VERTEX
8
0
6
CONTINUOUS
62
252
70
128
10
0.000000
20
0.000000
30
0.000000
71
21
72
19
73
20
0
SEQEND
0
POLYLINE
66
1
8
0
6
CONTINUOUS
62
252
70
64
75
0
10
0.000000
20
0.000000
30
0.000000
0
VERTEX
8
0
6
CONTINUOUS
62
252
70
192
10
-103.250000
20
0.000000
30
-105.500000
0
VERTEX
8
0
6
CONTINUOUS
62
252
70
192
10
-103.284183
20
-0.000000
30
-105.109292
0
VERTEX
8
0
6
CONTINUOUS
62
252
70
192
10
-103.385692
20
-0.000000
30
-104.730455
0
VERTEX
8
0
6
CONTINUOUS
62
252
70
192
10
-103.551443
20
-0.000000
30
-104.375000
0
VERTEX
8
0
6
CONTINUOUS
62
252
70
192
10
-103.776400
20
-0.000000
30
-104.053728
0
VERTEX
8
0
6
CONTINUOUS
62
252
70
192
10
-104.053728
20
-0.000000
30
-103.776400
0
VERTEX
8
0
6
CONTINUOUS
62
252
70
192
10
-104.375000
20
-0.000000
30
-103.551443
0
VERTEX
8
0
6
CONTINUOUS
62
252
70
192
10
-104.730455
20
-0.000000
30
-103.385692
0
VERTEX
8
0
6
CONTINUOUS
62
252
70
192
10
-105.109292
20
-0.000000
30
-103.284183
0
VERTEX
8
0
6
CONTINUOUS
62
252
70
192
10
-105.500000
20
-0.000000
30
-103.250000
0
VERTEX
8
0
6
CONTINUOUS
62
252
70
192
10
-105.890708
20
-0.000000
30
-103.284183
0
VERTEX
8
0
6
CONTINUOUS
62
252
70
192
10
-106.269545
20
-0.000000
30
-103.385692
0
VERTEX
8
0
6
CONTINUOUS
62
252
70
192
10
-106.625000
20
-0.000000
30
-103.551443
0
VERTEX
8
0
6
CONTINUOUS
62
252
70
192
10
-106.946272
20
-0.000000
30
-103.776400
0
VERTEX
8
0
6
CONTINUOUS
62
252
70
192
10
-107.223600
20
-0.000000
30
-104.053728
0
VERTEX
8
0
6
CONTINUOUS
62
252
70
192
10
-107.448557
20
-0.000000
30
-104.375000
0
VERTEX
8
0
6
CONTINUOUS
62
252
70
192
10
-107.614308
20
-0.000000
30
-104.730455
0
VERTEX
8
0
6
CONTINUOUS
62
252
70
192
10
-107.715817
20
-0.000000
30
-105.109292
0
VERTEX
8
0
6
CONTINUOUS
62
252
70
192
10
-107.750000
20
-0.000000
30
-105.500000
0
VERTEX
8
0
6
CONTINUOUS
62
252
70
192
10
-107.715817
20
-0.000000
30
-105.890708
0
VERTEX
8
0
6
CONTINUOUS
62
252
70
192
10
-107.614308
20
-0.000000
30
-106.269545
0
VERTEX
8
0
6
CONTINUOUS
62
252
70
192
10
-107.448557
20
-0.000000
30
-106.625000
0
VERTEX
8
0
6
CONTINUOUS
62
252
70
192
10
-107.223600
20
-0.000000
30
-106.946272
0
VERTEX
8
0
6
CONTINUOUS
62
252
70
192
10
-106.946272
20
-0.000000
30
-107.223600
0
VERTEX
8
0
6
CONTINUOUS
62
252
70
192
10
-106.625000
20
-0.000000
30
-107.448557
0
VERTEX
8
0
6
CONTINUOUS
62
252
70
192
10
-106.269545
20
-0.000000
30
-107.614308
0
VERTEX
8
0
6
CONTINUOUS
62
252
70
192
10
-105.890708
20
-0.000000
30
-107.715817
0
VERTEX
8
0
6
CONTINUOUS
62
252
70
192
10
-105.500000
20
-0.000000
30
-107.750000
0
VERTEX
8
0
6
CONTINUOUS
62
252
70
192
10
-105.109292
20
-0.000000
30
-107.715817
0
VERTEX
8
0
6
CONTINUOUS
62
252
70
192
10
-104.730455
20
-0.000000
30
-107.614308
0
VERTEX
8
0
6
CONTINUOUS
62
252
70
192
10
-104.375000
20
-0.000000
30
-107.448557
0
VERTEX
8
0
6
CONTINUOUS
62
252
70
192
10
-104.053728
20
-0.000000
30
-107.223600
0
VERTEX
8
0
6
CONTINUOUS
62
252
70
192
10
-103.776400
20
-0.000000
30
-106.946272
0
VERTEX
8
0
6
CONTINUOUS
62
252
70
192
10
-103.551443
20
-0.000000
30
-106.625000
0
VERTEX
8
0
6
CONTINUOUS
62
252
70
192
10
-103.385692
20
-0.000000
30
-106.269545
0
VERTEX
8
0
6
CONTINUOUS
62
252
70
192
10
-103.284183
20
-0.000000
30
-105.890708
0
VERTEX
8
0
6
CONTINUOUS
62
252
70
192
10
-0.000000
20
-0.000000
30
-2.250000
0
VERTEX
8
0
6
CONTINUOUS
62
252
70
192
10
0.390708
20
-0.000000
30
-2.215817
0
VERTEX
8
0
6
CONTINUOUS
62
252
70
192
10
0.769545
20
-0.000000
30
-2.114308
0
VERTEX
8
0
6
CONTINUOUS
62
252
70
192
10
1.125000
20
-0.000000
30
-1.948557
0
VERTEX
8
0
6
CONTINUOUS
62
252
70
192
10
1.446272
20
-0.000000
30
-1.723600
0
VERTEX
8
0
6
CONTINUOUS
62
252
70
192
10
1.723600
20
-0.000000
30
-1.446272
0
VERTEX
8
0
6
CONTINUOUS
62
252
70
192
10
1.948557
20
-0.000000
30
-1.125000
0
VERTEX
8
0
6
CONTINUOUS
62
252
70
192
10
2.114308
20
-0.000000
30
-0.769545
0
VERTEX
8
0
6
CONTINUOUS
62
252
70
192
10
2.215817
20
-0.000000
30
-0.390708
0
VERTEX
8
0
6
CONTINUOUS
62
252
70
192
10
2.250000
20
-0.000000
30
-0.000000
0
VERTEX
8
0
6
CONTINUOUS
62
252
70
192
10
2.215817
20
-0.000000
30
0.390708
0
VERTEX
8
0
6
CONTINUOUS
62
252
70
192
10
2.114308
20
-0.000000
30
0.769545
0
VERTEX
8
0
6
CONTINUOUS
62
252
70
192
10
1.948557
20
-0.000000
30
1.125000
0
VERTEX
8
0
6
CONTINUOUS
62
252
70
192
10
1.723600
20
-0.000000
30
1.446272
0
VERTEX
8
0
6
CONTINUOUS
62
252
70
192
10
1.446272
20
-0.000000
30
1.723600
0
VERTEX
8
0
6
CONTINUOUS
62
252
70
192
10
1.125000
20
-0.000000
30
1.948557
0
VERTEX
8
0
6
CONTINUOUS
62
252
70
192
10
0.769545
20
-0.000000
30
2.114308
0
VERTEX
8
0
6
CONTINUOUS
62
252
70
192
10
0.390708
20
-0.000000
30
2.215817
0
VERTEX
8
0
6
CONTINUOUS
62
252
70
192
10
0.000000
20
-0.000000
30
2.250000
0
VERTEX
8
0
6
CONTINUOUS
62
252
70
192
10
-0.390708
20
-0.000000
30
2.215817
0
VERTEX
8
0
6
CONTINUOUS
62
252
70
192
10
-0.769545
20
-0.000000
30
2.114308
0
VERTEX
8
0
6
CONTINUOUS
62
252
70
192
10
-1.125000
20
-0.000000
30
1.948557
0
VERTEX
8
0
6
CONTINUOUS
62
252
70
192
10
-1.446272
20
-0.000000
30
1.723600
0
VERTEX
8
0
6
CONTINUOUS
62
252
70
192
10
-1.723600
20
-0.000000
30
1.446272
0
VERTEX
8
0
6
CONTINUOUS
62
252
70
192
10
-1.948557
20
-0.000000
30
1.125000
0
VERTEX
8
0
6
CONTINUOUS
62
252
70
192
10
-2.114308
20
-0.000000
30
0.769545
0
VERTEX
8
0
6
CONTINUOUS
62
252
70
192
10
-2.215817
20
-0.000000
30
0.390708
0
VERTEX
8
0
6
CONTINUOUS
62
252
70
192
10
-2.250000
20
-0.000000
30
0.000000
0
VERTEX
8
0
6
CONTINUOUS
62
252
70
192
10
-2.215817
20
-0.000000
30
-0.390708
0
VERTEX
8
0
6
CONTINUOUS
62
252
70
192
10
-2.114308
20
-0.000000
30
-0.769545
0
VERTEX
8
0
6
CONTINUOUS
62
252
70
192
10
-1.948557
20
-0.000000
30
-1.125000
0
VERTEX
8
0
6
CONTINUOUS
62
252
70
192
10
-1.723600
20
-0.000000
30
-1.446272
0
VERTEX
8
0
6
CONTINUOUS
62
252
70
192
10
-1.446272
20
-0.000000
30
-1.723600
0
VERTEX
8
0
6
CONTINUOUS
62
252
70
192
10
-1.125000
20
-0.000000
30
-1.948557
0
VERTEX
8
0
6
CONTINUOUS
62
252
70
192
10
-0.769545
20
-0.000000
30
-2.114308
0
VERTEX
8
0
6
CONTINUOUS
62
252
70
192
10
-0.390708
20
-0.000000
30
-2.215817
0
VERTEX
8
0
6
CONTINUOUS
62
252
70
192
10
-3.637129
20
0.000000
30
3.146834
0
VERTEX
8
0
6
CONTINUOUS
62
252
70
192
10
-3.063166
20
0.000000
30
3.707171
0
VERTEX
8
0
6
CONTINUOUS
62
252
70
192
10
-2.404005
20
0.000000
30
4.164249
0
VERTEX
8
0
6
CONTINUOUS
62
252
70
192
10
-1.678008
20
0.000000
30
4.505336
0
VERTEX
8
0
6
CONTINUOUS
62
252
70
192
10
-0.905395
20
0.000000
30
4.720932
0
VERTEX
8
0
6
CONTINUOUS
62
252
70
192
10
-0.107686
20
0.000000
30
4.805031
0
VERTEX
8
0
6
CONTINUOUS
62
252
70
192
10
0.692900
20
0.000000
30
4.755292
0
VERTEX
8
0
6
CONTINUOUS
62
252
70
192
10
1.474065
20
0.000000
30
4.573100
0
VERTEX
8
0
6
CONTINUOUS
62
252
70
192
10
2.214050
20
0.000000
30
4.263529
0
VERTEX
8
0
6
CONTINUOUS
62
252
70
192
10
2.892245
20
0.000000
30
3.835202
0
VERTEX
8
0
6
CONTINUOUS
62
252
70
192
10
3.489760
20
0.000000
30
3.300049
0
VERTEX
8
0
6
CONTINUOUS
62
252
70
192
10
3.989952
20
0.000000
30
2.672976
0
VERTEX
8
0
6
CONTINUOUS
62
252
70
192
10
4.378889
20
0.000000
30
1.971449
0
VERTEX
8
0
6
CONTINUOUS
62
252
70
192
10
4.645738
20
0.000000
30
1.215007
0
VERTEX
8
0
6
CONTINUOUS
62
252
70
192
10
4.783066
20
0.000000
30
0.424720
0
VERTEX
8
0
6
CONTINUOUS
62
252
70
192
10
4.787049
20
-0.000000
30
-0.377400
0
VERTEX
8
0
6
CONTINUOUS
62
252
70
192
10
4.657576
20
-0.000000
30
-1.169011
0
VERTEX
8
0
6
CONTINUOUS
62
252
70
192
10
4.398252
20
-0.000000
30
-1.928066
0
VERTEX
8
0
6
CONTINUOUS
62
252
70
192
10
4.016301
20
-0.000000
30
-2.633421
0
VERTEX
8
0
6
CONTINUOUS
62
252
70
192
10
3.522362
20
-0.000000
30
-3.265430
0
VERTEX
8
0
6
CONTINUOUS
62
252
70
192
10
2.330046
20
-0.000000
30
-4.459722
0
VERTEX
8
0
6
CONTINUOUS
62
252
70
192
10
2.108252
20
-0.000000
30
-4.724004
0
VERTEX
8
0
6
CONTINUOUS
62
252
70
192
10
1.935180
20
-0.000000
30
-5.022472
0
VERTEX
8
0
6
CONTINUOUS
62
252
70
192
10
1.815980
20
-0.000000
30
-5.346244
0
VERTEX
8
0
6
CONTINUOUS
62
252
70
192
10
1.754198
20
-0.000000
30
-5.685685
0
VERTEX
8
0
6
CONTINUOUS
62
252
70
192
10
1.751675
20
-0.000000
30
-6.030693
0
VERTEX
8
0
6
CONTINUOUS
62
252
70
192
10
1.808483
20
-0.000000
30
-6.371001
0
VERTEX
8
0
6
CONTINUOUS
62
252
70
192
10
1.922934
20
-0.000000
30
-6.696483
0
VERTEX
8
0
6
CONTINUOUS
62
252
70
192
10
2.091621
20
-0.000000
30
-6.997451
0
VERTEX
8
0
6
CONTINUOUS
62
252
70
192
10
4.552420
20
-0.000000
30
-10.912058
0
VERTEX
8
0
6
CONTINUOUS
62
252
70
192
10
6.725080
20
-0.000000
30
-14.993629
0
VERTEX
8
0
6
CONTINUOUS
62
252
70
192
10
8.598334
20
-0.000000
30
-19.220992
0
VERTEX
8
0
6
CONTINUOUS
62
252
70
192
10
8.782911
20
-0.000000
30
-19.686895
0
VERTEX
8
0
6
CONTINUOUS
62
252
70
192
10
8.963845
20
-0.000000
30
-20.154224
0
VERTEX
8
0
6
CONTINUOUS
62
252
70
192
10
9.141126
20
-0.000000
30
-20.622951
0
VERTEX
8
0
6
CONTINUOUS
62
252
70
192
10
11.625901
20
-0.000000
30
-28.951180
0
VERTEX
8
0
6
CONTINUOUS
62
252
70
192
10
12.963068
20
-0.000000
30
-37.538699
0
VERTEX
8
0
6
CONTINUOUS
62
252
70
192
10
13.128124
20
-0.000000
30
-46.228133
0
VERTEX
8
0
6
CONTINUOUS
62
252
70
192
10
12.118043
20
-0.000000
30
-54.860238
0
VERTEX
8
0
6
CONTINUOUS
62
252
70
192
10
12.078064
20
-0.000000
30
-55.244811
0
VERTEX
8
0
6
CONTINUOUS
62
252
70
192
10
12.100358
20
-0.000000
30
-55.630814
0
VERTEX
8
0
6
CONTINUOUS
62
252
70
192
10
12.184346
20
-0.000000
30
-56.008227
0
VERTEX
8
0
6
CONTINUOUS
62
252
70
192
10
12.327850
20
-0.000000
30
-56.367256
0
VERTEX
8
0
6
CONTINUOUS
62
252
70
192
10
12.527143
20
-0.000000
30
-56.698582
0
VERTEX
8
0
6
CONTINUOUS
62
252
70
192
10
12.777054
20
-0.000000
30
-56.993606
0
VERTEX
8
0
6
CONTINUOUS
62
252
70
192
10
13.071097
20
-0.000000
30
-57.244671
0
VERTEX
8
0
6
CONTINUOUS
62
252
70
192
10
13.401639
20
-0.000000
30
-57.445261
0
VERTEX
8
0
6
CONTINUOUS
62
252
70
192
10
13.760103
20
-0.000000
30
-57.590170
0
VERTEX
8
0
6
CONTINUOUS
62
252
70
192
10
14.137184
20
-0.000000
30
-57.675637
0
VERTEX
8
0
6
CONTINUOUS
62
252
70
192
10
14.523096
20
-0.000000
30
-57.699443
0
VERTEX
8
0
6
CONTINUOUS
62
252
70
192
10
26.904384
20
-0.000000
30
-57.699878
0
VERTEX
8
0
6
CONTINUOUS
62
252
70
192
10
26.904384
20
-0.000000
30
-130.899878
0
VERTEX
8
0
6
CONTINUOUS
62
252
70
192
10
-48.556005
20
-0.000000
30
-130.899878
0
VERTEX
8
0
6
CONTINUOUS
62
252
70
192
10
-59.677960
20
-0.000000
30
-129.324318
0
VERTEX
8
0
6
CONTINUOUS
62
252
70
192
10
-70.470689
20
-0.000000
30
-126.210271
0
VERTEX
8
0
6
CONTINUOUS
62
252
70
192
10
-80.722465
20
-0.000000
30
-121.618825
0
VERTEX
8
0
6
CONTINUOUS
62
252
70
192
10
-90.232175
20
-0.000000
30
-115.640052
0
VERTEX
8
0
6
CONTINUOUS
62
252
70
192
10
-98.813261
20
-0.000000
30
-108.391242
0
VERTEX
8
0
6
CONTINUOUS
62
252
70
192
10
-99.080704
20
-0.000000
30
-108.172718
0
VERTEX
8
0
6
CONTINUOUS
62
252
70
192
10
-99.381755
20
-0.000000
30
-108.003462
0
VERTEX
8
0
6
CONTINUOUS
62
252
70
192
10
-99.707436
20
-0.000000
30
-107.888523
0
VERTEX
8
0
6
CONTINUOUS
62
252
70
192
10
-100.048034
20
-0.000000
30
-107.831327
0
VERTEX
8
0
6
CONTINUOUS
62
252
70
192
10
-100.393395
20
-0.000000
30
-107.833580
0
VERTEX
8
0
6
CONTINUOUS
62
252
70
192
10
-100.733219
20
-0.000000
30
-107.895215
0
VERTEX
8
0
6
CONTINUOUS
62
252
70
192
10
-101.057372
20
-0.000000
30
-108.014394
0
VERTEX
8
0
6
CONTINUOUS
62
252
70
192
10
-101.356189
20
-0.000000
30
-108.187563
0
VERTEX
8
0
6
CONTINUOUS
62
252
70
192
10
-101.620758
20
-0.000000
30
-108.409558
0
VERTEX
8
0
6
CONTINUOUS
62
252
70
192
10
-102.230063
20
-0.000000
30
-109.017855
0
VERTEX
8
0
6
CONTINUOUS
62
252
70
192
10
-102.882239
20
-0.000000
30
-109.526075
0
VERTEX
8
0
6
CONTINUOUS
62
252
70
192
10
-103.611957
20
-0.000000
30
-109.914833
0
VERTEX
8
0
6
CONTINUOUS
62
252
70
192
10
-104.397566
20
-0.000000
30
-110.172595
0
VERTEX
8
0
6
CONTINUOUS
62
252
70
192
10
-105.215754
20
-0.000000
30
-110.291712
0
VERTEX
8
0
6
CONTINUOUS
62
252
70
192
10
-106.042246
20
-0.000000
30
-110.268651
0
VERTEX
8
0
6
CONTINUOUS
62
252
70
192
10
-106.852520
20
-0.000000
30
-110.104094
0
VERTEX
8
0
6
CONTINUOUS
62
252
70
192
10
-107.622532
20
-0.000000
30
-109.802926
0
VERTEX
8
0
6
CONTINUOUS
62
252
70
192
10
-108.329437
20
-0.000000
30
-109.374082
0
VERTEX
8
0
6
CONTINUOUS
62
252
70
192
10
-108.952259
20
-0.000000
30
-108.830286
0
VERTEX
8
0
6
CONTINUOUS
62
252
70
192
10
-109.472518
20
-0.000000
30
-108.187674
0
VERTEX
8
0
6
CONTINUOUS
62
252
70
192
10
-109.874779
20
-0.000000
30
-107.465311
0
VERTEX
8
0
6
CONTINUOUS
62
252
70
192
10
-110.147106
20
-0.000000
30
-106.684632
0
VERTEX
8
0
6
CONTINUOUS
62
252
70
192
10
-110.281417
20
-0.000000
30
-105.868800
0
VERTEX
8
0
6
CONTINUOUS
62
252
70
192
10
-110.273729
20
-0.000000
30
-105.042022
0
VERTEX
8
0
6
CONTINUOUS
62
252
70
192
10
-110.124270
20
-0.000000
30
-104.228829
0
VERTEX
8
0
6
CONTINUOUS
62
252
70
192
10
-109.837473
20
-0.000000
30
-103.453349
0
VERTEX
8
0
6
CONTINUOUS
62
252
70
192
10
-109.421848
20
-0.000000
30
-102.738592
0
VERTEX
8
0
6
CONTINUOUS
62
252
70
192
10
-108.889728
20
-0.000000
30
-102.105765
0
VERTEX
8
0
6
CONTINUOUS
62
252
70
192
10
-107.742608
20
-0.000000
30
-100.958645
0
VERTEX
8
0
6
CONTINUOUS
62
252
70
192
10
-107.538141
20
-0.000000
30
-100.719112
0
VERTEX
8
0
6
CONTINUOUS
62
252
70
192
10
-107.373811
20
-0.000000
30
-100.450451
0
VERTEX
8
0
6
CONTINUOUS
62
252
70
192
10
-107.253691
20
-0.000000
30
-100.159326
0
VERTEX
8
0
6
CONTINUOUS
62
252
70
192
10
-107.180761
20
-0.000000
30
-99.852953
0
VERTEX
8
0
6
CONTINUOUS
62
252
70
192
10
-107.156829
20
-0.000000
30
-99.538931
0
VERTEX
8
0
6
CONTINUOUS
62
252
70
192
10
-107.182488
20
-0.000000
30
-99.225045
0
VERTEX
8
0
6
CONTINUOUS
62
252
70
192
10
-107.257102
20
-0.000000
30
-98.919078
0
VERTEX
8
0
6
CONTINUOUS
62
252
70
192
10
-107.378821
20
-0.000000
30
-98.628618
0
VERTEX
8
0
6
CONTINUOUS
62
252
70
192
10
-107.544627
20
-0.000000
30
-98.360866
0
VERTEX
8
0
6
CONTINUOUS
62
252
70
192
10
-110.606707
20
-0.000000
30
-93.879502
0
VERTEX
8
0
6
CONTINUOUS
62
252
70
192
10
-113.358668
20
-0.000000
30
-89.201291
0
VERTEX
8
0
6
CONTINUOUS
62
252
70
192
10
-115.787907
20
-0.000000
30
-84.347657
0
VERTEX
8
0
6
CONTINUOUS
62
252
70
192
10
-117.052418
20
-0.000000
30
-81.441795
0
VERTEX
8
0
6
CONTINUOUS
62
252
70
192
10
-118.201140
20
-0.000000
30
-78.488245
0
VERTEX
8
0
6
CONTINUOUS
62
252
70
192
10
-119.232280
20
-0.000000
30
-75.491618
0
VERTEX
8
0
6
CONTINUOUS
62
252
70
192
10
-119.582554
20
-0.000000
30
-74.376537
0
VERTEX
8
0
6
CONTINUOUS
62
252
70
192
10
-119.916540
20
-0.000000
30
-73.256469
0
VERTEX
8
0
6
CONTINUOUS
62
252
70
192
10
-120.234168
20
-0.000000
30
-72.131653
0
VERTEX
8
0
6
CONTINUOUS
62
252
70
192
10
-121.637177
20
-0.000000
30
-66.440910
0
VERTEX
8
0
6
CONTINUOUS
62
252
70
192
10
-122.561364
20
-0.000000
30
-60.653090
0
VERTEX
8
0
6
CONTINUOUS
62
252
70
192
10
-123.000309
20
-0.000000
30
-54.808408
0
VERTEX
8
0
6
CONTINUOUS
62
252
70
192
10
-122.671795
20
-0.000000
30
-43.288341
0
VERTEX
8
0
6
CONTINUOUS
62
252
70
192
10
-120.514469
20
-0.000000
30
-31.967307
0
VERTEX
8
0
6
CONTINUOUS
62
252
70
192
10
-116.583299
20
-0.000000
30
-21.133759
0
VERTEX
8
0
6
CONTINUOUS
62
252
70
192
10
-110.978449
20
-0.000000
30
-11.063729
0
VERTEX
8
0
6
CONTINUOUS
62
252
70
192
10
-103.842726
20
-0.000000
30
-2.013794
0
VERTEX
8
0
6
CONTINUOUS
62
252
70
192
10
-95.357944
20
0.000000
30
5.785458
0
VERTEX
8
0
6
CONTINUOUS
62
252
70
192
10
-85.740290
20
0.000000
30
12.135308
0
VERTEX
8
0
6
CONTINUOUS
62
252
70
192
10
-75.234816
20
0.000000
30
16.873965
0
VERTEX
8
0
6
CONTINUOUS
62
252
70
192
10
-64.109195
20
0.000000
30
19.880692
0
VERTEX
8
0
6
CONTINUOUS
62
252
70
192
10
-52.646899
20
0.000000
30
21.078880
0
VERTEX
8
0
6
CONTINUOUS
62
252
70
192
10
-44.938598
20
0.000000
30
20.812798
0
VERTEX
8
0
6
CONTINUOUS
62
252
70
192
10
-37.317689
20
0.000000
30
19.625173
0
VERTEX
8
0
6
CONTINUOUS
62
252
70
192
10
-29.893945
20
0.000000
30
17.533112
0
VERTEX
8
0
6
CONTINUOUS
62
252
70
192
10
-29.451954
20
0.000000
30
17.377479
0
VERTEX
8
0
6
CONTINUOUS
62
252
70
192
10
-29.011111
20
0.000000
30
17.218623
0
VERTEX
8
0
6
CONTINUOUS
62
252
70
192
10
-28.571439
20
0.000000
30
17.056554
0
VERTEX
8
0
6
CONTINUOUS
62
252
70
192
10
-25.983220
20
0.000000
30
16.027274
0
VERTEX
8
0
6
CONTINUOUS
62
252
70
192
10
-23.442083
20
0.000000
30
14.886697
0
VERTEX
8
0
6
CONTINUOUS
62
252
70
192
10
-20.952811
20
0.000000
30
13.636970
0
VERTEX
8
0
6
CONTINUOUS
62
252
70
192
10
-15.794313
20
0.000000
30
10.589118
0
VERTEX
8
0
6
CONTINUOUS
62
252
70
192
10
-10.942418
20
0.000000
30
7.073635
0
VERTEX
8
0
6
CONTINUOUS
62
252
70
192
10
-6.439387
20
0.000000
30
3.121140
0
VERTEX
8
0
6
CONTINUOUS
62
252
70
192
10
-6.171641
20
0.000000
30
2.904264
0
VERTEX
8
0
6
CONTINUOUS
62
252
70
192
10
-5.870642
20
0.000000
30
2.736562
0
VERTEX
8
0
6
CONTINUOUS
62
252
70
192
10
-5.545326
20
0.000000
30
2.623012
0
VERTEX
8
0
6
CONTINUOUS
62
252
70
192
10
-5.205349
20
0.000000
30
2.566986
0
VERTEX
8
0
6
CONTINUOUS
62
252
70
192
10
-4.860800
20
0.000000
30
2.570145
0
VERTEX
8
0
6
CONTINUOUS
62
252
70
192
10
-4.521906
20
0.000000
30
2.632396
0
VERTEX
8
0
6
CONTINUOUS
62
252
70
192
10
-4.198727
20
0.000000
30
2.751891
0
VERTEX
8
0
6
CONTINUOUS
62
252
70
192
10
-3.900854
20
0.000000
30
2.925084
0
VERTEX
8
0
6
CONTINUOUS
62
252
70
128
10
0.000000
20
0.000000
30
0.000000
71
2
72
135
73
1
0
VERTEX
8
0
6
CONTINUOUS
62
252
70
128
10
0.000000
20
0.000000
30
0.000000
71
1
72
135
73
136
0
VERTEX
8
0
6
CONTINUOUS
62
252
70
128
10
0.000000
20
0.000000
30
0.000000
71
1
72
136
73
36
0
VERTEX
8
0
6
CONTINUOUS
62
252
70
128
10
0.000000
20
0.000000
30
0.000000
71
36
72
136
73
137
0
VERTEX
8
0
6
CONTINUOUS
62
252
70
128
10
0.000000
20
0.000000
30
0.000000
71
36
72
137
73
35
0
VERTEX
8
0
6
CONTINUOUS
62
252
70
128
10
0.000000
20
0.000000
30
0.000000
71
35
72
137
73
138
0
VERTEX
8
0
6
CONTINUOUS
62
252
70
128
10
0.000000
20
0.000000
30
0.000000
71
35
72
138
73
34
0
VERTEX
8
0
6
CONTINUOUS
62
252
70
128
10
0.000000
20
0.000000
30
0.000000
71
34
72
138
73
139
0
VERTEX
8
0
6
CONTINUOUS
62
252
70
128
10
0.000000
20
0.000000
30
0.000000
71
34
72
139
73
33
0
VERTEX
8
0
6
CONTINUOUS
62
252
70
128
10
0.000000
20
0.000000
30
0.000000
71
33
72
139
73
140
0
VERTEX
8
0
6
CONTINUOUS
62
252
70
128
10
0.000000
20
0.000000
30
0.000000
71
33
72
140
73
32
0
VERTEX
8
0
6
CONTINUOUS
62
252
70
128
10
0.000000
20
0.000000
30
0.000000
71
32
72
140
73
141
0
VERTEX
8
0
6
CONTINUOUS
62
252
70
128
10
0.000000
20
0.000000
30
0.000000
71
32
72
141
73
31
0
VERTEX
8
0
6
CONTINUOUS
62
252
70
128
10
0.000000
20
0.000000
30
0.000000
71
31
72
141
73
142
0
VERTEX
8
0
6
CONTINUOUS
62
252
70
128
10
0.000000
20
0.000000
30
0.000000
71
31
72
142
73
30
0
VERTEX
8
0
6
CONTINUOUS
62
252
70
128
10
0.000000
20
0.000000
30
0.000000
71
30
72
142
73
143
0
VERTEX
8
0
6
CONTINUOUS
62
252
70
128
10
0.000000
20
0.000000
30
0.000000
71
30
72
143
73
29
0
VERTEX
8
0
6
CONTINUOUS
62
252
70
128
10
0.000000
20
0.000000
30
0.000000
71
29
72
143
73
144
0
VERTEX
8
0
6
CONTINUOUS
62
252
70
128
10
0.000000
20
0.000000
30
0.000000
71
29
72
144
73
28
0
VERTEX
8
0
6
CONTINUOUS
62
252
70
128
10
0.000000
20
0.000000
30
0.000000
71
28
72
144
73
145
0
VERTEX
8
0
6
CONTINUOUS
62
252
70
128
10
0.000000
20
0.000000
30
0.000000
71
28
72
145
73
27
0
VERTEX
8
0
6
CONTINUOUS
62
252
70
128
10
0.000000
20
0.000000
30
0.000000
71
27
72
145
73
146
0
VERTEX
8
0
6
CONTINUOUS
62
252
70
128
10
0.000000
20
0.000000
30
0.000000
71
27
72
146
73
26
0
VERTEX
8
0
6
CONTINUOUS
62
252
70
128
10
0.000000
20
0.000000
30
0.000000
71
26
72
146
73
147
0
VERTEX
8
0
6
CONTINUOUS
62
252
70
128
10
0.000000
20
0.000000
30
0.000000
71
26
72
147
73
25
0
VERTEX
8
0
6
CONTINUOUS
62
252
70
128
10
0.000000
20
0.000000
30
0.000000
71
25
72
147
73
148
0
VERTEX
8
0
6
CONTINUOUS
62
252
70
128
10
0.000000
20
0.000000
30
0.000000
71
25
72
148
73
24
0
VERTEX
8
0
6
CONTINUOUS
62
252
70
128
10
0.000000
20
0.000000
30
0.000000
71
24
72
148
73
149
0
VERTEX
8
0
6
CONTINUOUS
62
252
70
128
10
0.000000
20
0.000000
30
0.000000
71
24
72
149
73
23
0
VERTEX
8
0
6
CONTINUOUS
62
252
70
128
10
0.000000
20
0.000000
30
0.000000
71
23
72
149
73
150
0
VERTEX
8
0
6
CONTINUOUS
62
252
70
128
10
0.000000
20
0.000000
30
0.000000
71
23
72
150
73
22
0
VERTEX
8
0
6
CONTINUOUS
62
252
70
128
10
0.000000
20
0.000000
30
0.000000
71
22
72
150
73
151
0
VERTEX
8
0
6
CONTINUOUS
62
252
70
128
10
0.000000
20
0.000000
30
0.000000
71
22
72
151
73
21
0
VERTEX
8
0
6
CONTINUOUS
62
252
70
128
10
0.000000
20
0.000000
30
0.000000
71
21
72
151
73
152
0
VERTEX
8
0
6
CONTINUOUS
62
252
70
128
10
0.000000
20
0.000000
30
0.000000
71
21
72
152
73
20
0
VERTEX
8
0
6
CONTINUOUS
62
252
70
128
10
0.000000
20
0.000000
30
0.000000
71
20
72
152
73
153
0
VERTEX
8
0
6
CONTINUOUS
62
252
70
128
10
0.000000
20
0.000000
30
0.000000
71
20
72
153
73
19
0
VERTEX
8
0
6
CONTINUOUS
62
252
70
128
10
0.000000
20
0.000000
30
0.000000
71
19
72
153
73
154
0
VERTEX
8
0
6
CONTINUOUS
62
252
70
128
10
0.000000
20
0.000000
30
0.000000
71
19
72
154
73
18
0
VERTEX
8
0
6
CONTINUOUS
62
252
70
128
10
0.000000
20
0.000000
30
0.000000
71
18
72
154
73
155
0
VERTEX
8
0
6
CONTINUOUS
62
252
70
128
10
0.000000
20
0.000000
30
0.000000
71
18
72
155
73
17
0
VERTEX
8
0
6
CONTINUOUS
62
252
70
128
10
0.000000
20
0.000000
30
0.000000
71
17
72
155
73
156
0
VERTEX
8
0
6
CONTINUOUS
62
252
70
128
10
0.000000
20
0.000000
30
0.000000
71
17
72
156
73
16
0
VERTEX
8
0
6
CONTINUOUS
62
252
70
128
10
0.000000
20
0.000000
30
0.000000
71
16
72
156
73
157
0
VERTEX
8
0
6
CONTINUOUS
62
252
70
128
10
0.000000
20
0.000000
30
0.000000
71
16
72
157
73
15
0
VERTEX
8
0
6
CONTINUOUS
62
252
70
128
10
0.000000
20
0.000000
30
0.000000
71
15
72
157
73
158
0
VERTEX
8
0
6
CONTINUOUS
62
252
70
128
10
0.000000
20
0.000000
30
0.000000
71
15
72
158
73
14
0
VERTEX
8
0
6
CONTINUOUS
62
252
70
128
10
0.000000
20
0.000000
30
0.000000
71
14
72
158
73
13
0
VERTEX
8
0
6
CONTINUOUS
62
252
70
128
10
0.000000
20
0.000000
30
0.000000
71
13
72
158
73
159
0
VERTEX
8
0
6
CONTINUOUS
62
252
70
128
10
0.000000
20
0.000000
30
0.000000
71
13
72
159
73
12
0
VERTEX
8
0
6
CONTINUOUS
62
252
70
128
10
0.000000
20
0.000000
30
0.000000
71
12
72
159
73
160
0
VERTEX
8
0
6
CONTINUOUS
62
252
70
128
10
0.000000
20
0.000000
30
0.000000
71
12
72
160
73
11
0
VERTEX
8
0
6
CONTINUOUS
62
252
70
128
10
0.000000
20
0.000000
30
0.000000
71
11
72
160
73
161
0
VERTEX
8
0
6
CONTINUOUS
62
252
70
128
10
0.000000
20
0.000000
30
0.000000
71
11
72
161
73
10
0
VERTEX
8
0
6
CONTINUOUS
62
252
70
128
10
0.000000
20
0.000000
30
0.000000
71
10
72
161
73
162
0
VERTEX
8
0
6
CONTINUOUS
62
252
70
128
10
0.000000
20
0.000000
30
0.000000
71
10
72
162
73
9
0
VERTEX
8
0
6
CONTINUOUS
62
252
70
128
10
0.000000
20
0.000000
30
0.000000
71
9
72
162
73
163
0
VERTEX
8
0
6
CONTINUOUS
62
252
70
128
10
0.000000
20
0.000000
30
0.000000
71
9
72
163
73
8
0
VERTEX
8
0
6
CONTINUOUS
62
252
70
128
10
0.000000
20
0.000000
30
0.000000
71
8
72
163
73
164
0
VERTEX
8
0
6
CONTINUOUS
62
252
70
128
10
0.000000
20
0.000000
30
0.000000
71
8
72
164
73
7
0
VERTEX
8
0
6
CONTINUOUS
62
252
70
128
10
0.000000
20
0.000000
30
0.000000
71
7
72
164
73
165
0
VERTEX
8
0
6
CONTINUOUS
62
252
70
128
10
0.000000
20
0.000000
30
0.000000
71
7
72
165
73
6
0
VERTEX
8
0
6
CONTINUOUS
62
252
70
128
10
0.000000
20
0.000000
30
0.000000
71
6
72
165
73
166
0
VERTEX
8
0
6
CONTINUOUS
62
252
70
128
10
0.000000
20
0.000000
30
0.000000
71
6
72
166
73
5
0
VERTEX
8
0
6
CONTINUOUS
62
252
70
128
10
0.000000
20
0.000000
30
0.000000
71
5
72
166
73
167
0
VERTEX
8
0
6
CONTINUOUS
62
252
70
128
10
0.000000
20
0.000000
30
0.000000
71
5
72
167
73
131
0
VERTEX
8
0
6
CONTINUOUS
62
252
70
128
10
0.000000
20
0.000000
30
0.000000
71
131
72
167
73
130
0
VERTEX
8
0
6
CONTINUOUS
62
252
70
128
10
0.000000
20
0.000000
30
0.000000
71
130
72
167
73
168
0
VERTEX
8
0
6
CONTINUOUS
62
252
70
128
10
0.000000
20
0.000000
30
0.000000
71
130
72
168
73
112
0
VERTEX
8
0
6
CONTINUOUS
62
252
70
128
10
0.000000
20
0.000000
30
0.000000
71
112
72
168
73
169
0
VERTEX
8
0
6
CONTINUOUS
62
252
70
128
10
0.000000
20
0.000000
30
0.000000
71
112
72
169
73
170
0
VERTEX
8
0
6
CONTINUOUS
62
252
70
128
10
0.000000
20
0.000000
30
0.000000
71
135
72
2
73
134
0
VERTEX
8
0
6
CONTINUOUS
62
252
70
128
10
0.000000
20
0.000000
30
0.000000
71
134
72
2
73
3
0
VERTEX
8
0
6
CONTINUOUS
62
252
70
128
10
0.000000
20
0.000000
30
0.000000
71
134
72
3
73
133
0
VERTEX
8
0
6
CONTINUOUS
62
252
70
128
10
0.000000
20
0.000000
30
0.000000
71
133
72
3
73
4
0
VERTEX
8
0
6
CONTINUOUS
62
252
70
128
10
0.000000
20
0.000000
30
0.000000
71
133
72
4
73
132
0
VERTEX
8
0
6
CONTINUOUS
62
252
70
128
10
0.000000
20
0.000000
30
0.000000
71
132
72
4
73
5
0
VERTEX
8
0
6
CONTINUOUS
62
252
70
128
10
0.000000
20
0.000000
30
0.000000
71
132
72
5
73
131
0
VERTEX
8
0
6
CONTINUOUS
62
252
70
128
10
0.000000
20
0.000000
30
0.000000
71
38
72
95
73
37
0
VERTEX
8
0
6
CONTINUOUS
62
252
70
128
10
0.000000
20
0.000000
30
0.000000
71
37
72
95
73
96
0
VERTEX
8
0
6
CONTINUOUS
62
252
70
128
10
0.000000
20
0.000000
30
0.000000
71
37
72
96
73
72
0
VERTEX
8
0
6
CONTINUOUS
62
252
70
128
10
0.000000
20
0.000000
30
0.000000
71
72
72
96
73
97
0
VERTEX
8
0
6
CONTINUOUS
62
252
70
128
10
0.000000
20
0.000000
30
0.000000
71
72
72
97
73
71
0
VERTEX
8
0
6
CONTINUOUS
62
252
70
128
10
0.000000
20
0.000000
30
0.000000
71
71
72
97
73
98
0
VERTEX
8
0
6
CONTINUOUS
62
252
70
128
10
0.000000
20
0.000000
30
0.000000
71
71
72
98
73
70
0
VERTEX
8
0
6
CONTINUOUS
62
252
70
128
10
0.000000
20
0.000000
30
0.000000
71
70
72
98
73
99
0
VERTEX
8
0
6
CONTINUOUS
62
252
70
128
10
0.000000
20
0.000000
30
0.000000
71
70
72
99
73
69
0
VERTEX
8
0
6
CONTINUOUS
62
252
70
128
10
0.000000
20
0.000000
30
0.000000
71
69
72
99
73
100
0
VERTEX
8
0
6
CONTINUOUS
62
252
70
128
10
0.000000
20
0.000000
30
0.000000
71
69
72
100
73
68
0
VERTEX
8
0
6
CONTINUOUS
62
252
70
128
10
0.000000
20
0.000000
30
0.000000
71
68
72
100
73
203
0
VERTEX
8
0
6
CONTINUOUS
62
252
70
128
10
0.000000
20
0.000000
30
0.000000
71
68
72
203
73
67
0
VERTEX
8
0
6
CONTINUOUS
62
252
70
128
10
0.000000
20
0.000000
30
0.000000
71
67
72
203
73
204
0
VERTEX
8
0
6
CONTINUOUS
62
252
70
128
10
0.000000
20
0.000000
30
0.000000
71
67
72
204
73
66
0
VERTEX
8
0
6
CONTINUOUS
62
252
70
128
10
0.000000
20
0.000000
30
0.000000
71
66
72
204
73
205
0
VERTEX
8
0
6
CONTINUOUS
62
252
70
128
10
0.000000
20
0.000000
30
0.000000
71
66
72
205
73
65
0
VERTEX
8
0
6
CONTINUOUS
62
252
70
128
10
0.000000
20
0.000000
30
0.000000
71
65
72
205
73
206
0
VERTEX
8
0
6
CONTINUOUS
62
252
70
128
10
0.000000
20
0.000000
30
0.000000
71
65
72
206
73
64
0
VERTEX
8
0
6
CONTINUOUS
62
252
70
128
10
0.000000
20
0.000000
30
0.000000
71
64
72
206
73
207
0
VERTEX
8
0
6
CONTINUOUS
62
252
70
128
10
0.000000
20
0.000000
30
0.000000
71
64
72
207
73
63
0
VERTEX
8
0
6
CONTINUOUS
62
252
70
128
10
0.000000
20
0.000000
30
0.000000
71
63
72
207
73
208
0
VERTEX
8
0
6
CONTINUOUS
62
252
70
128
10
0.000000
20
0.000000
30
0.000000
71
63
72
208
73
62
0
VERTEX
8
0
6
CONTINUOUS
62
252
70
128
10
0.000000
20
0.000000
30
0.000000
71
62
72
208
73
209
0
VERTEX
8
0
6
CONTINUOUS
62
252
70
128
10
0.000000
20
0.000000
30
0.000000
71
62
72
209
73
210
0
VERTEX
8
0
6
CONTINUOUS
62
252
70
128
10
0.000000
20
0.000000
30
0.000000
71
95
72
38
73
94
0
VERTEX
8
0
6
CONTINUOUS
62
252
70
128
10
0.000000
20
0.000000
30
0.000000
71
94
72
38
73
39
0
VERTEX
8
0
6
CONTINUOUS
62
252
70
128
10
0.000000
20
0.000000
30
0.000000
71
94
72
39
73
93
0
VERTEX
8
0
6
CONTINUOUS
62
252
70
128
10
0.000000
20
0.000000
30
0.000000
71
93
72
39
73
40
0
VERTEX
8
0
6
CONTINUOUS
62
252
70
128
10
0.000000
20
0.000000
30
0.000000
71
93
72
40
73
41
0
VERTEX
8
0
6
CONTINUOUS
62
252
70
128
10
0.000000
20
0.000000
30
0.000000
71
93
72
41
73
92
0
VERTEX
8
0
6
CONTINUOUS
62
252
70
128
10
0.000000
20
0.000000
30
0.000000
71
92
72
41
73
42
0
VERTEX
8
0
6
CONTINUOUS
62
252
70
128
10
0.000000
20
0.000000
30
0.000000
71
92
72
42
73
91
0
VERTEX
8
0
6
CONTINUOUS
62
252
70
128
10
0.000000
20
0.000000
30
0.000000
71
91
72
42
73
43
0
VERTEX
8
0
6
CONTINUOUS
62
252
70
128
10
0.000000
20
0.000000
30
0.000000
71
91
72
43
73
90
0
VERTEX
8
0
6
CONTINUOUS
62
252
70
128
10
0.000000
20
0.000000
30
0.000000
71
90
72
43
73
44
0
VERTEX
8
0
6
CONTINUOUS
62
252
70
128
10
0.000000
20
0.000000
30
0.000000
71
90
72
44
73
89
0
VERTEX
8
0
6
CONTINUOUS
62
252
70
128
10
0.000000
20
0.000000
30
0.000000
71
89
72
44
73
45
0
VERTEX
8
0
6
CONTINUOUS
62
252
70
128
10
0.000000
20
0.000000
30
0.000000
71
89
72
45
73
88
0
VERTEX
8
0
6
CONTINUOUS
62
252
70
128
10
0.000000
20
0.000000
30
0.000000
71
88
72
45
73
46
0
VERTEX
8
0
6
CONTINUOUS
62
252
70
128
10
0.000000
20
0.000000
30
0.000000
71
88
72
46
73
87
0
VERTEX
8
0
6
CONTINUOUS
62
252
70
128
10
0.000000
20
0.000000
30
0.000000
71
87
72
46
73
47
0
VERTEX
8
0
6
CONTINUOUS
62
252
70
128
10
0.000000
20
0.000000
30
0.000000
71
87
72
47
73
86
0
VERTEX
8
0
6
CONTINUOUS
62
252
70
128
10
0.000000
20
0.000000
30
0.000000
71
86
72
47
73
48
0
VERTEX
8
0
6
CONTINUOUS
62
252
70
128
10
0.000000
20
0.000000
30
0.000000
71
86
72
48
73
85
0
VERTEX
8
0
6
CONTINUOUS
62
252
70
128
10
0.000000
20
0.000000
30
0.000000
71
85
72
48
73
49
0
VERTEX
8
0
6
CONTINUOUS
62
252
70
128
10
0.000000
20
0.000000
30
0.000000
71
85
72
49
73
84
0
VERTEX
8
0
6
CONTINUOUS
62
252
70
128
10
0.000000
20
0.000000
30
0.000000
71
84
72
49
73
50
0
VERTEX
8
0
6
CONTINUOUS
62
252
70
128
10
0.000000
20
0.000000
30
0.000000
71
84
72
50
73
83
0
VERTEX
8
0
6
CONTINUOUS
62
252
70
128
10
0.000000
20
0.000000
30
0.000000
71
83
72
50
73
51
0
VERTEX
8
0
6
CONTINUOUS
62
252
70
128
10
0.000000
20
0.000000
30
0.000000
71
83
72
51
73
82
0
VERTEX
8
0
6
CONTINUOUS
62
252
70
128
10
0.000000
20
0.000000
30
0.000000
71
82
72
51
73
52
0
VERTEX
8
0
6
CONTINUOUS
62
252
70
128
10
0.000000
20
0.000000
30
0.000000
71
82
72
52
73
81
0
VERTEX
8
0
6
CONTINUOUS
62
252
70
128
10
0.000000
20
0.000000
30
0.000000
71
81
72
52
73
53
0
VERTEX
8
0
6
CONTINUOUS
62
252
70
128
10
0.000000
20
0.000000
30
0.000000
71
81
72
53
73
80
0
VERTEX
8
0
6
CONTINUOUS
62
252
70
128
10
0.000000
20
0.000000
30
0.000000
71
80
72
53
73
54
0
VERTEX
8
0
6
CONTINUOUS
62
252
70
128
10
0.000000
20
0.000000
30
0.000000
71
80
72
54
73
79
0
VERTEX
8
0
6
CONTINUOUS
62
252
70
128
10
0.000000
20
0.000000
30
0.000000
71
79
72
54
73
55
0
VERTEX
8
0
6
CONTINUOUS
62
252
70
128
10
0.000000
20
0.000000
30
0.000000
71
79
72
55
73
78
0
VERTEX
8
0
6
CONTINUOUS
62
252
70
128
10
0.000000
20
0.000000
30
0.000000
71
78
72
55
73
56
0
VERTEX
8
0
6
CONTINUOUS
62
252
70
128
10
0.000000
20
0.000000
30
0.000000
71
78
72
56
73
77
0
VERTEX
8
0
6
CONTINUOUS
62
252
70
128
10
0.000000
20
0.000000
30
0.000000
71
77
72
56
73
57
0
VERTEX
8
0
6
CONTINUOUS
62
252
70
128
10
0.000000
20
0.000000
30
0.000000
71
77
72
57
73
76
0
VERTEX
8
0
6
CONTINUOUS
62
252
70
128
10
0.000000
20
0.000000
30
0.000000
71
76
72
57
73
58
0
VERTEX
8
0
6
CONTINUOUS
62
252
70
128
10
0.000000
20
0.000000
30
0.000000
71
76
72
58
73
75
0
VERTEX
8
0
6
CONTINUOUS
62
252
70
128
10
0.000000
20
0.000000
30
0.000000
71
75
72
58
73
59
0
VERTEX
8
0
6
CONTINUOUS
62
252
70
128
10
0.000000
20
0.000000
30
0.000000
71
75
72
59
73
74
0
VERTEX
8
0
6
CONTINUOUS
62
252
70
128
10
0.000000
20
0.000000
30
0.000000
71
74
72
59
73
73
0
VERTEX
8
0
6
CONTINUOUS
62
252
70
128
10
0.000000
20
0.000000
30
0.000000
71
73
72
59
73
60
0
VERTEX
8
0
6
CONTINUOUS
62
252
70
128
10
0.000000
20
0.000000
30
0.000000
71
73
72
60
73
61
0
VERTEX
8
0
6
CONTINUOUS
62
252
70
128
10
0.000000
20
0.000000
30
0.000000
71
73
72
61
73
210
0
VERTEX
8
0
6
CONTINUOUS
62
252
70
128
10
0.000000
20
0.000000
30
0.000000
71
210
72
61
73
62
0
VERTEX
8
0
6
CONTINUOUS
62
252
70
128
10
0.000000
20
0.000000
30
0.000000
71
100
72
101
73
203
0
VERTEX
8
0
6
CONTINUOUS
62
252
70
128
10
0.000000
20
0.000000
30
0.000000
71
203
72
101
73
202
0
VERTEX
8
0
6
CONTINUOUS
62
252
70
128
10
0.000000
20
0.000000
30
0.000000
71
202
72
101
73
188
0
VERTEX
8
0
6
CONTINUOUS
62
252
70
128
10
0.000000
20
0.000000
30
0.000000
71
202
72
188
73
201
0
VERTEX
8
0
6
CONTINUOUS
62
252
70
128
10
0.000000
20
0.000000
30
0.000000
71
201
72
188
73
200
0
VERTEX
8
0
6
CONTINUOUS
62
252
70
128
10
0.000000
20
0.000000
30
0.000000
71
200
72
188
73
199
0
VERTEX
8
0
6
CONTINUOUS
62
252
70
128
10
0.000000
20
0.000000
30
0.000000
71
199
72
188
73
198
0
VERTEX
8
0
6
CONTINUOUS
62
252
70
128
10
0.000000
20
0.000000
30
0.000000
71
198
72
188
73
197
0
VERTEX
8
0
6
CONTINUOUS
62
252
70
128
10
0.000000
20
0.000000
30
0.000000
71
197
72
188
73
196
0
VERTEX
8
0
6
CONTINUOUS
62
252
70
128
10
0.000000
20
0.000000
30
0.000000
71
196
72
188
73
192
0
VERTEX
8
0
6
CONTINUOUS
62
252
70
128
10
0.000000
20
0.000000
30
0.000000
71
196
72
192
73
195
0
VERTEX
8
0
6
CONTINUOUS
62
252
70
128
10
0.000000
20
0.000000
30
0.000000
71
195
72
192
73
194
0
VERTEX
8
0
6
CONTINUOUS
62
252
70
128
10
0.000000
20
0.000000
30
0.000000
71
194
72
192
73
193
0
VERTEX
8
0
6
CONTINUOUS
62
252
70
128
10
0.000000
20
0.000000
30
0.000000
71
101
72
102
73
188
0
VERTEX
8
0
6
CONTINUOUS
62
252
70
128
10
0.000000
20
0.000000
30
0.000000
71
188
72
102
73
103
0
VERTEX
8
0
6
CONTINUOUS
62
252
70
128
10
0.000000
20
0.000000
30
0.000000
71
188
72
103
73
107
0
VERTEX
8
0
6
CONTINUOUS
62
252
70
128
10
0.000000
20
0.000000
30
0.000000
71
107
72
103
73
106
0
VERTEX
8
0
6
CONTINUOUS
62
252
70
128
10
0.000000
20
0.000000
30
0.000000
71
106
72
103
73
105
0
VERTEX
8
0
6
CONTINUOUS
62
252
70
128
10
0.000000
20
0.000000
30
0.000000
71
105
72
103
73
104
0
VERTEX
8
0
6
CONTINUOUS
62
252
70
128
10
0.000000
20
0.000000
30
0.000000
71
107
72
108
73
188
0
VERTEX
8
0
6
CONTINUOUS
62
252
70
128
10
0.000000
20
0.000000
30
0.000000
71
188
72
108
73
109
0
VERTEX
8
0
6
CONTINUOUS
62
252
70
128
10
0.000000
20
0.000000
30
0.000000
71
188
72
109
73
110
0
VERTEX
8
0
6
CONTINUOUS
62
252
70
128
10
0.000000
20
0.000000
30
0.000000
71
110
72
111
73
188
0
VERTEX
8
0
6
CONTINUOUS
62
252
70
128
10
0.000000
20
0.000000
30
0.000000
71
188
72
111
73
187
0
VERTEX
8
0
6
CONTINUOUS
62
252
70
128
10
0.000000
20
0.000000
30
0.000000
71
187
72
111
73
186
0
VERTEX
8
0
6
CONTINUOUS
62
252
70
128
10
0.000000
20
0.000000
30
0.000000
71
186
72
111
73
112
0
VERTEX
8
0
6
CONTINUOUS
62
252
70
128
10
0.000000
20
0.000000
30
0.000000
71
186
72
112
73
185
0
VERTEX
8
0
6
CONTINUOUS
62
252
70
128
10
0.000000
20
0.000000
30
0.000000
71
185
72
112
73
184
0
VERTEX
8
0
6
CONTINUOUS
62
252
70
128
10
0.000000
20
0.000000
30
0.000000
71
184
72
112
73
183
0
VERTEX
8
0
6
CONTINUOUS
62
252
70
128
10
0.000000
20
0.000000
30
0.000000
71
183
72
112
73
182
0
VERTEX
8
0
6
CONTINUOUS
62
252
70
128
10
0.000000
20
0.000000
30
0.000000
71
182
72
112
73
181
0
VERTEX
8
0
6
CONTINUOUS
62
252
70
128
10
0.000000
20
0.000000
30
0.000000
71
181
72
112
73
180
0
VERTEX
8
0
6
CONTINUOUS
62
252
70
128
10
0.000000
20
0.000000
30
0.000000
71
180
72
112
73
179
0
VERTEX
8
0
6
CONTINUOUS
62
252
70
128
10
0.000000
20
0.000000
30
0.000000
71
179
72
112
73
178
0
VERTEX
8
0
6
CONTINUOUS
62
252
70
128
10
0.000000
20
0.000000
30
0.000000
71
178
72
112
73
177
0
VERTEX
8
0
6
CONTINUOUS
62
252
70
128
10
0.000000
20
0.000000
30
0.000000
71
177
72
112
73
176
0
VERTEX
8
0
6
CONTINUOUS
62
252
70
128
10
0.000000
20
0.000000
30
0.000000
71
176
72
112
73
175
0
VERTEX
8
0
6
CONTINUOUS
62
252
70
128
10
0.000000
20
0.000000
30
0.000000
71
175
72
112
73
174
0
VERTEX
8
0
6
CONTINUOUS
62
252
70
128
10
0.000000
20
0.000000
30
0.000000
71
174
72
112
73
173
0
VERTEX
8
0
6
CONTINUOUS
62
252
70
128
10
0.000000
20
0.000000
30
0.000000
71
173
72
112
73
172
0
VERTEX
8
0
6
CONTINUOUS
62
252
70
128
10
0.000000
20
0.000000
30
0.000000
71
172
72
112
73
171
0
VERTEX
8
0
6
CONTINUOUS
62
252
70
128
10
0.000000
20
0.000000
30
0.000000
71
171
72
112
73
170
0
VERTEX
8
0
6
CONTINUOUS
62
252
70
128
10
0.000000
20
0.000000
30
0.000000
71
112
72
113
73
130
0
VERTEX
8
0
6
CONTINUOUS
62
252
70
128
10
0.000000
20
0.000000
30
0.000000
71
130
72
113
73
129
0
VERTEX
8
0
6
CONTINUOUS
62
252
70
128
10
0.000000
20
0.000000
30
0.000000
71
129
72
113
73
128
0
VERTEX
8
0
6
CONTINUOUS
62
252
70
128
10
0.000000
20
0.000000
30
0.000000
71
128
72
113
73
127
0
VERTEX
8
0
6
CONTINUOUS
62
252
70
128
10
0.000000
20
0.000000
30
0.000000
71
127
72
113
73
126
0
VERTEX
8
0
6
CONTINUOUS
62
252
70
128
10
0.000000
20
0.000000
30
0.000000
71
126
72
113
73
114
0
VERTEX
8
0
6
CONTINUOUS
62
252
70
128
10
0.000000
20
0.000000
30
0.000000
71
126
72
114
73
125
0
VERTEX
8
0
6
CONTINUOUS
62
252
70
128
10
0.000000
20
0.000000
30
0.000000
71
125
72
114
73
115
0
VERTEX
8
0
6
CONTINUOUS
62
252
70
128
10
0.000000
20
0.000000
30
0.000000
71
125
72
115
73
116
0
VERTEX
8
0
6
CONTINUOUS
62
252
70
128
10
0.000000
20
0.000000
30
0.000000
71
116
72
117
73
125
0
VERTEX
8
0
6
CONTINUOUS
62
252
70
128
10
0.000000
20
0.000000
30
0.000000
71
125
72
117
73
118
0
VERTEX
8
0
6
CONTINUOUS
62
252
70
128
10
0.000000
20
0.000000
30
0.000000
71
125
72
118
73
119
0
VERTEX
8
0
6
CONTINUOUS
62
252
70
128
10
0.000000
20
0.000000
30
0.000000
71
125
72
119
73
124
0
VERTEX
8
0
6
CONTINUOUS
62
252
70
128
10
0.000000
20
0.000000
30
0.000000
71
124
72
119
73
120
0
VERTEX
8
0
6
CONTINUOUS
62
252
70
128
10
0.000000
20
0.000000
30
0.000000
71
124
72
120
73
121
0
VERTEX
8
0
6
CONTINUOUS
62
252
70
128
10
0.000000
20
0.000000
30
0.000000
71
121
72
122
73
124
0
VERTEX
8
0
6
CONTINUOUS
62
252
70
128
10
0.000000
20
0.000000
30
0.000000
71
124
72
122
73
123
0
VERTEX
8
0
6
CONTINUOUS
62
252
70
128
10
0.000000
20
0.000000
30
0.000000
71
189
72
190
73
188
0
VERTEX
8
0
6
CONTINUOUS
62
252
70
128
10
0.000000
20
0.000000
30
0.000000
71
188
72
190
73
191
0
VERTEX
8
0
6
CONTINUOUS
62
252
70
128
10
0.000000
20
0.000000
30
0.000000
71
188
72
191
73
192
0
SEQEND
0
POLYLINE
66
1
8
0
6
CONTINUOUS
62
252
70
64
75
0
10
0.000000
20
0.000000
30
0.000000
0
VERTEX
8
0
6
CONTINUOUS
62
252
70
192
10
-1.500000
20
-40.000000
30
-47.000000
0
VERTEX
8
0
6
CONTINUOUS
62
252
70
192
10
-2.191247
20
-40.000000
30
-54.900992
0
VERTEX
8
0
6
CONTINUOUS
62
252
70
192
10
-4.243986
20
-40.000000
30
-62.561917
0
VERTEX
8
0
6
CONTINUOUS
62
252
70
192
10
-7.595844
20
-40.000000
30
-69.750000
0
VERTEX
8
0
6
CONTINUOUS
62
252
70
192
10
-12.144978
20
-40.000000
30
-76.246836
0
VERTEX
8
0
6
CONTINUOUS
62
252
70
192
10
-17.753164
20
-40.000000
30
-81.855022
0
VERTEX
8
0
6
CONTINUOUS
62
252
70
192
10
-24.250000
20
-40.000000
30
-86.404156
0
VERTEX
8
0
6
CONTINUOUS
62
252
70
192
10
-31.438083
20
-40.000000
30
-89.756014
0
VERTEX
8
0
6
CONTINUOUS
62
252
70
192
10
-39.099008
20
-40.000000
30
-91.808753
0
VERTEX
8
0
6
CONTINUOUS
62
252
70
192
10
-47.000000
20
-40.000000
30
-92.500000
0
VERTEX
8
0
6
CONTINUOUS
62
252
70
192
10
-54.900992
20
-40.000000
30
-91.808753
0
VERTEX
8
0
6
CONTINUOUS
62
252
70
192
10
-62.561917
20
-40.000000
30
-89.756014
0
VERTEX
8
0
6
CONTINUOUS
62
252
70
192
10
-69.750000
20
-40.000000
30
-86.404156
0
VERTEX
8
0
6
CONTINUOUS
62
252
70
192
10
-76.246836
20
-40.000000
30
-81.855022
0
VERTEX
8
0
6
CONTINUOUS
62
252
70
192
10
-81.855022
20
-40.000000
30
-76.246836
0
VERTEX
8
0
6
CONTINUOUS
62
252
70
192
10
-86.404156
20
-40.000000
30
-69.750000
0
VERTEX
8
0
6
CONTINUOUS
62
252
70
192
10
-89.756014
20
-40.000000
30
-62.561917
0
VERTEX
8
0
6
CONTINUOUS
62
252
70
192
10
-91.808753
20
-40.000000
30
-54.900992
0
VERTEX
8
0
6
CONTINUOUS
62
252
70
192
10
-92.500000
20
-40.000000
30
-47.000000
0
VERTEX
8
0
6
CONTINUOUS
62
252
70
192
10
-91.808753
20
-40.000000
30
-39.099008
0
VERTEX
8
0
6
CONTINUOUS
62
252
70
192
10
-89.756014
20
-40.000000
30
-31.438083
0
VERTEX
8
0
6
CONTINUOUS
62
252
70
192
10
-86.404156
20
-40.000000
30
-24.250000
0
VERTEX
8
0
6
CONTINUOUS
62
252
70
192
10
-81.855022
20
-40.000000
30
-17.753164
0
VERTEX
8
0
6
CONTINUOUS
62
252
70
192
10
-76.246836
20
-40.000000
30
-12.144978
0
VERTEX
8
0
6
CONTINUOUS
62
252
70
192
10
-69.750000
20
-40.000000
30
-7.595844
0
VERTEX
8
0
6
CONTINUOUS
62
252
70
192
10
-62.561917
20
-40.000000
30
-4.243986
0
VERTEX
8
0
6
CONTINUOUS
62
252
70
192
10
-54.900992
20
-40.000000
30
-2.191247
0
VERTEX
8
0
6
CONTINUOUS
62
252
70
192
10
-47.000000
20
-40.000000
30
-1.500000
0
VERTEX
8
0
6
CONTINUOUS
62
252
70
192
10
-39.099008
20
-40.000000
30
-2.191247
0
VERTEX
8
0
6
CONTINUOUS
62
252
70
192
10
-31.438083
20
-40.000000
30
-4.243986
0
VERTEX
8
0
6
CONTINUOUS
62
252
70
192
10
-24.250000
20
-40.000000
30
-7.595844
0
VERTEX
8
0
6
CONTINUOUS
62
252
70
192
10
-17.753164
20
-40.000000
30
-12.144978
0
VERTEX
8
0
6
CONTINUOUS
62
252
70
192
10
-12.144978
20
-40.000000
30
-17.753164
0
VERTEX
8
0
6
CONTINUOUS
62
252
70
192
10
-7.595844
20
-40.000000
30
-24.250000
0
VERTEX
8
0
6
CONTINUOUS
62
252
70
192
10
-4.243986
20
-40.000000
30
-31.438083
0
VERTEX
8
0
6
CONTINUOUS
62
252
70
192
10
-2.191247
20
-40.000000
30
-39.099008
0
VERTEX
8
0
6
CONTINUOUS
62
252
70
192
10
-103.250000
20
-40.000000
30
-105.500000
0
VERTEX
8
0
6
CONTINUOUS
62
252
70
192
10
-103.284183
20
-40.000000
30
-105.890708
0
VERTEX
8
0
6
CONTINUOUS
62
252
70
192
10
-103.385692
20
-40.000000
30
-106.269545
0
VERTEX
8
0
6
CONTINUOUS
62
252
70
192
10
-103.551443
20
-40.000000
30
-106.625000
0
VERTEX
8
0
6
CONTINUOUS
62
252
70
192
10
-103.776400
20
-40.000000
30
-106.946272
0
VERTEX
8
0
6
CONTINUOUS
62
252
70
192
10
-104.053728
20
-40.000000
30
-107.223600
0
VERTEX
8
0
6
CONTINUOUS
62
252
70
192
10
-104.375000
20
-40.000000
30
-107.448557
0
VERTEX
8
0
6
CONTINUOUS
62
252
70
192
10
-104.730455
20
-40.000000
30
-107.614308
0
VERTEX
8
0
6
CONTINUOUS
62
252
70
192
10
-105.109292
20
-40.000000
30
-107.715817
0
VERTEX
8
0
6
CONTINUOUS
62
252
70
192
10
-105.500000
20
-40.000000
30
-107.750000
0
VERTEX
8
0
6
CONTINUOUS
62
252
70
192
10
-105.890708
20
-40.000000
30
-107.715817
0
VERTEX
8
0
6
CONTINUOUS
62
252
70
192
10
-106.269545
20
-40.000000
30
-107.614308
0
VERTEX
8
0
6
CONTINUOUS
62
252
70
192
10
-106.625000
20
-40.000000
30
-107.448557
0
VERTEX
8
0
6
CONTINUOUS
62
252
70
192
10
-106.946272
20
-40.000000
30
-107.223600
0
VERTEX
8
0
6
CONTINUOUS
62
252
70
192
10
-107.223600
20
-40.000000
30
-106.946272
0
VERTEX
8
0
6
CONTINUOUS
62
252
70
192
10
-107.448557
20
-40.000000
30
-106.625000
0
VERTEX
8
0
6
CONTINUOUS
62
252
70
192
10
-107.614308
20
-40.000000
30
-106.269545
0
VERTEX
8
0
6
CONTINUOUS
62
252
70
192
10
-107.715817
20
-40.000000
30
-105.890708
0
VERTEX
8
0
6
CONTINUOUS
62
252
70
192
10
-107.750000
20
-40.000000
30
-105.500000
0
VERTEX
8
0
6
CONTINUOUS
62
252
70
192
10
-107.715817
20
-40.000000
30
-105.109292
0
VERTEX
8
0
6
CONTINUOUS
62
252
70
192
10
-107.614308
20
-40.000000
30
-104.730455
0
VERTEX
8
0
6
CONTINUOUS
62
252
70
192
10
-107.448557
20
-40.000000
30
-104.375000
0
VERTEX
8
0
6
CONTINUOUS
62
252
70
192
10
-107.223600
20
-40.000000
30
-104.053728
0
VERTEX
8
0
6
CONTINUOUS
62
252
70
192
10
-106.946272
20
-40.000000
30
-103.776400
0
VERTEX
8
0
6
CONTINUOUS
62
252
70
192
10
-106.625000
20
-40.000000
30
-103.551443
0
VERTEX
8
0
6
CONTINUOUS
62
252
70
192
10
-106.269545
20
-40.000000
30
-103.385692
0
VERTEX
8
0
6
CONTINUOUS
62
252
70
192
10
-105.890708
20
-40.000000
30
-103.284183
0
VERTEX
8
0
6
CONTINUOUS
62
252
70
192
10
-105.500000
20
-40.000000
30
-103.250000
0
VERTEX
8
0
6
CONTINUOUS
62
252
70
192
10
-105.109292
20
-40.000000
30
-103.284183
0
VERTEX
8
0
6
CONTINUOUS
62
252
70
192
10
-104.730455
20
-40.000000
30
-103.385692
0
VERTEX
8
0
6
CONTINUOUS
62
252
70
192
10
-104.375000
20
-40.000000
30
-103.551443
0
VERTEX
8
0
6
CONTINUOUS
62
252
70
192
10
-104.053728
20
-40.000000
30
-103.776400
0
VERTEX
8
0
6
CONTINUOUS
62
252
70
192
10
-103.776400
20
-40.000000
30
-104.053728
0
VERTEX
8
0
6
CONTINUOUS
62
252
70
192
10
-103.551443
20
-40.000000
30
-104.375000
0
VERTEX
8
0
6
CONTINUOUS
62
252
70
192
10
-103.385692
20
-40.000000
30
-104.730455
0
VERTEX
8
0
6
CONTINUOUS
62
252
70
192
10
-103.284183
20
-40.000000
30
-105.109292
0
VERTEX
8
0
6
CONTINUOUS
62
252
70
192
10
-0.000000
20
-40.000000
30
-2.250000
0
VERTEX
8
0
6
CONTINUOUS
62
252
70
192
10
-0.390708
20
-40.000000
30
-2.215817
0
VERTEX
8
0
6
CONTINUOUS
62
252
70
192
10
-0.769545
20
-40.000000
30
-2.114308
0
VERTEX
8
0
6
CONTINUOUS
62
252
70
192
10
-1.125000
20
-40.000000
30
-1.948557
0
VERTEX
8
0
6
CONTINUOUS
62
252
70
192
10
-1.446272
20
-40.000000
30
-1.723600
0
VERTEX
8
0
6
CONTINUOUS
62
252
70
192
10
-1.723600
20
-40.000000
30
-1.446272
0
VERTEX
8
0
6
CONTINUOUS
62
252
70
192
10
-1.948557
20
-40.000000
30
-1.125000
0
VERTEX
8
0
6
CONTINUOUS
62
252
70
192
10
-2.114308
20
-40.000000
30
-0.769545
0
VERTEX
8
0
6
CONTINUOUS
62
252
70
192
10
-2.215817
20
-40.000000
30
-0.390708
0
VERTEX
8
0
6
CONTINUOUS
62
252
70
192
10
-2.250000
20
-40.000000
30
0.000000
0
VERTEX
8
0
6
CONTINUOUS
62
252
70
192
10
-2.215817
20
-40.000000
30
0.390708
0
VERTEX
8
0
6
CONTINUOUS
62
252
70
192
10
-2.114308
20
-40.000000
30
0.769545
0
VERTEX
8
0
6
CONTINUOUS
62
252
70
192
10
-1.948557
20
-40.000000
30
1.125000
0
VERTEX
8
0
6
CONTINUOUS
62
252
70
192
10
-1.723600
20
-40.000000
30
1.446272
0
VERTEX
8
0
6
CONTINUOUS
62
252
70
192
10
-1.446272
20
-40.000000
30
1.723600
0
VERTEX
8
0
6
CONTINUOUS
62
252
70
192
10
-1.125000
20
-40.000000
30
1.948557
0
VERTEX
8
0
6
CONTINUOUS
62
252
70
192
10
-0.769545
20
-40.000000
30
2.114308
0
VERTEX
8
0
6
CONTINUOUS
62
252
70
192
10
-0.390708
20
-40.000000
30
2.215817
0
VERTEX
8
0
6
CONTINUOUS
62
252
70
192
10
-0.000000
20
-40.000000
30
2.250000
0
VERTEX
8
0
6
CONTINUOUS
62
252
70
192
10
0.390708
20
-40.000000
30
2.215817
0
VERTEX
8
0
6
CONTINUOUS
62
252
70
192
10
0.769545
20
-40.000000
30
2.114308
0
VERTEX
8
0
6
CONTINUOUS
62
252
70
192
10
1.125000
20
-40.000000
30
1.948557
0
VERTEX
8
0
6
CONTINUOUS
62
252
70
192
10
1.446272
20
-40.000000
30
1.723600
0
VERTEX
8
0
6
CONTINUOUS
62
252
70
192
10
1.723600
20
-40.000000
30
1.446272
0
VERTEX
8
0
6
CONTINUOUS
62
252
70
192
10
1.948557
20
-40.000000
30
1.125000
0
VERTEX
8
0
6
CONTINUOUS
62
252
70
192
10
2.114308
20
-40.000000
30
0.769545
0
VERTEX
8
0
6
CONTINUOUS
62
252
70
192
10
2.215817
20
-40.000000
30
0.390708
0
VERTEX
8
0
6
CONTINUOUS
62
252
70
192
10
2.250000
20
-40.000000
30
0.000000
0
VERTEX
8
0
6
CONTINUOUS
62
252
70
192
10
2.215817
20
-40.000000
30
-0.390708
0
VERTEX
8
0
6
CONTINUOUS
62
252
70
192
10
2.114308
20
-40.000000
30
-0.769545
0
VERTEX
8
0
6
CONTINUOUS
62
252
70
192
10
1.948557
20
-40.000000
30
-1.125000
0
VERTEX
8
0
6
CONTINUOUS
62
252
70
192
10
1.723600
20
-40.000000
30
-1.446272
0
VERTEX
8
0
6
CONTINUOUS
62
252
70
192
10
1.446272
20
-40.000000
30
-1.723600
0
VERTEX
8
0
6
CONTINUOUS
62
252
70
192
10
1.125000
20
-40.000000
30
-1.948557
0
VERTEX
8
0
6
CONTINUOUS
62
252
70
192
10
0.769545
20
-40.000000
30
-2.114308
0
VERTEX
8
0
6
CONTINUOUS
62
252
70
192
10
0.390708
20
-40.000000
30
-2.215817
0
VERTEX
8
0
6
CONTINUOUS
62
252
70
192
10
2.330046
20
-40.000000
30
-4.459722
0
VERTEX
8
0
6
CONTINUOUS
62
252
70
192
10
3.522362
20
-40.000000
30
-3.265430
0
VERTEX
8
0
6
CONTINUOUS
62
252
70
192
10
4.016301
20
-40.000000
30
-2.633421
0
VERTEX
8
0
6
CONTINUOUS
62
252
70
192
10
4.398252
20
-40.000000
30
-1.928066
0
VERTEX
8
0
6
CONTINUOUS
62
252
70
192
10
4.657576
20
-40.000000
30
-1.169011
0
VERTEX
8
0
6
CONTINUOUS
62
252
70
192
10
4.787049
20
-40.000000
30
-0.377400
0
VERTEX
8
0
6
CONTINUOUS
62
252
70
192
10
4.783066
20
-40.000000
30
0.424720
0
VERTEX
8
0
6
CONTINUOUS
62
252
70
192
10
4.645738
20
-40.000000
30
1.215007
0
VERTEX
8
0
6
CONTINUOUS
62
252
70
192
10
4.378889
20
-40.000000
30
1.971449
0
VERTEX
8
0
6
CONTINUOUS
62
252
70
192
10
3.989952
20
-40.000000
30
2.672976
0
VERTEX
8
0
6
CONTINUOUS
62
252
70
192
10
3.489760
20
-40.000000
30
3.300049
0
VERTEX
8
0
6
CONTINUOUS
62
252
70
192
10
2.892245
20
-40.000000
30
3.835202
0
VERTEX
8
0
6
CONTINUOUS
62
252
70
192
10
2.214050
20
-40.000000
30
4.263529
0
VERTEX
8
0
6
CONTINUOUS
62
252
70
192
10
1.474065
20
-40.000000
30
4.573100
0
VERTEX
8
0
6
CONTINUOUS
62
252
70
192
10
0.692900
20
-40.000000
30
4.755292
0
VERTEX
8
0
6
CONTINUOUS
62
252
70
192
10
-0.107686
20
-40.000000
30
4.805031
0
VERTEX
8
0
6
CONTINUOUS
62
252
70
192
10
-0.905395
20
-40.000000
30
4.720932
0
VERTEX
8
0
6
CONTINUOUS
62
252
70
192
10
-1.678008
20
-40.000000
30
4.505336
0
VERTEX
8
0
6
CONTINUOUS
62
252
70
192
10
-2.404005
20
-40.000000
30
4.164249
0
VERTEX
8
0
6
CONTINUOUS
62
252
70
192
10
-3.063166
20
-40.000000
30
3.707171
0
VERTEX
8
0
6
CONTINUOUS
62
252
70
192
10
-3.637129
20
-40.000000
30
3.146834
0
VERTEX
8
0
6
CONTINUOUS
62
252
70
192
10
-3.900854
20
-40.000000
30
2.925084
0
VERTEX
8
0
6
CONTINUOUS
62
252
70
192
10
-4.198727
20
-40.000000
30
2.751891
0
VERTEX
8
0
6
CONTINUOUS
62
252
70
192
10
-4.521906
20
-40.000000
30
2.632396
0
VERTEX
8
0
6
CONTINUOUS
62
252
70
192
10
-4.860800
20
-40.000000
30
2.570145
0
VERTEX
8
0
6
CONTINUOUS
62
252
70
192
10
-5.205349
20
-40.000000
30
2.566986
0
VERTEX
8
0
6
CONTINUOUS
62
252
70
192
10
-5.545326
20
-40.000000
30
2.623012
0
VERTEX
8
0
6
CONTINUOUS
62
252
70
192
10
-5.870642
20
-40.000000
30
2.736562
0
VERTEX
8
0
6
CONTINUOUS
62
252
70
192
10
-6.171641
20
-40.000000
30
2.904264
0
VERTEX
8
0
6
CONTINUOUS
62
252
70
192
10
-6.439387
20
-40.000000
30
3.121140
0
VERTEX
8
0
6
CONTINUOUS
62
252
70
192
10
-10.942418
20
-40.000000
30
7.073635
0
VERTEX
8
0
6
CONTINUOUS
62
252
70
192
10
-15.794313
20
-40.000000
30
10.589118
0
VERTEX
8
0
6
CONTINUOUS
62
252
70
192
10
-20.952811
20
-40.000000
30
13.636970
0
VERTEX
8
0
6
CONTINUOUS
62
252
70
192
10
-23.442083
20
-40.000000
30
14.886697
0
VERTEX
8
0
6
CONTINUOUS
62
252
70
192
10
-25.983220
20
-40.000000
30
16.027274
0
VERTEX
8
0
6
CONTINUOUS
62
252
70
192
10
-28.571439
20
-40.000000
30
17.056554
0
VERTEX
8
0
6
CONTINUOUS
62
252
70
192
10
-29.011111
20
-40.000000
30
17.218623
0
VERTEX
8
0
6
CONTINUOUS
62
252
70
192
10
-29.451954
20
-40.000000
30
17.377479
0
VERTEX
8
0
6
CONTINUOUS
62
252
70
192
10
-29.893945
20
-40.000000
30
17.533112
0
VERTEX
8
0
6
CONTINUOUS
62
252
70
192
10
-37.317689
20
-40.000000
30
19.625173
0
VERTEX
8
0
6
CONTINUOUS
62
252
70
192
10
-44.938598
20
-40.000000
30
20.812798
0
VERTEX
8
0
6
CONTINUOUS
62
252
70
192
10
-52.646899
20
-40.000000
30
21.078880
0
VERTEX
8
0
6
CONTINUOUS
62
252
70
192
10
-64.109195
20
-40.000000
30
19.880692
0
VERTEX
8
0
6
CONTINUOUS
62
252
70
192
10
-75.234816
20
-40.000000
30
16.873965
0
VERTEX
8
0
6
CONTINUOUS
62
252
70
192
10
-85.740290
20
-40.000000
30
12.135308
0
VERTEX
8
0
6
CONTINUOUS
62
252
70
192
10
-95.357944
20
-40.000000
30
5.785458
0
VERTEX
8
0
6
CONTINUOUS
62
252
70
192
10
-103.842726
20
-40.000000
30
-2.013794
0
VERTEX
8
0
6
CONTINUOUS
62
252
70
192
10
-110.978449
20
-40.000000
30
-11.063729
0
VERTEX
8
0
6
CONTINUOUS
62
252
70
192
10
-116.583299
20
-40.000000
30
-21.133759
0
VERTEX
8
0
6
CONTINUOUS
62
252
70
192
10
-120.514469
20
-40.000000
30
-31.967307
0
VERTEX
8
0
6
CONTINUOUS
62
252
70
192
10
-122.671795
20
-40.000000
30
-43.288341
0
VERTEX
8
0
6
CONTINUOUS
62
252
70
192
10
-123.000309
20
-40.000000
30
-54.808408
0
VERTEX
8
0
6
CONTINUOUS
62
252
70
192
10
-122.561364
20
-40.000000
30
-60.653090
0
VERTEX
8
0
6
CONTINUOUS
62
252
70
192
10
-121.637177
20
-40.000000
30
-66.440910
0
VERTEX
8
0
6
CONTINUOUS
62
252
70
192
10
-120.234168
20
-40.000000
30
-72.131653
0
VERTEX
8
0
6
CONTINUOUS
62
252
70
192
10
-119.916540
20
-40.000000
30
-73.256469
0
VERTEX
8
0
6
CONTINUOUS
62
252
70
192
10
-119.582554
20
-40.000000
30
-74.376537
0
VERTEX
8
0
6
CONTINUOUS
62
252
70
192
10
-119.232280
20
-40.000000
30
-75.491618
0
VERTEX
8
0
6
CONTINUOUS
62
252
70
192
10
-118.201140
20
-40.000000
30
-78.488245
0
VERTEX
8
0
6
CONTINUOUS
62
252
70
192
10
-117.052418
20
-40.000000
30
-81.441795
0
VERTEX
8
0
6
CONTINUOUS
62
252
70
192
10
-115.787907
20
-40.000000
30
-84.347657
0
VERTEX
8
0
6
CONTINUOUS
62
252
70
192
10
-113.358668
20
-40.000000
30
-89.201291
0
VERTEX
8
0
6
CONTINUOUS
62
252
70
192
10
-110.606707
20
-40.000000
30
-93.879502
0
VERTEX
8
0
6
CONTINUOUS
62
252
70
192
10
-107.544627
20
-40.000000
30
-98.360866
0
VERTEX
8
0
6
CONTINUOUS
62
252
70
192
10
-107.378821
20
-40.000000
30
-98.628618
0
VERTEX
8
0
6
CONTINUOUS
62
252
70
192
10
-107.257102
20
-40.000000
30
-98.919078
0
VERTEX
8
0
6
CONTINUOUS
62
252
70
192
10
-107.182488
20
-40.000000
30
-99.225045
0
VERTEX
8
0
6
CONTINUOUS
62
252
70
192
10
-107.156829
20
-40.000000
30
-99.538931
0
VERTEX
8
0
6
CONTINUOUS
62
252
70
192
10
-107.180761
20
-40.000000
30
-99.852953
0
VERTEX
8
0
6
CONTINUOUS
62
252
70
192
10
-107.253691
20
-40.000000
30
-100.159326
0
VERTEX
8
0
6
CONTINUOUS
62
252
70
192
10
-107.373811
20
-40.000000
30
-100.450451
0
VERTEX
8
0
6
CONTINUOUS
62
252
70
192
10
-107.538141
20
-40.000000
30
-100.719112
0
VERTEX
8
0
6
CONTINUOUS
62
252
70
192
10
-107.742608
20
-40.000000
30
-100.958645
0
VERTEX
8
0
6
CONTINUOUS
62
252
70
192
10
-108.889728
20
-40.000000
30
-102.105765
0
VERTEX
8
0
6
CONTINUOUS
62
252
70
192
10
-109.421848
20
-40.000000
30
-102.738592
0
VERTEX
8
0
6
CONTINUOUS
62
252
70
192
10
-109.837473
20
-40.000000
30
-103.453349
0
VERTEX
8
0
6
CONTINUOUS
62
252
70
192
10
-110.124270
20
-40.000000
30
-104.228829
0
VERTEX
8
0
6
CONTINUOUS
62
252
70
192
10
-110.273729
20
-40.000000
30
-105.042022
0
VERTEX
8
0
6
CONTINUOUS
62
252
70
192
10
-110.281417
20
-40.000000
30
-105.868800
0
VERTEX
8
0
6
CONTINUOUS
62
252
70
192
10
-110.147106
20
-40.000000
30
-106.684632
0
VERTEX
8
0
6
CONTINUOUS
62
252
70
192
10
-109.874779
20
-40.000000
30
-107.465311
0
VERTEX
8
0
6
CONTINUOUS
62
252
70
192
10
-109.472518
20
-40.000000
30
-108.187674
0
VERTEX
8
0
6
CONTINUOUS
62
252
70
192
10
-108.952259
20
-40.000000
30
-108.830286
0
VERTEX
8
0
6
CONTINUOUS
62
252
70
192
10
-108.329437
20
-40.000000
30
-109.374082
0
VERTEX
8
0
6
CONTINUOUS
62
252
70
192
10
-107.622532
20
-40.000000
30
-109.802926
0
VERTEX
8
0
6
CONTINUOUS
62
252
70
192
10
-106.852520
20
-40.000000
30
-110.104094
0
VERTEX
8
0
6
CONTINUOUS
62
252
70
192
10
-106.042246
20
-40.000000
30
-110.268651
0
VERTEX
8
0
6
CONTINUOUS
62
252
70
192
10
-105.215754
20
-40.000000
30
-110.291712
0
VERTEX
8
0
6
CONTINUOUS
62
252
70
192
10
-104.397566
20
-40.000000
30
-110.172595
0
VERTEX
8
0
6
CONTINUOUS
62
252
70
192
10
-103.611957
20
-40.000000
30
-109.914833
0
VERTEX
8
0
6
CONTINUOUS
62
252
70
192
10
-102.882239
20
-40.000000
30
-109.526075
0
VERTEX
8
0
6
CONTINUOUS
62
252
70
192
10
-102.230063
20
-40.000000
30
-109.017855
0
VERTEX
8
0
6
CONTINUOUS
62
252
70
192
10
-101.620758
20
-40.000000
30
-108.409558
0
VERTEX
8
0
6
CONTINUOUS
62
252
70
192
10
-101.356189
20
-40.000000
30
-108.187563
0
VERTEX
8
0
6
CONTINUOUS
62
252
70
192
10
-101.057372
20
-40.000000
30
-108.014394
0
VERTEX
8
0
6
CONTINUOUS
62
252
70
192
10
-100.733219
20
-40.000000
30
-107.895215
0
VERTEX
8
0
6
CONTINUOUS
62
252
70
192
10
-100.393395
20
-40.000000
30
-107.833580
0
VERTEX
8
0
6
CONTINUOUS
62
252
70
192
10
-100.048034
20
-40.000000
30
-107.831327
0
VERTEX
8
0
6
CONTINUOUS
62
252
70
192
10
-99.707436
20
-40.000000
30
-107.888523
0
VERTEX
8
0
6
CONTINUOUS
62
252
70
192
10
-99.381755
20
-40.000000
30
-108.003462
0
VERTEX
8
0
6
CONTINUOUS
62
252
70
192
10
-99.080704
20
-40.000000
30
-108.172718
0
VERTEX
8
0
6
CONTINUOUS
62
252
70
192
10
-98.813261
20
-40.000000
30
-108.391242
0
VERTEX
8
0
6
CONTINUOUS
62
252
70
192
10
-90.232175
20
-40.000000
30
-115.640052
0
VERTEX
8
0
6
CONTINUOUS
62
252
70
192
10
-80.722465
20
-40.000000
30
-121.618825
0
VERTEX
8
0
6
CONTINUOUS
62
252
70
192
10
-70.470689
20
-40.000000
30
-126.210271
0
VERTEX
8
0
6
CONTINUOUS
62
252
70
192
10
-59.677960
20
-40.000000
30
-129.324318
0
VERTEX
8
0
6
CONTINUOUS
62
252
70
192
10
-48.556005
20
-40.000000
30
-130.899878
0
VERTEX
8
0
6
CONTINUOUS
62
252
70
192
10
26.904384
20
-40.000000
30
-130.899878
0
VERTEX
8
0
6
CONTINUOUS
62
252
70
192
10
26.904384
20
-40.000000
30
-57.699878
0
VERTEX
8
0
6
CONTINUOUS
62
252
70
192
10
14.523096
20
-40.000000
30
-57.699443
0
VERTEX
8
0
6
CONTINUOUS
62
252
70
192
10
14.137184
20
-40.000000
30
-57.675637
0
VERTEX
8
0
6
CONTINUOUS
62
252
70
192
10
13.760103
20
-40.000000
30
-57.590170
0
VERTEX
8
0
6
CONTINUOUS
62
252
70
192
10
13.401639
20
-40.000000
30
-57.445261
0
VERTEX
8
0
6
CONTINUOUS
62
252
70
192
10
13.071097
20
-40.000000
30
-57.244671
0
VERTEX
8
0
6
CONTINUOUS
62
252
70
192
10
12.777054
20
-40.000000
30
-56.993606
0
VERTEX
8
0
6
CONTINUOUS
62
252
70
192
10
12.527143
20
-40.000000
30
-56.698582
0
VERTEX
8
0
6
CONTINUOUS
62
252
70
192
10
12.327850
20
-40.000000
30
-56.367256
0
VERTEX
8
0
6
CONTINUOUS
62
252
70
192
10
12.184346
20
-40.000000
30
-56.008227
0
VERTEX
8
0
6
CONTINUOUS
62
252
70
192
10
12.100358
20
-40.000000
30
-55.630814
0
VERTEX
8
0
6
CONTINUOUS
62
252
70
192
10
12.078064
20
-40.000000
30
-55.244811
0
VERTEX
8
0
6
CONTINUOUS
62
252
70
192
10
12.118043
20
-40.000000
30
-54.860238
0
VERTEX
8
0
6
CONTINUOUS
62
252
70
192
10
13.179335
20
-40.000000
30
-44.893099
0
VERTEX
8
0
6
CONTINUOUS
62
252
70
192
10
12.676282
20
-40.000000
30
-34.882248
0
VERTEX
8
0
6
CONTINUOUS
62
252
70
192
10
10.621145
20
-40.000000
30
-25.071712
0
VERTEX
8
0
6
CONTINUOUS
62
252
70
192
10
7.064022
20
-40.000000
30
-15.700636
0
VERTEX
8
0
6
CONTINUOUS
62
252
70
192
10
2.091621
20
-40.000000
30
-6.997451
0
VERTEX
8
0
6
CONTINUOUS
62
252
70
192
10
1.922934
20
-40.000000
30
-6.696483
0
VERTEX
8
0
6
CONTINUOUS
62
252
70
192
10
1.808483
20
-40.000000
30
-6.371001
0
VERTEX
8
0
6
CONTINUOUS
62
252
70
192
10
1.751675
20
-40.000000
30
-6.030693
0
VERTEX
8
0
6
CONTINUOUS
62
252
70
192
10
1.754198
20
-40.000000
30
-5.685685
0
VERTEX
8
0
6
CONTINUOUS
62
252
70
192
10
1.815980
20
-40.000000
30
-5.346244
0
VERTEX
8
0
6
CONTINUOUS
62
252
70
192
10
1.935180
20
-40.000000
30
-5.022472
0
VERTEX
8
0
6
CONTINUOUS
62
252
70
192
10
2.108252
20
-40.000000
30
-4.724004
0
VERTEX
8
0
6
CONTINUOUS
62
252
70
128
10
0.000000
20
0.000000
30
0.000000
71
2
72
229
73
1
0
VERTEX
8
0
6
CONTINUOUS
62
252
70
128
10
0.000000
20
0.000000
30
0.000000
71
1
72
229
73
230
0
VERTEX
8
0
6
CONTINUOUS
62
252
70
128
10
0.000000
20
0.000000
30
0.000000
71
1
72
230
73
36
0
VERTEX
8
0
6
CONTINUOUS
62
252
70
128
10
0.000000
20
0.000000
30
0.000000
71
36
72
230
73
231
0
VERTEX
8
0
6
CONTINUOUS
62
252
70
128
10
0.000000
20
0.000000
30
0.000000
71
36
72
231
73
35
0
VERTEX
8
0
6
CONTINUOUS
62
252
70
128
10
0.000000
20
0.000000
30
0.000000
71
35
72
231
73
232
0
VERTEX
8
0
6
CONTINUOUS
62
252
70
128
10
0.000000
20
0.000000
30
0.000000
71
35
72
232
73
34
0
VERTEX
8
0
6
CONTINUOUS
62
252
70
128
10
0.000000
20
0.000000
30
0.000000
71
34
72
232
73
233
0
VERTEX
8
0
6
CONTINUOUS
62
252
70
128
10
0.000000
20
0.000000
30
0.000000
71
34
72
233
73
33
0
VERTEX
8
0
6
CONTINUOUS
62
252
70
128
10
0.000000
20
0.000000
30
0.000000
71
33
72
233
73
234
0
VERTEX
8
0
6
CONTINUOUS
62
252
70
128
10
0.000000
20
0.000000
30
0.000000
71
33
72
234
73
235
0
VERTEX
8
0
6
CONTINUOUS
62
252
70
128
10
0.000000
20
0.000000
30
0.000000
71
3
72
225
73
2
0
VERTEX
8
0
6
CONTINUOUS
62
252
70
128
10
0.000000
20
0.000000
30
0.000000
71
2
72
225
73
226
0
VERTEX
8
0
6
CONTINUOUS
62
252
70
128
10
0.000000
20
0.000000
30
0.000000
71
2
72
226
73
227
0
VERTEX
8
0
6
CONTINUOUS
62
252
70
128
10
0.000000
20
0.000000
30
0.000000
71
4
72
220
73
3
0
VERTEX
8
0
6
CONTINUOUS
62
252
70
128
10
0.000000
20
0.000000
30
0.000000
71
3
72
220
73
221
0
VERTEX
8
0
6
CONTINUOUS
62
252
70
128
10
0.000000
20
0.000000
30
0.000000
71
3
72
221
73
222
0
VERTEX
8
0
6
CONTINUOUS
62
252
70
128
10
0.000000
20
0.000000
30
0.000000
71
5
72
216
73
4
0
VERTEX
8
0
6
CONTINUOUS
62
252
70
128
10
0.000000
20
0.000000
30
0.000000
71
4
72
216
73
218
0
VERTEX
8
0
6
CONTINUOUS
62
252
70
128
10
0.000000
20
0.000000
30
0.000000
71
4
72
218
73
219
0
VERTEX
8
0
6
CONTINUOUS
62
252
70
128
10
0.000000
20
0.000000
30
0.000000
71
5
72
6
73
216
0
VERTEX
8
0
6
CONTINUOUS
62
252
70
128
10
0.000000
20
0.000000
30
0.000000
71
216
72
6
73
7
0
VERTEX
8
0
6
CONTINUOUS
62
252
70
128
10
0.000000
20
0.000000
30
0.000000
71
216
72
7
73
215
0
VERTEX
8
0
6
CONTINUOUS
62
252
70
128
10
0.000000
20
0.000000
30
0.000000
71
215
72
7
73
8
0
VERTEX
8
0
6
CONTINUOUS
62
252
70
128
10
0.000000
20
0.000000
30
0.000000
71
215
72
8
73
9
0
VERTEX
8
0
6
CONTINUOUS
62
252
70
128
10
0.000000
20
0.000000
30
0.000000
71
9
72
10
73
215
0
VERTEX
8
0
6
CONTINUOUS
62
252
70
128
10
0.000000
20
0.000000
30
0.000000
71
215
72
10
73
214
0
VERTEX
8
0
6
CONTINUOUS
62
252
70
128
10
0.000000
20
0.000000
30
0.000000
71
214
72
10
73
11
0
VERTEX
8
0
6
CONTINUOUS
62
252
70
128
10
0.000000
20
0.000000
30
0.000000
71
214
72
11
73
213
0
VERTEX
8
0
6
CONTINUOUS
62
252
70
128
10
0.000000
20
0.000000
30
0.000000
71
213
72
11
73
12
0
VERTEX
8
0
6
CONTINUOUS
62
252
70
128
10
0.000000
20
0.000000
30
0.000000
71
213
72
12
73
212
0
VERTEX
8
0
6
CONTINUOUS
62
252
70
128
10
0.000000
20
0.000000
30
0.000000
71
212
72
12
73
13
0
VERTEX
8
0
6
CONTINUOUS
62
252
70
128
10
0.000000
20
0.000000
30
0.000000
71
212
72
13
73
211
0
VERTEX
8
0
6
CONTINUOUS
62
252
70
128
10
0.000000
20
0.000000
30
0.000000
71
211
72
13
73
14
0
VERTEX
8
0
6
CONTINUOUS
62
252
70
128
10
0.000000
20
0.000000
30
0.000000
71
211
72
14
73
210
0
VERTEX
8
0
6
CONTINUOUS
62
252
70
128
10
0.000000
20
0.000000
30
0.000000
71
210
72
14
73
209
0
VERTEX
8
0
6
CONTINUOUS
62
252
70
128
10
0.000000
20
0.000000
30
0.000000
71
209
72
14
73
69
0
VERTEX
8
0
6
CONTINUOUS
62
252
70
128
10
0.000000
20
0.000000
30
0.000000
71
209
72
69
73
208
0
VERTEX
8
0
6
CONTINUOUS
62
252
70
128
10
0.000000
20
0.000000
30
0.000000
71
208
72
69
73
70
0
VERTEX
8
0
6
CONTINUOUS
62
252
70
128
10
0.000000
20
0.000000
30
0.000000
71
208
72
70
73
207
0
VERTEX
8
0
6
CONTINUOUS
62
252
70
128
10
0.000000
20
0.000000
30
0.000000
71
207
72
70
73
71
0
VERTEX
8
0
6
CONTINUOUS
62
252
70
128
10
0.000000
20
0.000000
30
0.000000
71
207
72
71
73
206
0
VERTEX
8
0
6
CONTINUOUS
62
252
70
128
10
0.000000
20
0.000000
30
0.000000
71
206
72
71
73
72
0
VERTEX
8
0
6
CONTINUOUS
62
252
70
128
10
0.000000
20
0.000000
30
0.000000
71
206
72
72
73
205
0
VERTEX
8
0
6
CONTINUOUS
62
252
70
128
10
0.000000
20
0.000000
30
0.000000
71
205
72
72
73
37
0
VERTEX
8
0
6
CONTINUOUS
62
252
70
128
10
0.000000
20
0.000000
30
0.000000
71
205
72
37
73
204
0
VERTEX
8
0
6
CONTINUOUS
62
252
70
128
10
0.000000
20
0.000000
30
0.000000
71
204
72
37
73
38
0
VERTEX
8
0
6
CONTINUOUS
62
252
70
128
10
0.000000
20
0.000000
30
0.000000
71
204
72
38
73
203
0
VERTEX
8
0
6
CONTINUOUS
62
252
70
128
10
0.000000
20
0.000000
30
0.000000
71
203
72
38
73
39
0
VERTEX
8
0
6
CONTINUOUS
62
252
70
128
10
0.000000
20
0.000000
30
0.000000
71
203
72
39
73
202
0
VERTEX
8
0
6
CONTINUOUS
62
252
70
128
10
0.000000
20
0.000000
30
0.000000
71
202
72
39
73
40
0
VERTEX
8
0
6
CONTINUOUS
62
252
70
128
10
0.000000
20
0.000000
30
0.000000
71
202
72
40
73
201
0
VERTEX
8
0
6
CONTINUOUS
62
252
70
128
10
0.000000
20
0.000000
30
0.000000
71
201
72
40
73
41
0
VERTEX
8
0
6
CONTINUOUS
62
252
70
128
10
0.000000
20
0.000000
30
0.000000
71
201
72
41
73
200
0
VERTEX
8
0
6
CONTINUOUS
62
252
70
128
10
0.000000
20
0.000000
30
0.000000
71
200
72
41
73
42
0
VERTEX
8
0
6
CONTINUOUS
62
252
70
128
10
0.000000
20
0.000000
30
0.000000
71
200
72
42
73
199
0
VERTEX
8
0
6
CONTINUOUS
62
252
70
128
10
0.000000
20
0.000000
30
0.000000
71
199
72
42
73
43
0
VERTEX
8
0
6
CONTINUOUS
62
252
70
128
10
0.000000
20
0.000000
30
0.000000
71
199
72
43
73
198
0
VERTEX
8
0
6
CONTINUOUS
62
252
70
128
10
0.000000
20
0.000000
30
0.000000
71
198
72
43
73
44
0
VERTEX
8
0
6
CONTINUOUS
62
252
70
128
10
0.000000
20
0.000000
30
0.000000
71
198
72
44
73
197
0
VERTEX
8
0
6
CONTINUOUS
62
252
70
128
10
0.000000
20
0.000000
30
0.000000
71
197
72
44
73
45
0
VERTEX
8
0
6
CONTINUOUS
62
252
70
128
10
0.000000
20
0.000000
30
0.000000
71
197
72
45
73
196
0
VERTEX
8
0
6
CONTINUOUS
62
252
70
128
10
0.000000
20
0.000000
30
0.000000
71
196
72
45
73
46
0
VERTEX
8
0
6
CONTINUOUS
62
252
70
128
10
0.000000
20
0.000000
30
0.000000
71
196
72
46
73
195
0
VERTEX
8
0
6
CONTINUOUS
62
252
70
128
10
0.000000
20
0.000000
30
0.000000
71
195
72
46
73
47
0
VERTEX
8
0
6
CONTINUOUS
62
252
70
128
10
0.000000
20
0.000000
30
0.000000
71
195
72
47
73
194
0
VERTEX
8
0
6
CONTINUOUS
62
252
70
128
10
0.000000
20
0.000000
30
0.000000
71
194
72
47
73
48
0
VERTEX
8
0
6
CONTINUOUS
62
252
70
128
10
0.000000
20
0.000000
30
0.000000
71
194
72
48
73
193
0
VERTEX
8
0
6
CONTINUOUS
62
252
70
128
10
0.000000
20
0.000000
30
0.000000
71
193
72
48
73
49
0
VERTEX
8
0
6
CONTINUOUS
62
252
70
128
10
0.000000
20
0.000000
30
0.000000
71
193
72
49
73
192
0
VERTEX
8
0
6
CONTINUOUS
62
252
70
128
10
0.000000
20
0.000000
30
0.000000
71
192
72
49
73
50
0
VERTEX
8
0
6
CONTINUOUS
62
252
70
128
10
0.000000
20
0.000000
30
0.000000
71
192
72
50
73
191
0
VERTEX
8
0
6
CONTINUOUS
62
252
70
128
10
0.000000
20
0.000000
30
0.000000
71
191
72
50
73
51
0
VERTEX
8
0
6
CONTINUOUS
62
252
70
128
10
0.000000
20
0.000000
30
0.000000
71
191
72
51
73
190
0
VERTEX
8
0
6
CONTINUOUS
62
252
70
128
10
0.000000
20
0.000000
30
0.000000
71
190
72
51
73
52
0
VERTEX
8
0
6
CONTINUOUS
62
252
70
128
10
0.000000
20
0.000000
30
0.000000
71
190
72
52
73
189
0
VERTEX
8
0
6
CONTINUOUS
62
252
70
128
10
0.000000
20
0.000000
30
0.000000
71
189
72
52
73
53
0
VERTEX
8
0
6
CONTINUOUS
62
252
70
128
10
0.000000
20
0.000000
30
0.000000
71
189
72
53
73
188
0
VERTEX
8
0
6
CONTINUOUS
62
252
70
128
10
0.000000
20
0.000000
30
0.000000
71
188
72
53
73
54
0
VERTEX
8
0
6
CONTINUOUS
62
252
70
128
10
0.000000
20
0.000000
30
0.000000
71
188
72
54
73
187
0
VERTEX
8
0
6
CONTINUOUS
62
252
70
128
10
0.000000
20
0.000000
30
0.000000
71
187
72
54
73
55
0
VERTEX
8
0
6
CONTINUOUS
62
252
70
128
10
0.000000
20
0.000000
30
0.000000
71
187
72
55
73
186
0
VERTEX
8
0
6
CONTINUOUS
62
252
70
128
10
0.000000
20
0.000000
30
0.000000
71
186
72
55
73
56
0
VERTEX
8
0
6
CONTINUOUS
62
252
70
128
10
0.000000
20
0.000000
30
0.000000
71
186
72
56
73
185
0
VERTEX
8
0
6
CONTINUOUS
62
252
70
128
10
0.000000
20
0.000000
30
0.000000
71
185
72
56
73
57
0
VERTEX
8
0
6
CONTINUOUS
62
252
70
128
10
0.000000
20
0.000000
30
0.000000
71
185
72
57
73
184
0
VERTEX
8
0
6
CONTINUOUS
62
252
70
128
10
0.000000
20
0.000000
30
0.000000
71
184
72
57
73
58
0
VERTEX
8
0
6
CONTINUOUS
62
252
70
128
10
0.000000
20
0.000000
30
0.000000
71
184
72
58
73
183
0
VERTEX
8
0
6
CONTINUOUS
62
252
70
128
10
0.000000
20
0.000000
30
0.000000
71
183
72
58
73
59
0
VERTEX
8
0
6
CONTINUOUS
62
252
70
128
10
0.000000
20
0.000000
30
0.000000
71
183
72
59
73
182
0
VERTEX
8
0
6
CONTINUOUS
62
252
70
128
10
0.000000
20
0.000000
30
0.000000
71
182
72
59
73
60
0
VERTEX
8
0
6
CONTINUOUS
62
252
70
128
10
0.000000
20
0.000000
30
0.000000
71
182
72
60
73
61
0
VERTEX
8
0
6
CONTINUOUS
62
252
70
128
10
0.000000
20
0.000000
30
0.000000
71
69
72
14
73
173
0
VERTEX
8
0
6
CONTINUOUS
62
252
70
128
10
0.000000
20
0.000000
30
0.000000
71
173
72
14
73
15
0
VERTEX
8
0
6
CONTINUOUS
62
252
70
128
10
0.000000
20
0.000000
30
0.000000
71
173
72
15
73
172
0
VERTEX
8
0
6
CONTINUOUS
62
252
70
128
10
0.000000
20
0.000000
30
0.000000
71
172
72
15
73
171
0
VERTEX
8
0
6
CONTINUOUS
62
252
70
128
10
0.000000
20
0.000000
30
0.000000
71
171
72
15
73
170
0
VERTEX
8
0
6
CONTINUOUS
62
252
70
128
10
0.000000
20
0.000000
30
0.000000
71
170
72
15
73
16
0
VERTEX
8
0
6
CONTINUOUS
62
252
70
128
10
0.000000
20
0.000000
30
0.000000
71
170
72
16
73
169
0
VERTEX
8
0
6
CONTINUOUS
62
252
70
128
10
0.000000
20
0.000000
30
0.000000
71
169
72
16
73
168
0
VERTEX
8
0
6
CONTINUOUS
62
252
70
128
10
0.000000
20
0.000000
30
0.000000
71
168
72
16
73
167
0
VERTEX
8
0
6
CONTINUOUS
62
252
70
128
10
0.000000
20
0.000000
30
0.000000
71
167
72
16
73
17
0
VERTEX
8
0
6
CONTINUOUS
62
252
70
128
10
0.000000
20
0.000000
30
0.000000
71
167
72
17
73
166
0
VERTEX
8
0
6
CONTINUOUS
62
252
70
128
10
0.000000
20
0.000000
30
0.000000
71
166
72
17
73
165
0
VERTEX
8
0
6
CONTINUOUS
62
252
70
128
10
0.000000
20
0.000000
30
0.000000
71
165
72
17
73
164
0
VERTEX
8
0
6
CONTINUOUS
62
252
70
128
10
0.000000
20
0.000000
30
0.000000
71
164
72
17
73
163
0
VERTEX
8
0
6
CONTINUOUS
62
252
70
128
10
0.000000
20
0.000000
30
0.000000
71
163
72
17
73
162
0
VERTEX
8
0
6
CONTINUOUS
62
252
70
128
10
0.000000
20
0.000000
30
0.000000
71
162
72
17
73
18
0
VERTEX
8
0
6
CONTINUOUS
62
252
70
128
10
0.000000
20
0.000000
30
0.000000
71
162
72
18
73
161
0
VERTEX
8
0
6
CONTINUOUS
62
252
70
128
10
0.000000
20
0.000000
30
0.000000
71
161
72
18
73
160
0
VERTEX
8
0
6
CONTINUOUS
62
252
70
128
10
0.000000
20
0.000000
30
0.000000
71
160
72
18
73
19
0
VERTEX
8
0
6
CONTINUOUS
62
252
70
128
10
0.000000
20
0.000000
30
0.000000
71
160
72
19
73
159
0
VERTEX
8
0
6
CONTINUOUS
62
252
70
128
10
0.000000
20
0.000000
30
0.000000
71
159
72
19
73
20
0
VERTEX
8
0
6
CONTINUOUS
62
252
70
128
10
0.000000
20
0.000000
30
0.000000
71
159
72
20
73
158
0
VERTEX
8
0
6
CONTINUOUS
62
252
70
128
10
0.000000
20
0.000000
30
0.000000
71
158
72
20
73
157
0
VERTEX
8
0
6
CONTINUOUS
62
252
70
128
10
0.000000
20
0.000000
30
0.000000
71
157
72
20
73
21
0
VERTEX
8
0
6
CONTINUOUS
62
252
70
128
10
0.000000
20
0.000000
30
0.000000
71
157
72
21
73
156
0
VERTEX
8
0
6
CONTINUOUS
62
252
70
128
10
0.000000
20
0.000000
30
0.000000
71
156
72
21
73
22
0
VERTEX
8
0
6
CONTINUOUS
62
252
70
128
10
0.000000
20
0.000000
30
0.000000
71
156
72
22
73
155
0
VERTEX
8
0
6
CONTINUOUS
62
252
70
128
10
0.000000
20
0.000000
30
0.000000
71
155
72
22
73
23
0
VERTEX
8
0
6
CONTINUOUS
62
252
70
128
10
0.000000
20
0.000000
30
0.000000
71
155
72
23
73
154
0
VERTEX
8
0
6
CONTINUOUS
62
252
70
128
10
0.000000
20
0.000000
30
0.000000
71
154
72
23
73
24
0
VERTEX
8
0
6
CONTINUOUS
62
252
70
128
10
0.000000
20
0.000000
30
0.000000
71
154
72
24
73
153
0
VERTEX
8
0
6
CONTINUOUS
62
252
70
128
10
0.000000
20
0.000000
30
0.000000
71
153
72
24
73
25
0
VERTEX
8
0
6
CONTINUOUS
62
252
70
128
10
0.000000
20
0.000000
30
0.000000
71
153
72
25
73
152
0
VERTEX
8
0
6
CONTINUOUS
62
252
70
128
10
0.000000
20
0.000000
30
0.000000
71
152
72
25
73
26
0
VERTEX
8
0
6
CONTINUOUS
62
252
70
128
10
0.000000
20
0.000000
30
0.000000
71
152
72
26
73
151
0
VERTEX
8
0
6
CONTINUOUS
62
252
70
128
10
0.000000
20
0.000000
30
0.000000
71
151
72
26
73
27
0
VERTEX
8
0
6
CONTINUOUS
62
252
70
128
10
0.000000
20
0.000000
30
0.000000
71
151
72
27
73
150
0
VERTEX
8
0
6
CONTINUOUS
62
252
70
128
10
0.000000
20
0.000000
30
0.000000
71
150
72
27
73
28
0
VERTEX
8
0
6
CONTINUOUS
62
252
70
128
10
0.000000
20
0.000000
30
0.000000
71
150
72
28
73
149
0
VERTEX
8
0
6
CONTINUOUS
62
252
70
128
10
0.000000
20
0.000000
30
0.000000
71
149
72
28
73
148
0
VERTEX
8
0
6
CONTINUOUS
62
252
70
128
10
0.000000
20
0.000000
30
0.000000
71
148
72
28
73
29
0
VERTEX
8
0
6
CONTINUOUS
62
252
70
128
10
0.000000
20
0.000000
30
0.000000
71
148
72
29
73
147
0
VERTEX
8
0
6
CONTINUOUS
62
252
70
128
10
0.000000
20
0.000000
30
0.000000
71
147
72
29
73
146
0
VERTEX
8
0
6
CONTINUOUS
62
252
70
128
10
0.000000
20
0.000000
30
0.000000
71
146
72
29
73
145
0
VERTEX
8
0
6
CONTINUOUS
62
252
70
128
10
0.000000
20
0.000000
30
0.000000
71
145
72
29
73
30
0
VERTEX
8
0
6
CONTINUOUS
62
252
70
128
10
0.000000
20
0.000000
30
0.000000
71
145
72
30
73
144
0
VERTEX
8
0
6
CONTINUOUS
62
252
70
128
10
0.000000
20
0.000000
30
0.000000
71
144
72
30
73
143
0
VERTEX
8
0
6
CONTINUOUS
62
252
70
128
10
0.000000
20
0.000000
30
0.000000
71
143
72
30
73
142
0
VERTEX
8
0
6
CONTINUOUS
62
252
70
128
10
0.000000
20
0.000000
30
0.000000
71
142
72
30
73
141
0
VERTEX
8
0
6
CONTINUOUS
62
252
70
128
10
0.000000
20
0.000000
30
0.000000
71
141
72
30
73
31
0
VERTEX
8
0
6
CONTINUOUS
62
252
70
128
10
0.000000
20
0.000000
30
0.000000
71
141
72
31
73
140
0
VERTEX
8
0
6
CONTINUOUS
62
252
70
128
10
0.000000
20
0.000000
30
0.000000
71
140
72
31
73
139
0
VERTEX
8
0
6
CONTINUOUS
62
252
70
128
10
0.000000
20
0.000000
30
0.000000
71
139
72
31
73
32
0
VERTEX
8
0
6
CONTINUOUS
62
252
70
128
10
0.000000
20
0.000000
30
0.000000
71
139
72
32
73
138
0
VERTEX
8
0
6
CONTINUOUS
62
252
70
128
10
0.000000
20
0.000000
30
0.000000
71
138
72
32
73
137
0
VERTEX
8
0
6
CONTINUOUS
62
252
70
128
10
0.000000
20
0.000000
30
0.000000
71
137
72
32
73
136
0
VERTEX
8
0
6
CONTINUOUS
62
252
70
128
10
0.000000
20
0.000000
30
0.000000
71
136
72
32
73
79
0
VERTEX
8
0
6
CONTINUOUS
62
252
70
128
10
0.000000
20
0.000000
30
0.000000
71
136
72
79
73
80
0
VERTEX
8
0
6
CONTINUOUS
62
252
70
128
10
0.000000
20
0.000000
30
0.000000
71
79
72
32
73
78
0
VERTEX
8
0
6
CONTINUOUS
62
252
70
128
10
0.000000
20
0.000000
30
0.000000
71
78
72
32
73
33
0
VERTEX
8
0
6
CONTINUOUS
62
252
70
128
10
0.000000
20
0.000000
30
0.000000
71
78
72
33
73
77
0
VERTEX
8
0
6
CONTINUOUS
62
252
70
128
10
0.000000
20
0.000000
30
0.000000
71
77
72
33
73
236
0
VERTEX
8
0
6
CONTINUOUS
62
252
70
128
10
0.000000
20
0.000000
30
0.000000
71
77
72
236
73
76
0
VERTEX
8
0
6
CONTINUOUS
62
252
70
128
10
0.000000
20
0.000000
30
0.000000
71
76
72
236
73
237
0
VERTEX
8
0
6
CONTINUOUS
62
252
70
128
10
0.000000
20
0.000000
30
0.000000
71
76
72
237
73
75
0
VERTEX
8
0
6
CONTINUOUS
62
252
70
128
10
0.000000
20
0.000000
30
0.000000
71
75
72
237
73
238
0
VERTEX
8
0
6
CONTINUOUS
62
252
70
128
10
0.000000
20
0.000000
30
0.000000
71
75
72
238
73
74
0
VERTEX
8
0
6
CONTINUOUS
62
252
70
128
10
0.000000
20
0.000000
30
0.000000
71
74
72
238
73
239
0
VERTEX
8
0
6
CONTINUOUS
62
252
70
128
10
0.000000
20
0.000000
30
0.000000
71
74
72
239
73
73
0
VERTEX
8
0
6
CONTINUOUS
62
252
70
128
10
0.000000
20
0.000000
30
0.000000
71
73
72
239
73
240
0
VERTEX
8
0
6
CONTINUOUS
62
252
70
128
10
0.000000
20
0.000000
30
0.000000
71
73
72
240
73
108
0
VERTEX
8
0
6
CONTINUOUS
62
252
70
128
10
0.000000
20
0.000000
30
0.000000
71
108
72
240
73
241
0
VERTEX
8
0
6
CONTINUOUS
62
252
70
128
10
0.000000
20
0.000000
30
0.000000
71
108
72
241
73
107
0
VERTEX
8
0
6
CONTINUOUS
62
252
70
128
10
0.000000
20
0.000000
30
0.000000
71
107
72
241
73
109
0
VERTEX
8
0
6
CONTINUOUS
62
252
70
128
10
0.000000
20
0.000000
30
0.000000
71
107
72
109
73
106
0
VERTEX
8
0
6
CONTINUOUS
62
252
70
128
10
0.000000
20
0.000000
30
0.000000
71
106
72
109
73
105
0
VERTEX
8
0
6
CONTINUOUS
62
252
70
128
10
0.000000
20
0.000000
30
0.000000
71
105
72
109
73
110
0
VERTEX
8
0
6
CONTINUOUS
62
252
70
128
10
0.000000
20
0.000000
30
0.000000
71
105
72
110
73
104
0
VERTEX
8
0
6
CONTINUOUS
62
252
70
128
10
0.000000
20
0.000000
30
0.000000
71
104
72
110
73
111
0
VERTEX
8
0
6
CONTINUOUS
62
252
70
128
10
0.000000
20
0.000000
30
0.000000
71
104
72
111
73
103
0
VERTEX
8
0
6
CONTINUOUS
62
252
70
128
10
0.000000
20
0.000000
30
0.000000
71
103
72
111
73
112
0
VERTEX
8
0
6
CONTINUOUS
62
252
70
128
10
0.000000
20
0.000000
30
0.000000
71
103
72
112
73
102
0
VERTEX
8
0
6
CONTINUOUS
62
252
70
128
10
0.000000
20
0.000000
30
0.000000
71
102
72
112
73
113
0
VERTEX
8
0
6
CONTINUOUS
62
252
70
128
10
0.000000
20
0.000000
30
0.000000
71
102
72
113
73
101
0
VERTEX
8
0
6
CONTINUOUS
62
252
70
128
10
0.000000
20
0.000000
30
0.000000
71
101
72
113
73
114
0
VERTEX
8
0
6
CONTINUOUS
62
252
70
128
10
0.000000
20
0.000000
30
0.000000
71
101
72
114
73
100
0
VERTEX
8
0
6
CONTINUOUS
62
252
70
128
10
0.000000
20
0.000000
30
0.000000
71
100
72
114
73
115
0
VERTEX
8
0
6
CONTINUOUS
62
252
70
128
10
0.000000
20
0.000000
30
0.000000
71
100
72
115
73
99
0
VERTEX
8
0
6
CONTINUOUS
62
252
70
128
10
0.000000
20
0.000000
30
0.000000
71
99
72
115
73
116
0
VERTEX
8
0
6
CONTINUOUS
62
252
70
128
10
0.000000
20
0.000000
30
0.000000
71
99
72
116
73
98
0
VERTEX
8
0
6
CONTINUOUS
62
252
70
128
10
0.000000
20
0.000000
30
0.000000
71
98
72
116
73
117
0
VERTEX
8
0
6
CONTINUOUS
62
252
70
128
10
0.000000
20
0.000000
30
0.000000
71
98
72
117
73
97
0
VERTEX
8
0
6
CONTINUOUS
62
252
70
128
10
0.000000
20
0.000000
30
0.000000
71
97
72
117
73
118
0
VERTEX
8
0
6
CONTINUOUS
62
252
70
128
10
0.000000
20
0.000000
30
0.000000
71
97
72
118
73
96
0
VERTEX
8
0
6
CONTINUOUS
62
252
70
128
10
0.000000
20
0.000000
30
0.000000
71
96
72
118
73
119
0
VERTEX
8
0
6
CONTINUOUS
62
252
70
128
10
0.000000
20
0.000000
30
0.000000
71
96
72
119
73
95
0
VERTEX
8
0
6
CONTINUOUS
62
252
70
128
10
0.000000
20
0.000000
30
0.000000
71
95
72
119
73
120
0
VERTEX
8
0
6
CONTINUOUS
62
252
70
128
10
0.000000
20
0.000000
30
0.000000
71
95
72
120
73
94
0
VERTEX
8
0
6
CONTINUOUS
62
252
70
128
10
0.000000
20
0.000000
30
0.000000
71
94
72
120
73
121
0
VERTEX
8
0
6
CONTINUOUS
62
252
70
128
10
0.000000
20
0.000000
30
0.000000
71
94
72
121
73
93
0
VERTEX
8
0
6
CONTINUOUS
62
252
70
128
10
0.000000
20
0.000000
30
0.000000
71
93
72
121
73
122
0
VERTEX
8
0
6
CONTINUOUS
62
252
70
128
10
0.000000
20
0.000000
30
0.000000
71
93
72
122
73
92
0
VERTEX
8
0
6
CONTINUOUS
62
252
70
128
10
0.000000
20
0.000000
30
0.000000
71
92
72
122
73
123
0
VERTEX
8
0
6
CONTINUOUS
62
252
70
128
10
0.000000
20
0.000000
30
0.000000
71
92
72
123
73
91
0
VERTEX
8
0
6
CONTINUOUS
62
252
70
128
10
0.000000
20
0.000000
30
0.000000
71
91
72
123
73
124
0
VERTEX
8
0
6
CONTINUOUS
62
252
70
128
10
0.000000
20
0.000000
30
0.000000
71
91
72
124
73
90
0
VERTEX
8
0
6
CONTINUOUS
62
252
70
128
10
0.000000
20
0.000000
30
0.000000
71
90
72
124
73
125
0
VERTEX
8
0
6
CONTINUOUS
62
252
70
128
10
0.000000
20
0.000000
30
0.000000
71
90
72
125
73
89
0
VERTEX
8
0
6
CONTINUOUS
62
252
70
128
10
0.000000
20
0.000000
30
0.000000
71
89
72
125
73
126
0
VERTEX
8
0
6
CONTINUOUS
62
252
70
128
10
0.000000
20
0.000000
30
0.000000
71
89
72
126
73
88
0
VERTEX
8
0
6
CONTINUOUS
62
252
70
128
10
0.000000
20
0.000000
30
0.000000
71
88
72
126
73
127
0
VERTEX
8
0
6
CONTINUOUS
62
252
70
128
10
0.000000
20
0.000000
30
0.000000
71
88
72
127
73
87
0
VERTEX
8
0
6
CONTINUOUS
62
252
70
128
10
0.000000
20
0.000000
30
0.000000
71
87
72
127
73
128
0
VERTEX
8
0
6
CONTINUOUS
62
252
70
128
10
0.000000
20
0.000000
30
0.000000
71
87
72
128
73
129
0
VERTEX
8
0
6
CONTINUOUS
62
252
70
128
10
0.000000
20
0.000000
30
0.000000
71
182
72
61
73
181
0
VERTEX
8
0
6
CONTINUOUS
62
252
70
128
10
0.000000
20
0.000000
30
0.000000
71
181
72
61
73
62
0
VERTEX
8
0
6
CONTINUOUS
62
252
70
128
10
0.000000
20
0.000000
30
0.000000
71
181
72
62
73
180
0
VERTEX
8
0
6
CONTINUOUS
62
252
70
128
10
0.000000
20
0.000000
30
0.000000
71
180
72
62
73
63
0
VERTEX
8
0
6
CONTINUOUS
62
252
70
128
10
0.000000
20
0.000000
30
0.000000
71
180
72
63
73
179
0
VERTEX
8
0
6
CONTINUOUS
62
252
70
128
10
0.000000
20
0.000000
30
0.000000
71
179
72
63
73
64
0
VERTEX
8
0
6
CONTINUOUS
62
252
70
128
10
0.000000
20
0.000000
30
0.000000
71
179
72
64
73
178
0
VERTEX
8
0
6
CONTINUOUS
62
252
70
128
10
0.000000
20
0.000000
30
0.000000
71
178
72
64
73
65
0
VERTEX
8
0
6
CONTINUOUS
62
252
70
128
10
0.000000
20
0.000000
30
0.000000
71
178
72
65
73
177
0
VERTEX
8
0
6
CONTINUOUS
62
252
70
128
10
0.000000
20
0.000000
30
0.000000
71
177
72
65
73
66
0
VERTEX
8
0
6
CONTINUOUS
62
252
70
128
10
0.000000
20
0.000000
30
0.000000
71
177
72
66
73
176
0
VERTEX
8
0
6
CONTINUOUS
62
252
70
128
10
0.000000
20
0.000000
30
0.000000
71
176
72
66
73
67
0
VERTEX
8
0
6
CONTINUOUS
62
252
70
128
10
0.000000
20
0.000000
30
0.000000
71
176
72
67
73
175
0
VERTEX
8
0
6
CONTINUOUS
62
252
70
128
10
0.000000
20
0.000000
30
0.000000
71
175
72
67
73
68
0
VERTEX
8
0
6
CONTINUOUS
62
252
70
128
10
0.000000
20
0.000000
30
0.000000
71
175
72
68
73
174
0
VERTEX
8
0
6
CONTINUOUS
62
252
70
128
10
0.000000
20
0.000000
30
0.000000
71
174
72
68
73
69
0
VERTEX
8
0
6
CONTINUOUS
62
252
70
128
10
0.000000
20
0.000000
30
0.000000
71
174
72
69
73
173
0
VERTEX
8
0
6
CONTINUOUS
62
252
70
128
10
0.000000
20
0.000000
30
0.000000
71
136
72
80
73
135
0
VERTEX
8
0
6
CONTINUOUS
62
252
70
128
10
0.000000
20
0.000000
30
0.000000
71
135
72
80
73
81
0
VERTEX
8
0
6
CONTINUOUS
62
252
70
128
10
0.000000
20
0.000000
30
0.000000
71
135
72
81
73
134
0
VERTEX
8
0
6
CONTINUOUS
62
252
70
128
10
0.000000
20
0.000000
30
0.000000
71
134
72
81
73
82
0
VERTEX
8
0
6
CONTINUOUS
62
252
70
128
10
0.000000
20
0.000000
30
0.000000
71
134
72
82
73
133
0
VERTEX
8
0
6
CONTINUOUS
62
252
70
128
10
0.000000
20
0.000000
30
0.000000
71
133
72
82
73
83
0
VERTEX
8
0
6
CONTINUOUS
62
252
70
128
10
0.000000
20
0.000000
30
0.000000
71
133
72
83
73
132
0
VERTEX
8
0
6
CONTINUOUS
62
252
70
128
10
0.000000
20
0.000000
30
0.000000
71
132
72
83
73
84
0
VERTEX
8
0
6
CONTINUOUS
62
252
70
128
10
0.000000
20
0.000000
30
0.000000
71
132
72
84
73
131
0
VERTEX
8
0
6
CONTINUOUS
62
252
70
128
10
0.000000
20
0.000000
30
0.000000
71
131
72
84
73
130
0
VERTEX
8
0
6
CONTINUOUS
62
252
70
128
10
0.000000
20
0.000000
30
0.000000
71
130
72
84
73
85
0
VERTEX
8
0
6
CONTINUOUS
62
252
70
128
10
0.000000
20
0.000000
30
0.000000
71
130
72
85
73
129
0
VERTEX
8
0
6
CONTINUOUS
62
252
70
128
10
0.000000
20
0.000000
30
0.000000
71
129
72
85
73
86
0
VERTEX
8
0
6
CONTINUOUS
62
252
70
128
10
0.000000
20
0.000000
30
0.000000
71
129
72
86
73
87
0
VERTEX
8
0
6
CONTINUOUS
62
252
70
128
10
0.000000
20
0.000000
30
0.000000
71
216
72
217
73
218
0
VERTEX
8
0
6
CONTINUOUS
62
252
70
128
10
0.000000
20
0.000000
30
0.000000
71
219
72
220
73
4
0
VERTEX
8
0
6
CONTINUOUS
62
252
70
128
10
0.000000
20
0.000000
30
0.000000
71
222
72
223
73
3
0
VERTEX
8
0
6
CONTINUOUS
62
252
70
128
10
0.000000
20
0.000000
30
0.000000
71
3
72
223
73
224
0
VERTEX
8
0
6
CONTINUOUS
62
252
70
128
10
0.000000
20
0.000000
30
0.000000
71
3
72
224
73
225
0
VERTEX
8
0
6
CONTINUOUS
62
252
70
128
10
0.000000
20
0.000000
30
0.000000
71
227
72
228
73
2
0
VERTEX
8
0
6
CONTINUOUS
62
252
70
128
10
0.000000
20
0.000000
30
0.000000
71
2
72
228
73
229
0
VERTEX
8
0
6
CONTINUOUS
62
252
70
128
10
0.000000
20
0.000000
30
0.000000
71
235
72
236
73
33
0
SEQEND
0
POLYLINE
66
1
8
0
6
CONTINUOUS
62
252
70
64
75
0
10
0.000000
20
0.000000
30
0.000000
0
VERTEX
8
0
6
CONTINUOUS
62
252
70
192
10
-3.250000
20
-25.800000
30
-130.900000
0
VERTEX
8
0
6
CONTINUOUS
62
252
70
192
10
9.250000
20
-25.800000
30
-130.900000
0
VERTEX
8
0
6
CONTINUOUS
62
252
70
192
10
9.250000
20
-18.800000
30
-130.900000
0
VERTEX
8
0
6
CONTINUOUS
62
252
70
192
10
-3.250000
20
-18.800000
30
-130.900000
0
VERTEX
8
0
6
CONTINUOUS
62
252
70
128
10
0.000000
20
0.000000
30
0.000000
71
2
72
3
73
1
0
VERTEX
8
0
6
CONTINUOUS
62
252
70
128
10
0.000000
20
0.000000
30
0.000000
71
1
72
3
73
4
0
SEQEND
0
POLYLINE
66
1
8
0
6
CONTINUOUS
62
252
70
64
75
0
10
0.000000
20
0.000000
30
0.000000
0
VERTEX
8
0
6
CONTINUOUS
62
252
70
192
10
9.250000
20
-25.800000
30
-130.900000
0
VERTEX
8
0
6
CONTINUOUS
62
252
70
192
10
9.250000
20
-25.800000
30
-132.900000
0
VERTEX
8
0
6
CONTINUOUS
62
252
70
192
10
9.250000
20
-18.800000
30
-132.900000
0
VERTEX
8
0
6
CONTINUOUS
62
252
70
192
10
9.250000
20
-18.800000
30
-130.900000
0
VERTEX
8
0
6
CONTINUOUS
62
252
70
128
10
0.000000
20
0.000000
30
0.000000
71
2
72
3
73
1
0
VERTEX
8
0
6
CONTINUOUS
62
252
70
128
10
0.000000
20
0.000000
30
0.000000
71
1
72
3
73
4
0
SEQEND
0
POLYLINE
66
1
8
0
6
CONTINUOUS
62
252
70
64
75
0
10
0.000000
20
0.000000
30
0.000000
0
VERTEX
8
0
6
CONTINUOUS
62
252
70
192
10
9.250000
20
-25.800000
30
-132.900000
0
VERTEX
8
0
6
CONTINUOUS
62
252
70
192
10
-3.250000
20
-25.800000
30
-132.900000
0
VERTEX
8
0
6
CONTINUOUS
62
252
70
192
10
-3.250000
20
-18.800000
30
-132.900000
0
VERTEX
8
0
6
CONTINUOUS
62
252
70
192
10
9.250000
20
-18.800000
30
-132.900000
0
VERTEX
8
0
6
CONTINUOUS
62
252
70
128
10
0.000000
20
0.000000
30
0.000000
71
2
72
3
73
1
0
VERTEX
8
0
6
CONTINUOUS
62
252
70
128
10
0.000000
20
0.000000
30
0.000000
71
1
72
3
73
4
0
SEQEND
0
POLYLINE
66
1
8
0
6
CONTINUOUS
62
252
70
64
75
0
10
0.000000
20
0.000000
30
0.000000
0
VERTEX
8
0
6
CONTINUOUS
62
252
70
192
10
-3.250000
20
-25.800000
30
-132.900000
0
VERTEX
8
0
6
CONTINUOUS
62
252
70
192
10
-3.250000
20
-25.800000
30
-130.900000
0
VERTEX
8
0
6
CONTINUOUS
62
252
70
192
10
-3.250000
20
-18.800000
30
-130.900000
0
VERTEX
8
0
6
CONTINUOUS
62
252
70
192
10
-3.250000
20
-18.800000
30
-132.900000
0
VERTEX
8
0
6
CONTINUOUS
62
252
70
128
10
0.000000
20
0.000000
30
0.000000
71
2
72
3
73
1
0
VERTEX
8
0
6
CONTINUOUS
62
252
70
128
10
0.000000
20
0.000000
30
0.000000
71
1
72
3
73
4
0
SEQEND
0
POLYLINE
66
1
8
0
6
CONTINUOUS
62
252
70
64
75
0
10
0.000000
20
0.000000
30
0.000000
0
VERTEX
8
0
6
CONTINUOUS
62
252
70
192
10
-3.250000
20
-18.800000
30
-132.900000
0
VERTEX
8
0
6
CONTINUOUS
62
252
70
192
10
-3.250000
20
-18.800000
30
-130.900000
0
VERTEX
8
0
6
CONTINUOUS
62
252
70
192
10
9.250000
20
-18.800000
30
-130.900000
0
VERTEX
8
0
6
CONTINUOUS
62
252
70
192
10
9.250000
20
-18.800000
30
-132.900000
0
VERTEX
8
0
6
CONTINUOUS
62
252
70
128
10
0.000000
20
0.000000
30
0.000000
71
2
72
3
73
1
0
VERTEX
8
0
6
CONTINUOUS
62
252
70
128
10
0.000000
20
0.000000
30
0.000000
71
1
72
3
73
4
0
SEQEND
0
POLYLINE
66
1
8
0
6
CONTINUOUS
62
252
70
64
75
0
10
0.000000
20
0.000000
30
0.000000
0
VERTEX
8
0
6
CONTINUOUS
62
252
70
192
10
9.250000
20
-25.800000
30
-130.900000
0
VERTEX
8
0
6
CONTINUOUS
62
252
70
192
10
-3.250000
20
-25.800000
30
-130.900000
0
VERTEX
8
0
6
CONTINUOUS
62
252
70
192
10
-3.250000
20
-25.800000
30
-132.900000
0
VERTEX
8
0
6
CONTINUOUS
62
252
70
192
10
9.250000
20
-25.800000
30
-132.900000
0
VERTEX
8
0
6
CONTINUOUS
62
252
70
128
10
0.000000
20
0.000000
30
0.000000
71
1
72
2
73
4
0
VERTEX
8
0
6
CONTINUOUS
62
252
70
128
10
0.000000
20
0.000000
30
0.000000
71
4
72
2
73
3
0
SEQEND
0
ENDSEC
0
EOF
