0
SECTION
2
HEADER
9
$ACADVER
1
AC1009
9
$INSBASE
10
0.0
20
0.0
30
0.0
9
$EXTMIN
10
0.000000
20
0.000000
30
0.000000
9
$EXTMAX
10
0.000000
20
0.000000
30
0.000000
9
$UCSORG
10
0.0
20
0.0
30
0.0
9
$UCSXDIR
10
1.0
20
0.0
30
0.0
9
$UCSYDIR
10
0.0
20
1.0
30
0.0
9
$CLAYER
8
0
9
$SHADEDGE
70
3
0
ENDSEC
0
SECTION
2
TABLES
0
TABLE
2
LTYPE
70
2
0
LTYPE
2
CONTINUOUS
70
0
3
Solid line
72
65
73
0
40
0.0
0
ENDTAB
0
TABLE
2
LAYER
70
5
0
LAYER
2
0
70
0
62
7
6
CONTINUOUS
0
ENDTAB
0
TABLE
2
APPID
70
1
0
APPID
2
ACAD
70
64
0
ENDTAB
0
ENDSEC
0
SECTION
2
BLOCKS
0
ENDSEC
0
SECTION
2
ENTITIES
0
POLYLINE
66
1
8
0
6
CONTINUOUS
62
252
70
64
75
0
10
0.000000
20
0.000000
30
0.000000
0
VERTEX
8
0
6
CONTINUOUS
62
252
70
192
10
0.700000
20
-9.200000
30
-48.196869
0
VERTEX
8
0
6
CONTINUOUS
62
252
70
192
10
-7.300000
20
-9.200000
30
-48.192712
0
VERTEX
8
0
6
CONTINUOUS
62
252
70
192
10
-7.300000
20
-9.200000
30
-49.000000
0
VERTEX
8
0
6
CONTINUOUS
62
252
70
192
10
0.700000
20
-9.200000
30
-49.000000
0
VERTEX
8
0
6
CONTINUOUS
62
252
70
128
10
0.000000
20
0.000000
30
0.000000
71
2
72
3
73
1
0
VERTEX
8
0
6
CONTINUOUS
62
252
70
128
10
0.000000
20
0.000000
30
0.000000
71
1
72
3
73
4
0
SEQEND
0
POLYLINE
66
1
8
0
6
CONTINUOUS
62
252
70
64
75
0
10
0.000000
20
0.000000
30
0.000000
0
VERTEX
8
0
6
CONTINUOUS
62
252
70
192
10
-7.300000
20
-9.200000
30
-48.192712
0
VERTEX
8
0
6
CONTINUOUS
62
252
70
192
10
-7.300000
20
-6.200000
30
-48.192712
0
VERTEX
8
0
6
CONTINUOUS
62
252
70
192
10
-7.300000
20
-6.200000
30
-49.000000
0
VERTEX
8
0
6
CONTINUOUS
62
252
70
192
10
-7.300000
20
-9.200000
30
-49.000000
0
VERTEX
8
0
6
CONTINUOUS
62
252
70
128
10
0.000000
20
0.000000
30
0.000000
71
1
72
2
73
4
0
VERTEX
8
0
6
CONTINUOUS
62
252
70
128
10
0.000000
20
0.000000
30
0.000000
71
4
72
2
73
3
0
SEQEND
0
POLYLINE
66
1
8
0
6
CONTINUOUS
62
252
70
64
75
0
10
0.000000
20
0.000000
30
0.000000
0
VERTEX
8
0
6
CONTINUOUS
62
252
70
192
10
0.700000
20
-6.200000
30
-48.196869
0
VERTEX
8
0
6
CONTINUOUS
62
252
70
192
10
0.700000
20
-9.200000
30
-48.196869
0
VERTEX
8
0
6
CONTINUOUS
62
252
70
192
10
0.700000
20
-9.200000
30
-49.000000
0
VERTEX
8
0
6
CONTINUOUS
62
252
70
192
10
0.700000
20
-6.200000
30
-49.000000
0
VERTEX
8
0
6
CONTINUOUS
62
252
70
128
10
0.000000
20
0.000000
30
0.000000
71
1
72
2
73
4
0
VERTEX
8
0
6
CONTINUOUS
62
252
70
128
10
0.000000
20
0.000000
30
0.000000
71
4
72
2
73
3
0
SEQEND
0
POLYLINE
66
1
8
0
6
CONTINUOUS
62
252
70
64
75
0
10
0.000000
20
0.000000
30
0.000000
0
VERTEX
8
0
6
CONTINUOUS
62
252
70
192
10
0.700000
20
-9.200000
30
-49.000000
0
VERTEX
8
0
6
CONTINUOUS
62
252
70
192
10
-7.300000
20
-9.200000
30
-49.000000
0
VERTEX
8
0
6
CONTINUOUS
62
252
70
192
10
-7.300000
20
-6.200000
30
-49.000000
0
VERTEX
8
0
6
CONTINUOUS
62
252
70
192
10
0.700000
20
-6.200000
30
-49.000000
0
VERTEX
8
0
6
CONTINUOUS
62
252
70
128
10
0.000000
20
0.000000
30
0.000000
71
2
72
3
73
1
0
VERTEX
8
0
6
CONTINUOUS
62
252
70
128
10
0.000000
20
0.000000
30
0.000000
71
1
72
3
73
4
0
SEQEND
0
POLYLINE
66
1
8
0
6
CONTINUOUS
62
252
70
64
75
0
10
0.000000
20
0.000000
30
0.000000
0
VERTEX
8
0
6
CONTINUOUS
62
252
70
192
10
-7.300000
20
-6.200000
30
-48.192712
0
VERTEX
8
0
6
CONTINUOUS
62
252
70
192
10
0.700000
20
-6.200000
30
-48.196869
0
VERTEX
8
0
6
CONTINUOUS
62
252
70
192
10
0.700000
20
-6.200000
30
-49.000000
0
VERTEX
8
0
6
CONTINUOUS
62
252
70
192
10
-7.300000
20
-6.200000
30
-49.000000
0
VERTEX
8
0
6
CONTINUOUS
62
252
70
128
10
0.000000
20
0.000000
30
0.000000
71
1
72
2
73
4
0
VERTEX
8
0
6
CONTINUOUS
62
252
70
128
10
0.000000
20
0.000000
30
0.000000
71
4
72
2
73
3
0
SEQEND
0
POLYLINE
66
1
8
0
6
CONTINUOUS
62
252
70
64
75
0
10
0.000000
20
0.000000
30
0.000000
0
VERTEX
8
0
6
CONTINUOUS
62
252
70
192
10
4.479033
20
-9.200000
30
-16.053913
0
VERTEX
8
0
6
CONTINUOUS
62
252
70
192
10
4.655664
20
-9.200000
30
-18.698442
0
VERTEX
8
0
6
CONTINUOUS
62
252
70
192
10
4.529537
20
-9.200000
30
-21.345861
0
VERTEX
8
0
6
CONTINUOUS
62
252
70
192
10
4.102299
20
-9.200000
30
-23.961621
0
VERTEX
8
0
6
CONTINUOUS
62
252
70
192
10
4.100947
20
-9.200000
30
-23.990001
0
VERTEX
8
0
6
CONTINUOUS
62
252
70
192
10
4.841753
20
-9.200000
30
-23.999571
0
VERTEX
8
0
6
CONTINUOUS
62
252
70
192
10
5.179431
20
-9.200000
30
-22.018798
0
VERTEX
8
0
6
CONTINUOUS
62
252
70
192
10
5.351449
20
-9.200000
30
-20.016825
0
VERTEX
8
0
6
CONTINUOUS
62
252
70
192
10
5.356620
20
-9.200000
30
-18.007482
0
VERTEX
8
0
6
CONTINUOUS
62
252
70
192
10
5.340748
20
-9.200000
30
-17.338967
0
VERTEX
8
0
6
CONTINUOUS
62
252
70
192
10
5.295319
20
-9.200000
30
-16.671808
0
VERTEX
8
0
6
CONTINUOUS
62
252
70
192
10
5.220420
20
-9.200000
30
-16.007312
0
VERTEX
8
0
6
CONTINUOUS
62
252
70
192
10
4.481625
20
-9.200000
30
-15.999518
0
VERTEX
8
0
6
CONTINUOUS
62
252
70
128
10
0.000000
20
0.000000
30
0.000000
71
13
72
1
73
12
0
VERTEX
8
0
6
CONTINUOUS
62
252
70
128
10
0.000000
20
0.000000
30
0.000000
71
12
72
1
73
2
0
VERTEX
8
0
6
CONTINUOUS
62
252
70
128
10
0.000000
20
0.000000
30
0.000000
71
12
72
2
73
11
0
VERTEX
8
0
6
CONTINUOUS
62
252
70
128
10
0.000000
20
0.000000
30
0.000000
71
11
72
2
73
10
0
VERTEX
8
0
6
CONTINUOUS
62
252
70
128
10
0.000000
20
0.000000
30
0.000000
71
10
72
2
73
9
0
VERTEX
8
0
6
CONTINUOUS
62
252
70
128
10
0.000000
20
0.000000
30
0.000000
71
9
72
2
73
8
0
VERTEX
8
0
6
CONTINUOUS
62
252
70
128
10
0.000000
20
0.000000
30
0.000000
71
8
72
2
73
7
0
VERTEX
8
0
6
CONTINUOUS
62
252
70
128
10
0.000000
20
0.000000
30
0.000000
71
7
72
2
73
3
0
VERTEX
8
0
6
CONTINUOUS
62
252
70
128
10
0.000000
20
0.000000
30
0.000000
71
7
72
3
73
6
0
VERTEX
8
0
6
CONTINUOUS
62
252
70
128
10
0.000000
20
0.000000
30
0.000000
71
6
72
3
73
4
0
VERTEX
8
0
6
CONTINUOUS
62
252
70
128
10
0.000000
20
0.000000
30
0.000000
71
6
72
4
73
5
0
SEQEND
0
POLYLINE
66
1
8
0
6
CONTINUOUS
62
252
70
64
75
0
10
0.000000
20
0.000000
30
0.000000
0
VERTEX
8
0
6
CONTINUOUS
62
252
70
192
10
4.102299
20
-9.200000
30
-23.961621
0
VERTEX
8
0
6
CONTINUOUS
62
252
70
192
10
4.102299
20
-6.200000
30
-23.961621
0
VERTEX
8
0
6
CONTINUOUS
62
252
70
192
10
4.100947
20
-6.200000
30
-23.990001
0
VERTEX
8
0
6
CONTINUOUS
62
252
70
192
10
4.100947
20
-9.200000
30
-23.990001
0
VERTEX
8
0
6
CONTINUOUS
62
252
70
128
10
0.000000
20
0.000000
30
0.000000
71
1
72
2
73
4
0
VERTEX
8
0
6
CONTINUOUS
62
252
70
128
10
0.000000
20
0.000000
30
0.000000
71
4
72
2
73
3
0
SEQEND
0
POLYLINE
66
1
8
0
6
CONTINUOUS
62
252
70
64
75
0
10
0.000000
20
0.000000
30
0.000000
0
VERTEX
8
0
6
CONTINUOUS
62
252
70
192
10
4.479033
20
-6.200000
30
-16.053913
0
VERTEX
8
0
6
CONTINUOUS
62
252
70
192
10
4.479033
20
-9.200000
30
-16.053913
0
VERTEX
8
0
6
CONTINUOUS
62
252
70
192
10
4.481625
20
-9.200000
30
-15.999518
0
VERTEX
8
0
6
CONTINUOUS
62
252
70
192
10
4.481625
20
-6.200000
30
-15.999518
0
VERTEX
8
0
6
CONTINUOUS
62
252
70
128
10
0.000000
20
0.000000
30
0.000000
71
1
72
2
73
4
0
VERTEX
8
0
6
CONTINUOUS
62
252
70
128
10
0.000000
20
0.000000
30
0.000000
71
4
72
2
73
3
0
SEQEND
0
POLYLINE
66
1
8
0
6
CONTINUOUS
62
252
70
64
75
0
10
0.000000
20
0.000000
30
0.000000
0
VERTEX
8
0
6
CONTINUOUS
62
252
70
192
10
4.481625
20
-9.200000
30
-15.999518
0
VERTEX
8
0
6
CONTINUOUS
62
252
70
192
10
5.220420
20
-9.200000
30
-16.007312
0
VERTEX
8
0
6
CONTINUOUS
62
252
70
192
10
5.220420
20
-6.200000
30
-16.007312
0
VERTEX
8
0
6
CONTINUOUS
62
252
70
192
10
4.481625
20
-6.200000
30
-15.999518
0
VERTEX
8
0
6
CONTINUOUS
62
252
70
128
10
0.000000
20
0.000000
30
0.000000
71
2
72
3
73
1
0
VERTEX
8
0
6
CONTINUOUS
62
252
70
128
10
0.000000
20
0.000000
30
0.000000
71
1
72
3
73
4
0
SEQEND
0
POLYLINE
66
1
8
0
6
CONTINUOUS
62
252
70
64
75
0
10
0.000000
20
0.000000
30
0.000000
0
VERTEX
8
0
6
CONTINUOUS
62
252
70
192
10
5.220420
20
-9.200000
30
-16.007312
0
VERTEX
8
0
6
CONTINUOUS
62
252
70
192
10
5.295319
20
-9.200000
30
-16.671808
0
VERTEX
8
0
6
CONTINUOUS
62
252
70
192
10
5.340748
20
-9.200000
30
-17.338967
0
VERTEX
8
0
6
CONTINUOUS
62
252
70
192
10
5.356620
20
-9.200000
30
-18.007482
0
VERTEX
8
0
6
CONTINUOUS
62
252
70
192
10
5.356620
20
-6.200000
30
-18.007482
0
VERTEX
8
0
6
CONTINUOUS
62
252
70
192
10
5.340748
20
-6.200000
30
-17.338967
0
VERTEX
8
0
6
CONTINUOUS
62
252
70
192
10
5.295319
20
-6.200000
30
-16.671808
0
VERTEX
8
0
6
CONTINUOUS
62
252
70
192
10
5.220420
20
-6.200000
30
-16.007312
0
VERTEX
8
0
6
CONTINUOUS
62
252
70
128
10
0.000000
20
0.000000
30
0.000000
71
8
72
1
73
7
0
VERTEX
8
0
6
CONTINUOUS
62
252
70
128
10
0.000000
20
0.000000
30
0.000000
71
7
72
1
73
2
0
VERTEX
8
0
6
CONTINUOUS
62
252
70
128
10
0.000000
20
0.000000
30
0.000000
71
7
72
2
73
6
0
VERTEX
8
0
6
CONTINUOUS
62
252
70
128
10
0.000000
20
0.000000
30
0.000000
71
6
72
2
73
3
0
VERTEX
8
0
6
CONTINUOUS
62
252
70
128
10
0.000000
20
0.000000
30
0.000000
71
6
72
3
73
5
0
VERTEX
8
0
6
CONTINUOUS
62
252
70
128
10
0.000000
20
0.000000
30
0.000000
71
5
72
3
73
4
0
SEQEND
0
POLYLINE
66
1
8
0
6
CONTINUOUS
62
252
70
64
75
0
10
0.000000
20
0.000000
30
0.000000
0
VERTEX
8
0
6
CONTINUOUS
62
252
70
192
10
5.356620
20
-9.200000
30
-18.007482
0
VERTEX
8
0
6
CONTINUOUS
62
252
70
192
10
5.351449
20
-9.200000
30
-20.016825
0
VERTEX
8
0
6
CONTINUOUS
62
252
70
192
10
5.179431
20
-9.200000
30
-22.018798
0
VERTEX
8
0
6
CONTINUOUS
62
252
70
192
10
4.841753
20
-9.200000
30
-23.999571
0
VERTEX
8
0
6
CONTINUOUS
62
252
70
192
10
4.841753
20
-6.200000
30
-23.999571
0
VERTEX
8
0
6
CONTINUOUS
62
252
70
192
10
5.179431
20
-6.200000
30
-22.018798
0
VERTEX
8
0
6
CONTINUOUS
62
252
70
192
10
5.351449
20
-6.200000
30
-20.016825
0
VERTEX
8
0
6
CONTINUOUS
62
252
70
192
10
5.356620
20
-6.200000
30
-18.007482
0
VERTEX
8
0
6
CONTINUOUS
62
252
70
128
10
0.000000
20
0.000000
30
0.000000
71
1
72
2
73
8
0
VERTEX
8
0
6
CONTINUOUS
62
252
70
128
10
0.000000
20
0.000000
30
0.000000
71
8
72
2
73
7
0
VERTEX
8
0
6
CONTINUOUS
62
252
70
128
10
0.000000
20
0.000000
30
0.000000
71
7
72
2
73
6
0
VERTEX
8
0
6
CONTINUOUS
62
252
70
128
10
0.000000
20
0.000000
30
0.000000
71
6
72
2
73
3
0
VERTEX
8
0
6
CONTINUOUS
62
252
70
128
10
0.000000
20
0.000000
30
0.000000
71
6
72
3
73
5
0
VERTEX
8
0
6
CONTINUOUS
62
252
70
128
10
0.000000
20
0.000000
30
0.000000
71
5
72
3
73
4
0
SEQEND
0
POLYLINE
66
1
8
0
6
CONTINUOUS
62
252
70
64
75
0
10
0.000000
20
0.000000
30
0.000000
0
VERTEX
8
0
6
CONTINUOUS
62
252
70
192
10
4.841753
20
-9.200000
30
-23.999571
0
VERTEX
8
0
6
CONTINUOUS
62
252
70
192
10
4.100947
20
-9.200000
30
-23.990001
0
VERTEX
8
0
6
CONTINUOUS
62
252
70
192
10
4.100947
20
-6.200000
30
-23.990001
0
VERTEX
8
0
6
CONTINUOUS
62
252
70
192
10
4.841753
20
-6.200000
30
-23.999571
0
VERTEX
8
0
6
CONTINUOUS
62
252
70
128
10
0.000000
20
0.000000
30
0.000000
71
2
72
3
73
1
0
VERTEX
8
0
6
CONTINUOUS
62
252
70
128
10
0.000000
20
0.000000
30
0.000000
71
1
72
3
73
4
0
SEQEND
0
POLYLINE
66
1
8
0
6
CONTINUOUS
62
252
70
64
75
0
10
0.000000
20
0.000000
30
0.000000
0
VERTEX
8
0
6
CONTINUOUS
62
252
70
192
10
4.102299
20
-6.200000
30
-23.961621
0
VERTEX
8
0
6
CONTINUOUS
62
252
70
192
10
4.529537
20
-6.200000
30
-21.345861
0
VERTEX
8
0
6
CONTINUOUS
62
252
70
192
10
4.655664
20
-6.200000
30
-18.698442
0
VERTEX
8
0
6
CONTINUOUS
62
252
70
192
10
4.479033
20
-6.200000
30
-16.053913
0
VERTEX
8
0
6
CONTINUOUS
62
252
70
192
10
4.481625
20
-6.200000
30
-15.999518
0
VERTEX
8
0
6
CONTINUOUS
62
252
70
192
10
5.220420
20
-6.200000
30
-16.007312
0
VERTEX
8
0
6
CONTINUOUS
62
252
70
192
10
5.295319
20
-6.200000
30
-16.671808
0
VERTEX
8
0
6
CONTINUOUS
62
252
70
192
10
5.340748
20
-6.200000
30
-17.338967
0
VERTEX
8
0
6
CONTINUOUS
62
252
70
192
10
5.356620
20
-6.200000
30
-18.007482
0
VERTEX
8
0
6
CONTINUOUS
62
252
70
192
10
5.351449
20
-6.200000
30
-20.016825
0
VERTEX
8
0
6
CONTINUOUS
62
252
70
192
10
5.179431
20
-6.200000
30
-22.018798
0
VERTEX
8
0
6
CONTINUOUS
62
252
70
192
10
4.841753
20
-6.200000
30
-23.999571
0
VERTEX
8
0
6
CONTINUOUS
62
252
70
192
10
4.100947
20
-6.200000
30
-23.990001
0
VERTEX
8
0
6
CONTINUOUS
62
252
70
128
10
0.000000
20
0.000000
30
0.000000
71
13
72
1
73
12
0
VERTEX
8
0
6
CONTINUOUS
62
252
70
128
10
0.000000
20
0.000000
30
0.000000
71
12
72
1
73
2
0
VERTEX
8
0
6
CONTINUOUS
62
252
70
128
10
0.000000
20
0.000000
30
0.000000
71
12
72
2
73
11
0
VERTEX
8
0
6
CONTINUOUS
62
252
70
128
10
0.000000
20
0.000000
30
0.000000
71
11
72
2
73
3
0
VERTEX
8
0
6
CONTINUOUS
62
252
70
128
10
0.000000
20
0.000000
30
0.000000
71
11
72
3
73
10
0
VERTEX
8
0
6
CONTINUOUS
62
252
70
128
10
0.000000
20
0.000000
30
0.000000
71
10
72
3
73
9
0
VERTEX
8
0
6
CONTINUOUS
62
252
70
128
10
0.000000
20
0.000000
30
0.000000
71
9
72
3
73
8
0
VERTEX
8
0
6
CONTINUOUS
62
252
70
128
10
0.000000
20
0.000000
30
0.000000
71
8
72
3
73
7
0
VERTEX
8
0
6
CONTINUOUS
62
252
70
128
10
0.000000
20
0.000000
30
0.000000
71
7
72
3
73
6
0
VERTEX
8
0
6
CONTINUOUS
62
252
70
128
10
0.000000
20
0.000000
30
0.000000
71
6
72
3
73
4
0
VERTEX
8
0
6
CONTINUOUS
62
252
70
128
10
0.000000
20
0.000000
30
0.000000
71
6
72
4
73
5
0
SEQEND
0
POLYLINE
66
1
8
0
6
CONTINUOUS
62
252
70
64
75
0
10
0.000000
20
0.000000
30
0.000000
0
VERTEX
8
0
6
CONTINUOUS
62
252
70
192
10
-33.793421
20
-6.200000
30
-0.406579
0
VERTEX
8
0
6
CONTINUOUS
62
252
70
192
10
-33.795766
20
-6.200000
30
-0.408271
0
VERTEX
8
0
6
CONTINUOUS
62
252
70
192
10
-33.798110
20
-6.200000
30
-0.409964
0
VERTEX
8
0
6
CONTINUOUS
62
252
70
192
10
-33.800454
20
-6.200000
30
-0.411657
0
VERTEX
8
0
6
CONTINUOUS
62
252
70
192
10
-35.883985
20
-6.200000
30
-2.082303
0
VERTEX
8
0
6
CONTINUOUS
62
252
70
192
10
-37.778856
20
-6.200000
30
-3.964224
0
VERTEX
8
0
6
CONTINUOUS
62
252
70
192
10
-39.463750
20
-6.200000
30
-6.036250
0
VERTEX
8
0
6
CONTINUOUS
62
252
70
192
10
-40.077424
20
-6.200000
30
-5.422576
0
VERTEX
8
0
6
CONTINUOUS
62
252
70
192
10
-38.392487
20
-6.200000
30
-3.353988
0
VERTEX
8
0
6
CONTINUOUS
62
252
70
192
10
-36.505177
20
-6.200000
30
-1.468219
0
VERTEX
8
0
6
CONTINUOUS
62
252
70
192
10
-34.435213
20
-6.200000
30
0.215027
0
VERTEX
8
0
6
CONTINUOUS
62
252
70
128
10
0.000000
20
0.000000
30
0.000000
71
1
72
2
73
11
0
VERTEX
8
0
6
CONTINUOUS
62
252
70
128
10
0.000000
20
0.000000
30
0.000000
71
11
72
2
73
3
0
VERTEX
8
0
6
CONTINUOUS
62
252
70
128
10
0.000000
20
0.000000
30
0.000000
71
11
72
3
73
4
0
VERTEX
8
0
6
CONTINUOUS
62
252
70
128
10
0.000000
20
0.000000
30
0.000000
71
4
72
5
73
11
0
VERTEX
8
0
6
CONTINUOUS
62
252
70
128
10
0.000000
20
0.000000
30
0.000000
71
11
72
5
73
10
0
VERTEX
8
0
6
CONTINUOUS
62
252
70
128
10
0.000000
20
0.000000
30
0.000000
71
10
72
5
73
6
0
VERTEX
8
0
6
CONTINUOUS
62
252
70
128
10
0.000000
20
0.000000
30
0.000000
71
10
72
6
73
9
0
VERTEX
8
0
6
CONTINUOUS
62
252
70
128
10
0.000000
20
0.000000
30
0.000000
71
9
72
6
73
8
0
VERTEX
8
0
6
CONTINUOUS
62
252
70
128
10
0.000000
20
0.000000
30
0.000000
71
8
72
6
73
7
0
SEQEND
0
POLYLINE
66
1
8
0
6
CONTINUOUS
62
252
70
64
75
0
10
0.000000
20
0.000000
30
0.000000
0
VERTEX
8
0
6
CONTINUOUS
62
252
70
192
10
-39.463750
20
-6.200000
30
-6.036250
0
VERTEX
8
0
6
CONTINUOUS
62
252
70
192
10
-39.463750
20
-9.200000
30
-6.036250
0
VERTEX
8
0
6
CONTINUOUS
62
252
70
192
10
-40.077424
20
-9.200000
30
-5.422576
0
VERTEX
8
0
6
CONTINUOUS
62
252
70
192
10
-40.077424
20
-6.200000
30
-5.422576
0
VERTEX
8
0
6
CONTINUOUS
62
252
70
128
10
0.000000
20
0.000000
30
0.000000
71
1
72
2
73
4
0
VERTEX
8
0
6
CONTINUOUS
62
252
70
128
10
0.000000
20
0.000000
30
0.000000
71
4
72
2
73
3
0
SEQEND
0
POLYLINE
66
1
8
0
6
CONTINUOUS
62
252
70
64
75
0
10
0.000000
20
0.000000
30
0.000000
0
VERTEX
8
0
6
CONTINUOUS
62
252
70
192
10
-40.077424
20
-9.200000
30
-5.422576
0
VERTEX
8
0
6
CONTINUOUS
62
252
70
192
10
-38.392487
20
-9.200000
30
-3.353988
0
VERTEX
8
0
6
CONTINUOUS
62
252
70
192
10
-36.505177
20
-9.200000
30
-1.468219
0
VERTEX
8
0
6
CONTINUOUS
62
252
70
192
10
-34.435213
20
-9.200000
30
0.215027
0
VERTEX
8
0
6
CONTINUOUS
62
252
70
192
10
-34.435213
20
-6.200000
30
0.215027
0
VERTEX
8
0
6
CONTINUOUS
62
252
70
192
10
-36.505177
20
-6.200000
30
-1.468219
0
VERTEX
8
0
6
CONTINUOUS
62
252
70
192
10
-38.392487
20
-6.200000
30
-3.353988
0
VERTEX
8
0
6
CONTINUOUS
62
252
70
192
10
-40.077424
20
-6.200000
30
-5.422576
0
VERTEX
8
0
6
CONTINUOUS
62
252
70
128
10
0.000000
20
0.000000
30
0.000000
71
8
72
1
73
7
0
VERTEX
8
0
6
CONTINUOUS
62
252
70
128
10
0.000000
20
0.000000
30
0.000000
71
7
72
1
73
2
0
VERTEX
8
0
6
CONTINUOUS
62
252
70
128
10
0.000000
20
0.000000
30
0.000000
71
7
72
2
73
3
0
VERTEX
8
0
6
CONTINUOUS
62
252
70
128
10
0.000000
20
0.000000
30
0.000000
71
4
72
5
73
3
0
VERTEX
8
0
6
CONTINUOUS
62
252
70
128
10
0.000000
20
0.000000
30
0.000000
71
3
72
5
73
6
0
VERTEX
8
0
6
CONTINUOUS
62
252
70
128
10
0.000000
20
0.000000
30
0.000000
71
3
72
6
73
7
0
SEQEND
0
POLYLINE
66
1
8
0
6
CONTINUOUS
62
252
70
64
75
0
10
0.000000
20
0.000000
30
0.000000
0
VERTEX
8
0
6
CONTINUOUS
62
252
70
192
10
-34.435213
20
-9.200000
30
0.215027
0
VERTEX
8
0
6
CONTINUOUS
62
252
70
192
10
-33.793421
20
-9.200000
30
-0.406579
0
VERTEX
8
0
6
CONTINUOUS
62
252
70
192
10
-33.793421
20
-6.200000
30
-0.406579
0
VERTEX
8
0
6
CONTINUOUS
62
252
70
192
10
-34.435213
20
-6.200000
30
0.215027
0
VERTEX
8
0
6
CONTINUOUS
62
252
70
128
10
0.000000
20
0.000000
30
0.000000
71
2
72
3
73
1
0
VERTEX
8
0
6
CONTINUOUS
62
252
70
128
10
0.000000
20
0.000000
30
0.000000
71
1
72
3
73
4
0
SEQEND
0
POLYLINE
66
1
8
0
6
CONTINUOUS
62
252
70
64
75
0
10
0.000000
20
0.000000
30
0.000000
0
VERTEX
8
0
6
CONTINUOUS
62
252
70
192
10
-33.800454
20
-9.200000
30
-0.411657
0
VERTEX
8
0
6
CONTINUOUS
62
252
70
192
10
-33.798110
20
-9.200000
30
-0.409964
0
VERTEX
8
0
6
CONTINUOUS
62
252
70
192
10
-33.795766
20
-9.200000
30
-0.408271
0
VERTEX
8
0
6
CONTINUOUS
62
252
70
192
10
-33.793421
20
-9.200000
30
-0.406579
0
VERTEX
8
0
6
CONTINUOUS
62
252
70
192
10
-34.435213
20
-9.200000
30
0.215027
0
VERTEX
8
0
6
CONTINUOUS
62
252
70
192
10
-36.505177
20
-9.200000
30
-1.468219
0
VERTEX
8
0
6
CONTINUOUS
62
252
70
192
10
-38.392487
20
-9.200000
30
-3.353988
0
VERTEX
8
0
6
CONTINUOUS
62
252
70
192
10
-40.077424
20
-9.200000
30
-5.422576
0
VERTEX
8
0
6
CONTINUOUS
62
252
70
192
10
-39.463750
20
-9.200000
30
-6.036250
0
VERTEX
8
0
6
CONTINUOUS
62
252
70
192
10
-37.778856
20
-9.200000
30
-3.964224
0
VERTEX
8
0
6
CONTINUOUS
62
252
70
192
10
-35.883985
20
-9.200000
30
-2.082303
0
VERTEX
8
0
6
CONTINUOUS
62
252
70
128
10
0.000000
20
0.000000
30
0.000000
71
11
72
1
73
5
0
VERTEX
8
0
6
CONTINUOUS
62
252
70
128
10
0.000000
20
0.000000
30
0.000000
71
5
72
1
73
2
0
VERTEX
8
0
6
CONTINUOUS
62
252
70
128
10
0.000000
20
0.000000
30
0.000000
71
5
72
2
73
3
0
VERTEX
8
0
6
CONTINUOUS
62
252
70
128
10
0.000000
20
0.000000
30
0.000000
71
3
72
4
73
5
0
VERTEX
8
0
6
CONTINUOUS
62
252
70
128
10
0.000000
20
0.000000
30
0.000000
71
5
72
6
73
11
0
VERTEX
8
0
6
CONTINUOUS
62
252
70
128
10
0.000000
20
0.000000
30
0.000000
71
11
72
6
73
10
0
VERTEX
8
0
6
CONTINUOUS
62
252
70
128
10
0.000000
20
0.000000
30
0.000000
71
10
72
6
73
7
0
VERTEX
8
0
6
CONTINUOUS
62
252
70
128
10
0.000000
20
0.000000
30
0.000000
71
10
72
7
73
8
0
VERTEX
8
0
6
CONTINUOUS
62
252
70
128
10
0.000000
20
0.000000
30
0.000000
71
8
72
9
73
10
0
SEQEND
0
POLYLINE
66
1
8
0
6
CONTINUOUS
62
252
70
64
75
0
10
0.000000
20
0.000000
30
0.000000
0
VERTEX
8
0
6
CONTINUOUS
62
252
70
192
10
-33.800454
20
-6.200000
30
-0.411657
0
VERTEX
8
0
6
CONTINUOUS
62
252
70
192
10
-33.798110
20
-6.200000
30
-0.409964
0
VERTEX
8
0
6
CONTINUOUS
62
252
70
192
10
-33.795766
20
-6.200000
30
-0.408271
0
VERTEX
8
0
6
CONTINUOUS
62
252
70
192
10
-33.793421
20
-6.200000
30
-0.406579
0
VERTEX
8
0
6
CONTINUOUS
62
252
70
192
10
-33.793421
20
-9.200000
30
-0.406579
0
VERTEX
8
0
6
CONTINUOUS
62
252
70
192
10
-33.795766
20
-9.200000
30
-0.408271
0
VERTEX
8
0
6
CONTINUOUS
62
252
70
192
10
-33.798110
20
-9.200000
30
-0.409964
0
VERTEX
8
0
6
CONTINUOUS
62
252
70
192
10
-33.800454
20
-9.200000
30
-0.411657
0
VERTEX
8
0
6
CONTINUOUS
62
252
70
192
10
-33.800454
20
-15.000000
30
-0.411657
0
VERTEX
8
0
6
CONTINUOUS
62
252
70
192
10
-30.208201
20
-15.000000
30
1.753959
0
VERTEX
8
0
6
CONTINUOUS
62
252
70
192
10
-26.307258
20
-15.000000
30
3.295653
0
VERTEX
8
0
6
CONTINUOUS
62
252
70
192
10
-22.205063
20
-15.000000
30
4.170963
0
VERTEX
8
0
6
CONTINUOUS
62
252
70
192
10
-18.014596
20
-15.000000
30
4.355784
0
VERTEX
8
0
6
CONTINUOUS
62
252
70
192
10
-18.014596
20
-1.100233
30
4.355784
0
VERTEX
8
0
6
CONTINUOUS
62
252
70
192
10
-18.053552
20
-1.068279
30
4.357273
0
VERTEX
8
0
6
CONTINUOUS
62
252
70
192
10
-18.088603
20
-1.032577
30
4.358562
0
VERTEX
8
0
6
CONTINUOUS
62
252
70
192
10
-18.120353
20
-0.992157
30
4.359687
0
VERTEX
8
0
6
CONTINUOUS
62
252
70
192
10
-18.147712
20
-0.947780
30
4.360626
0
VERTEX
8
0
6
CONTINUOUS
62
252
70
192
10
-18.169562
20
-0.900256
30
4.361354
0
VERTEX
8
0
6
CONTINUOUS
62
252
70
192
10
-18.185235
20
-0.850597
30
4.361866
0
VERTEX
8
0
6
CONTINUOUS
62
252
70
192
10
-18.194662
20
-0.800080
30
4.362168
0
VERTEX
8
0
6
CONTINUOUS
62
252
70
192
10
-18.197811
20
-0.750000
30
4.362267
0
VERTEX
8
0
6
CONTINUOUS
62
252
70
192
10
-18.194662
20
-0.699920
30
4.362168
0
VERTEX
8
0
6
CONTINUOUS
62
252
70
192
10
-18.185235
20
-0.649403
30
4.361866
0
VERTEX
8
0
6
CONTINUOUS
62
252
70
192
10
-18.169562
20
-0.599744
30
4.361354
0
VERTEX
8
0
6
CONTINUOUS
62
252
70
192
10
-18.147712
20
-0.552220
30
4.360626
0
VERTEX
8
0
6
CONTINUOUS
62
252
70
192
10
-18.120353
20
-0.507843
30
4.359687
0
VERTEX
8
0
6
CONTINUOUS
62
252
70
192
10
-18.088603
20
-0.467423
30
4.358562
0
VERTEX
8
0
6
CONTINUOUS
62
252
70
192
10
-18.053552
20
-0.431721
30
4.357273
0
VERTEX
8
0
6
CONTINUOUS
62
252
70
192
10
-18.014596
20
-0.399767
30
4.355784
0
VERTEX
8
0
6
CONTINUOUS
62
252
70
192
10
-18.014596
20
0.000000
30
4.355784
0
VERTEX
8
0
6
CONTINUOUS
62
252
70
192
10
-22.205063
20
0.000000
30
4.170963
0
VERTEX
8
0
6
CONTINUOUS
62
252
70
192
10
-26.307258
20
0.000000
30
3.295653
0
VERTEX
8
0
6
CONTINUOUS
62
252
70
192
10
-30.208201
20
0.000000
30
1.753959
0
VERTEX
8
0
6
CONTINUOUS
62
252
70
192
10
-33.800454
20
-0.000000
30
-0.411657
0
VERTEX
8
0
6
CONTINUOUS
62
252
70
192
10
-19.401666
20
-0.750000
30
4.371808
0
VERTEX
8
0
6
CONTINUOUS
62
252
70
192
10
-19.399206
20
-0.705355
30
4.371848
0
VERTEX
8
0
6
CONTINUOUS
62
252
70
192
10
-19.391832
20
-0.660212
30
4.371964
0
VERTEX
8
0
6
CONTINUOUS
62
252
70
192
10
-19.379550
20
-0.615490
30
4.372151
0
VERTEX
8
0
6
CONTINUOUS
62
252
70
192
10
-19.362368
20
-0.572106
30
4.372402
0
VERTEX
8
0
6
CONTINUOUS
62
252
70
192
10
-19.340500
20
-0.530885
30
4.372706
0
VERTEX
8
0
6
CONTINUOUS
62
252
70
192
10
-19.314652
20
-0.492440
30
4.373040
0
VERTEX
8
0
6
CONTINUOUS
62
252
70
192
10
-19.285597
20
-0.457351
30
4.373386
0
VERTEX
8
0
6
CONTINUOUS
62
252
70
192
10
-19.253983
20
-0.426078
30
4.373724
0
VERTEX
8
0
6
CONTINUOUS
62
252
70
192
10
-19.218982
20
-0.397664
30
4.374050
0
VERTEX
8
0
6
CONTINUOUS
62
252
70
192
10
-19.180710
20
-0.372149
30
4.374352
0
VERTEX
8
0
6
CONTINUOUS
62
252
70
192
10
-19.139725
20
-0.350015
30
4.374613
0
VERTEX
8
0
6
CONTINUOUS
62
252
70
192
10
-19.096583
20
-0.331743
30
4.374815
0
VERTEX
8
0
6
CONTINUOUS
62
252
70
192
10
-19.051906
20
-0.317655
30
4.374944
0
VERTEX
8
0
6
CONTINUOUS
62
252
70
192
10
-19.006449
20
-0.307721
30
4.374995
0
VERTEX
8
0
6
CONTINUOUS
62
252
70
192
10
-18.916297
20
-0.300002
30
4.374861
0
VERTEX
8
0
6
CONTINUOUS
62
252
70
192
10
-18.826073
20
-0.308151
30
4.374397
0
VERTEX
8
0
6
CONTINUOUS
62
252
70
192
10
-18.780632
20
-0.318266
30
4.374045
0
VERTEX
8
0
6
CONTINUOUS
62
252
70
192
10
-18.735982
20
-0.332495
30
4.373621
0
VERTEX
8
0
6
CONTINUOUS
62
252
70
192
10
-18.692861
20
-0.350848
30
4.373133
0
VERTEX
8
0
6
CONTINUOUS
62
252
70
192
10
-18.651874
20
-0.372996
30
4.372601
0
VERTEX
8
0
6
CONTINUOUS
62
252
70
192
10
-18.613574
20
-0.398468
30
4.372044
0
VERTEX
8
0
6
CONTINUOUS
62
252
70
192
10
-18.578509
20
-0.426795
30
4.371485
0
VERTEX
8
0
6
CONTINUOUS
62
252
70
192
10
-18.546780
20
-0.457958
30
4.370936
0
VERTEX
8
0
6
CONTINUOUS
62
252
70
192
10
-18.517559
20
-0.492925
30
4.370394
0
VERTEX
8
0
6
CONTINUOUS
62
252
70
192
10
-18.491517
20
-0.531246
30
4.369884
0
VERTEX
8
0
6
CONTINUOUS
62
252
70
192
10
-18.469450
20
-0.572348
30
4.369431
0
VERTEX
8
0
6
CONTINUOUS
62
252
70
192
10
-18.452081
20
-0.615632
30
4.369061
0
VERTEX
8
0
6
CONTINUOUS
62
252
70
192
10
-18.439647
20
-0.660277
30
4.368789
0
VERTEX
8
0
6
CONTINUOUS
62
252
70
192
10
-18.432171
20
-0.705372
30
4.368622
0
VERTEX
8
0
6
CONTINUOUS
62
252
70
192
10
-18.429674
20
-0.750000
30
4.368565
0
VERTEX
8
0
6
CONTINUOUS
62
252
70
192
10
-18.432171
20
-0.794628
30
4.368622
0
VERTEX
8
0
6
CONTINUOUS
62
252
70
192
10
-18.439647
20
-0.839723
30
4.368789
0
VERTEX
8
0
6
CONTINUOUS
62
252
70
192
10
-18.452081
20
-0.884368
30
4.369061
0
VERTEX
8
0
6
CONTINUOUS
62
252
70
192
10
-18.469450
20
-0.927652
30
4.369431
0
VERTEX
8
0
6
CONTINUOUS
62
252
70
192
10
-18.491517
20
-0.968754
30
4.369884
0
VERTEX
8
0
6
CONTINUOUS
62
252
70
192
10
-18.517559
20
-1.007075
30
4.370394
0
VERTEX
8
0
6
CONTINUOUS
62
252
70
192
10
-18.546780
20
-1.042042
30
4.370936
0
VERTEX
8
0
6
CONTINUOUS
62
252
70
192
10
-18.578509
20
-1.073205
30
4.371485
0
VERTEX
8
0
6
CONTINUOUS
62
252
70
192
10
-18.613574
20
-1.101532
30
4.372044
0
VERTEX
8
0
6
CONTINUOUS
62
252
70
192
10
-18.651874
20
-1.127004
30
4.372601
0
VERTEX
8
0
6
CONTINUOUS
62
252
70
192
10
-18.692861
20
-1.149152
30
4.373133
0
VERTEX
8
0
6
CONTINUOUS
62
252
70
192
10
-18.735982
20
-1.167505
30
4.373621
0
VERTEX
8
0
6
CONTINUOUS
62
252
70
192
10
-18.780632
20
-1.181734
30
4.374045
0
VERTEX
8
0
6
CONTINUOUS
62
252
70
192
10
-18.826073
20
-1.191849
30
4.374397
0
VERTEX
8
0
6
CONTINUOUS
62
252
70
192
10
-18.916297
20
-1.199998
30
4.374861
0
VERTEX
8
0
6
CONTINUOUS
62
252
70
192
10
-19.006449
20
-1.192279
30
4.374995
0
VERTEX
8
0
6
CONTINUOUS
62
252
70
192
10
-19.051906
20
-1.182345
30
4.374944
0
VERTEX
8
0
6
CONTINUOUS
62
252
70
192
10
-19.096583
20
-1.168257
30
4.374815
0
VERTEX
8
0
6
CONTINUOUS
62
252
70
192
10
-19.139725
20
-1.149985
30
4.374613
0
VERTEX
8
0
6
CONTINUOUS
62
252
70
192
10
-19.180710
20
-1.127851
30
4.374352
0
VERTEX
8
0
6
CONTINUOUS
62
252
70
192
10
-19.218982
20
-1.102336
30
4.374050
0
VERTEX
8
0
6
CONTINUOUS
62
252
70
192
10
-19.253983
20
-1.073922
30
4.373724
0
VERTEX
8
0
6
CONTINUOUS
62
252
70
192
10
-19.285597
20
-1.042649
30
4.373386
0
VERTEX
8
0
6
CONTINUOUS
62
252
70
192
10
-19.314652
20
-1.007560
30
4.373040
0
VERTEX
8
0
6
CONTINUOUS
62
252
70
192
10
-19.340500
20
-0.969115
30
4.372706
0
VERTEX
8
0
6
CONTINUOUS
62
252
70
192
10
-19.362368
20
-0.927894
30
4.372402
0
VERTEX
8
0
6
CONTINUOUS
62
252
70
192
10
-19.379550
20
-0.884510
30
4.372151
0
VERTEX
8
0
6
CONTINUOUS
62
252
70
192
10
-19.391832
20
-0.839788
30
4.371964
0
VERTEX
8
0
6
CONTINUOUS
62
252
70
192
10
-19.399206
20
-0.794645
30
4.371848
0
VERTEX
8
0
6
CONTINUOUS
62
252
70
128
10
0.000000
20
0.000000
30
0.000000
71
1
72
2
73
35
0
VERTEX
8
0
6
CONTINUOUS
62
252
70
128
10
0.000000
20
0.000000
30
0.000000
71
35
72
2
73
3
0
VERTEX
8
0
6
CONTINUOUS
62
252
70
128
10
0.000000
20
0.000000
30
0.000000
71
35
72
3
73
4
0
VERTEX
8
0
6
CONTINUOUS
62
252
70
128
10
0.000000
20
0.000000
30
0.000000
71
5
72
10
73
4
0
VERTEX
8
0
6
CONTINUOUS
62
252
70
128
10
0.000000
20
0.000000
30
0.000000
71
4
72
10
73
34
0
VERTEX
8
0
6
CONTINUOUS
62
252
70
128
10
0.000000
20
0.000000
30
0.000000
71
4
72
34
73
35
0
VERTEX
8
0
6
CONTINUOUS
62
252
70
128
10
0.000000
20
0.000000
30
0.000000
71
10
72
5
73
9
0
VERTEX
8
0
6
CONTINUOUS
62
252
70
128
10
0.000000
20
0.000000
30
0.000000
71
9
72
5
73
6
0
VERTEX
8
0
6
CONTINUOUS
62
252
70
128
10
0.000000
20
0.000000
30
0.000000
71
9
72
6
73
7
0
VERTEX
8
0
6
CONTINUOUS
62
252
70
128
10
0.000000
20
0.000000
30
0.000000
71
7
72
8
73
9
0
VERTEX
8
0
6
CONTINUOUS
62
252
70
128
10
0.000000
20
0.000000
30
0.000000
71
10
72
11
73
34
0
VERTEX
8
0
6
CONTINUOUS
62
252
70
128
10
0.000000
20
0.000000
30
0.000000
71
34
72
11
73
33
0
VERTEX
8
0
6
CONTINUOUS
62
252
70
128
10
0.000000
20
0.000000
30
0.000000
71
33
72
11
73
12
0
VERTEX
8
0
6
CONTINUOUS
62
252
70
128
10
0.000000
20
0.000000
30
0.000000
71
33
72
12
73
32
0
VERTEX
8
0
6
CONTINUOUS
62
252
70
128
10
0.000000
20
0.000000
30
0.000000
71
32
72
12
73
95
0
VERTEX
8
0
6
CONTINUOUS
62
252
70
128
10
0.000000
20
0.000000
30
0.000000
71
32
72
95
73
36
0
VERTEX
8
0
6
CONTINUOUS
62
252
70
128
10
0.000000
20
0.000000
30
0.000000
71
13
72
92
73
12
0
VERTEX
8
0
6
CONTINUOUS
62
252
70
128
10
0.000000
20
0.000000
30
0.000000
71
12
72
92
73
93
0
VERTEX
8
0
6
CONTINUOUS
62
252
70
128
10
0.000000
20
0.000000
30
0.000000
71
12
72
93
73
94
0
VERTEX
8
0
6
CONTINUOUS
62
252
70
128
10
0.000000
20
0.000000
30
0.000000
71
14
72
15
73
13
0
VERTEX
8
0
6
CONTINUOUS
62
252
70
128
10
0.000000
20
0.000000
30
0.000000
71
13
72
15
73
16
0
VERTEX
8
0
6
CONTINUOUS
62
252
70
128
10
0.000000
20
0.000000
30
0.000000
71
13
72
16
73
73
0
VERTEX
8
0
6
CONTINUOUS
62
252
70
128
10
0.000000
20
0.000000
30
0.000000
71
73
72
16
73
72
0
VERTEX
8
0
6
CONTINUOUS
62
252
70
128
10
0.000000
20
0.000000
30
0.000000
71
72
72
16
73
17
0
VERTEX
8
0
6
CONTINUOUS
62
252
70
128
10
0.000000
20
0.000000
30
0.000000
71
72
72
17
73
71
0
VERTEX
8
0
6
CONTINUOUS
62
252
70
128
10
0.000000
20
0.000000
30
0.000000
71
71
72
17
73
18
0
VERTEX
8
0
6
CONTINUOUS
62
252
70
128
10
0.000000
20
0.000000
30
0.000000
71
71
72
18
73
70
0
VERTEX
8
0
6
CONTINUOUS
62
252
70
128
10
0.000000
20
0.000000
30
0.000000
71
70
72
18
73
19
0
VERTEX
8
0
6
CONTINUOUS
62
252
70
128
10
0.000000
20
0.000000
30
0.000000
71
70
72
19
73
69
0
VERTEX
8
0
6
CONTINUOUS
62
252
70
128
10
0.000000
20
0.000000
30
0.000000
71
69
72
19
73
20
0
VERTEX
8
0
6
CONTINUOUS
62
252
70
128
10
0.000000
20
0.000000
30
0.000000
71
69
72
20
73
68
0
VERTEX
8
0
6
CONTINUOUS
62
252
70
128
10
0.000000
20
0.000000
30
0.000000
71
68
72
20
73
21
0
VERTEX
8
0
6
CONTINUOUS
62
252
70
128
10
0.000000
20
0.000000
30
0.000000
71
68
72
21
73
67
0
VERTEX
8
0
6
CONTINUOUS
62
252
70
128
10
0.000000
20
0.000000
30
0.000000
71
67
72
21
73
22
0
VERTEX
8
0
6
CONTINUOUS
62
252
70
128
10
0.000000
20
0.000000
30
0.000000
71
67
72
22
73
66
0
VERTEX
8
0
6
CONTINUOUS
62
252
70
128
10
0.000000
20
0.000000
30
0.000000
71
66
72
22
73
65
0
VERTEX
8
0
6
CONTINUOUS
62
252
70
128
10
0.000000
20
0.000000
30
0.000000
71
65
72
22
73
23
0
VERTEX
8
0
6
CONTINUOUS
62
252
70
128
10
0.000000
20
0.000000
30
0.000000
71
65
72
23
73
64
0
VERTEX
8
0
6
CONTINUOUS
62
252
70
128
10
0.000000
20
0.000000
30
0.000000
71
64
72
23
73
24
0
VERTEX
8
0
6
CONTINUOUS
62
252
70
128
10
0.000000
20
0.000000
30
0.000000
71
64
72
24
73
63
0
VERTEX
8
0
6
CONTINUOUS
62
252
70
128
10
0.000000
20
0.000000
30
0.000000
71
63
72
24
73
25
0
VERTEX
8
0
6
CONTINUOUS
62
252
70
128
10
0.000000
20
0.000000
30
0.000000
71
63
72
25
73
62
0
VERTEX
8
0
6
CONTINUOUS
62
252
70
128
10
0.000000
20
0.000000
30
0.000000
71
62
72
25
73
31
0
VERTEX
8
0
6
CONTINUOUS
62
252
70
128
10
0.000000
20
0.000000
30
0.000000
71
62
72
31
73
61
0
VERTEX
8
0
6
CONTINUOUS
62
252
70
128
10
0.000000
20
0.000000
30
0.000000
71
61
72
31
73
60
0
VERTEX
8
0
6
CONTINUOUS
62
252
70
128
10
0.000000
20
0.000000
30
0.000000
71
60
72
31
73
59
0
VERTEX
8
0
6
CONTINUOUS
62
252
70
128
10
0.000000
20
0.000000
30
0.000000
71
59
72
31
73
58
0
VERTEX
8
0
6
CONTINUOUS
62
252
70
128
10
0.000000
20
0.000000
30
0.000000
71
58
72
31
73
57
0
VERTEX
8
0
6
CONTINUOUS
62
252
70
128
10
0.000000
20
0.000000
30
0.000000
71
57
72
31
73
56
0
VERTEX
8
0
6
CONTINUOUS
62
252
70
128
10
0.000000
20
0.000000
30
0.000000
71
56
72
31
73
55
0
VERTEX
8
0
6
CONTINUOUS
62
252
70
128
10
0.000000
20
0.000000
30
0.000000
71
55
72
31
73
54
0
VERTEX
8
0
6
CONTINUOUS
62
252
70
128
10
0.000000
20
0.000000
30
0.000000
71
54
72
31
73
53
0
VERTEX
8
0
6
CONTINUOUS
62
252
70
128
10
0.000000
20
0.000000
30
0.000000
71
53
72
31
73
52
0
VERTEX
8
0
6
CONTINUOUS
62
252
70
128
10
0.000000
20
0.000000
30
0.000000
71
52
72
31
73
51
0
VERTEX
8
0
6
CONTINUOUS
62
252
70
128
10
0.000000
20
0.000000
30
0.000000
71
51
72
31
73
50
0
VERTEX
8
0
6
CONTINUOUS
62
252
70
128
10
0.000000
20
0.000000
30
0.000000
71
50
72
31
73
32
0
VERTEX
8
0
6
CONTINUOUS
62
252
70
128
10
0.000000
20
0.000000
30
0.000000
71
50
72
32
73
49
0
VERTEX
8
0
6
CONTINUOUS
62
252
70
128
10
0.000000
20
0.000000
30
0.000000
71
49
72
32
73
48
0
VERTEX
8
0
6
CONTINUOUS
62
252
70
128
10
0.000000
20
0.000000
30
0.000000
71
48
72
32
73
47
0
VERTEX
8
0
6
CONTINUOUS
62
252
70
128
10
0.000000
20
0.000000
30
0.000000
71
47
72
32
73
46
0
VERTEX
8
0
6
CONTINUOUS
62
252
70
128
10
0.000000
20
0.000000
30
0.000000
71
46
72
32
73
45
0
VERTEX
8
0
6
CONTINUOUS
62
252
70
128
10
0.000000
20
0.000000
30
0.000000
71
45
72
32
73
44
0
VERTEX
8
0
6
CONTINUOUS
62
252
70
128
10
0.000000
20
0.000000
30
0.000000
71
44
72
32
73
43
0
VERTEX
8
0
6
CONTINUOUS
62
252
70
128
10
0.000000
20
0.000000
30
0.000000
71
43
72
32
73
42
0
VERTEX
8
0
6
CONTINUOUS
62
252
70
128
10
0.000000
20
0.000000
30
0.000000
71
42
72
32
73
41
0
VERTEX
8
0
6
CONTINUOUS
62
252
70
128
10
0.000000
20
0.000000
30
0.000000
71
41
72
32
73
40
0
VERTEX
8
0
6
CONTINUOUS
62
252
70
128
10
0.000000
20
0.000000
30
0.000000
71
40
72
32
73
39
0
VERTEX
8
0
6
CONTINUOUS
62
252
70
128
10
0.000000
20
0.000000
30
0.000000
71
39
72
32
73
38
0
VERTEX
8
0
6
CONTINUOUS
62
252
70
128
10
0.000000
20
0.000000
30
0.000000
71
38
72
32
73
37
0
VERTEX
8
0
6
CONTINUOUS
62
252
70
128
10
0.000000
20
0.000000
30
0.000000
71
37
72
32
73
36
0
VERTEX
8
0
6
CONTINUOUS
62
252
70
128
10
0.000000
20
0.000000
30
0.000000
71
25
72
26
73
31
0
VERTEX
8
0
6
CONTINUOUS
62
252
70
128
10
0.000000
20
0.000000
30
0.000000
71
31
72
26
73
27
0
VERTEX
8
0
6
CONTINUOUS
62
252
70
128
10
0.000000
20
0.000000
30
0.000000
71
31
72
27
73
28
0
VERTEX
8
0
6
CONTINUOUS
62
252
70
128
10
0.000000
20
0.000000
30
0.000000
71
28
72
29
73
31
0
VERTEX
8
0
6
CONTINUOUS
62
252
70
128
10
0.000000
20
0.000000
30
0.000000
71
31
72
29
73
30
0
VERTEX
8
0
6
CONTINUOUS
62
252
70
128
10
0.000000
20
0.000000
30
0.000000
71
73
72
74
73
13
0
VERTEX
8
0
6
CONTINUOUS
62
252
70
128
10
0.000000
20
0.000000
30
0.000000
71
13
72
74
73
75
0
VERTEX
8
0
6
CONTINUOUS
62
252
70
128
10
0.000000
20
0.000000
30
0.000000
71
13
72
75
73
76
0
VERTEX
8
0
6
CONTINUOUS
62
252
70
128
10
0.000000
20
0.000000
30
0.000000
71
76
72
77
73
13
0
VERTEX
8
0
6
CONTINUOUS
62
252
70
128
10
0.000000
20
0.000000
30
0.000000
71
13
72
77
73
78
0
VERTEX
8
0
6
CONTINUOUS
62
252
70
128
10
0.000000
20
0.000000
30
0.000000
71
13
72
78
73
79
0
VERTEX
8
0
6
CONTINUOUS
62
252
70
128
10
0.000000
20
0.000000
30
0.000000
71
79
72
80
73
13
0
VERTEX
8
0
6
CONTINUOUS
62
252
70
128
10
0.000000
20
0.000000
30
0.000000
71
13
72
80
73
81
0
VERTEX
8
0
6
CONTINUOUS
62
252
70
128
10
0.000000
20
0.000000
30
0.000000
71
13
72
81
73
82
0
VERTEX
8
0
6
CONTINUOUS
62
252
70
128
10
0.000000
20
0.000000
30
0.000000
71
82
72
83
73
13
0
VERTEX
8
0
6
CONTINUOUS
62
252
70
128
10
0.000000
20
0.000000
30
0.000000
71
13
72
83
73
84
0
VERTEX
8
0
6
CONTINUOUS
62
252
70
128
10
0.000000
20
0.000000
30
0.000000
71
13
72
84
73
85
0
VERTEX
8
0
6
CONTINUOUS
62
252
70
128
10
0.000000
20
0.000000
30
0.000000
71
85
72
86
73
13
0
VERTEX
8
0
6
CONTINUOUS
62
252
70
128
10
0.000000
20
0.000000
30
0.000000
71
13
72
86
73
87
0
VERTEX
8
0
6
CONTINUOUS
62
252
70
128
10
0.000000
20
0.000000
30
0.000000
71
13
72
87
73
88
0
VERTEX
8
0
6
CONTINUOUS
62
252
70
128
10
0.000000
20
0.000000
30
0.000000
71
88
72
89
73
13
0
VERTEX
8
0
6
CONTINUOUS
62
252
70
128
10
0.000000
20
0.000000
30
0.000000
71
13
72
89
73
90
0
VERTEX
8
0
6
CONTINUOUS
62
252
70
128
10
0.000000
20
0.000000
30
0.000000
71
13
72
90
73
91
0
VERTEX
8
0
6
CONTINUOUS
62
252
70
128
10
0.000000
20
0.000000
30
0.000000
71
91
72
92
73
13
0
VERTEX
8
0
6
CONTINUOUS
62
252
70
128
10
0.000000
20
0.000000
30
0.000000
71
94
72
95
73
12
0
SEQEND
0
POLYLINE
66
1
8
0
6
CONTINUOUS
62
252
70
64
75
0
10
0.000000
20
0.000000
30
0.000000
0
VERTEX
8
0
6
CONTINUOUS
62
252
70
192
10
-4.925000
20
-2.000000
30
-20.000000
0
VERTEX
8
0
6
CONTINUOUS
62
252
70
192
10
-5.123639
20
-2.000000
30
-17.729550
0
VERTEX
8
0
6
CONTINUOUS
62
252
70
192
10
-5.713519
20
-2.000000
30
-15.528087
0
VERTEX
8
0
6
CONTINUOUS
62
252
70
192
10
-6.676718
20
-2.000000
30
-13.462500
0
VERTEX
8
0
6
CONTINUOUS
62
252
70
192
10
-7.983969
20
-2.000000
30
-11.595552
0
VERTEX
8
0
6
CONTINUOUS
62
252
70
192
10
-9.595552
20
-2.000000
30
-9.983969
0
VERTEX
8
0
6
CONTINUOUS
62
252
70
192
10
-11.462500
20
-2.000000
30
-8.676718
0
VERTEX
8
0
6
CONTINUOUS
62
252
70
192
10
-13.528087
20
-2.000000
30
-7.713519
0
VERTEX
8
0
6
CONTINUOUS
62
252
70
192
10
-15.729550
20
-2.000000
30
-7.123639
0
VERTEX
8
0
6
CONTINUOUS
62
252
70
192
10
-18.000000
20
-2.000000
30
-6.925000
0
VERTEX
8
0
6
CONTINUOUS
62
252
70
192
10
-20.270450
20
-2.000000
30
-7.123639
0
VERTEX
8
0
6
CONTINUOUS
62
252
70
192
10
-22.471913
20
-2.000000
30
-7.713519
0
VERTEX
8
0
6
CONTINUOUS
62
252
70
192
10
-24.537500
20
-2.000000
30
-8.676718
0
VERTEX
8
0
6
CONTINUOUS
62
252
70
192
10
-26.404448
20
-2.000000
30
-9.983969
0
VERTEX
8
0
6
CONTINUOUS
62
252
70
192
10
-28.016031
20
-2.000000
30
-11.595552
0
VERTEX
8
0
6
CONTINUOUS
62
252
70
192
10
-29.323282
20
-2.000000
30
-13.462500
0
VERTEX
8
0
6
CONTINUOUS
62
252
70
192
10
-30.286481
20
-2.000000
30
-15.528087
0
VERTEX
8
0
6
CONTINUOUS
62
252
70
192
10
-30.876361
20
-2.000000
30
-17.729550
0
VERTEX
8
0
6
CONTINUOUS
62
252
70
192
10
-31.075000
20
-2.000000
30
-20.000000
0
VERTEX
8
0
6
CONTINUOUS
62
252
70
192
10
-30.876361
20
-2.000000
30
-22.270450
0
VERTEX
8
0
6
CONTINUOUS
62
252
70
192
10
-30.286481
20
-2.000000
30
-24.471913
0
VERTEX
8
0
6
CONTINUOUS
62
252
70
192
10
-29.323282
20
-2.000000
30
-26.537500
0
VERTEX
8
0
6
CONTINUOUS
62
252
70
192
10
-28.016031
20
-2.000000
30
-28.404448
0
VERTEX
8
0
6
CONTINUOUS
62
252
70
192
10
-26.404448
20
-2.000000
30
-30.016031
0
VERTEX
8
0
6
CONTINUOUS
62
252
70
192
10
-24.537500
20
-2.000000
30
-31.323282
0
VERTEX
8
0
6
CONTINUOUS
62
252
70
192
10
-22.471913
20
-2.000000
30
-32.286481
0
VERTEX
8
0
6
CONTINUOUS
62
252
70
192
10
-20.270450
20
-2.000000
30
-32.876361
0
VERTEX
8
0
6
CONTINUOUS
62
252
70
192
10
-18.000000
20
-2.000000
30
-33.075000
0
VERTEX
8
0
6
CONTINUOUS
62
252
70
192
10
-15.729550
20
-2.000000
30
-32.876361
0
VERTEX
8
0
6
CONTINUOUS
62
252
70
192
10
-13.528087
20
-2.000000
30
-32.286481
0
VERTEX
8
0
6
CONTINUOUS
62
252
70
192
10
-11.462500
20
-2.000000
30
-31.323282
0
VERTEX
8
0
6
CONTINUOUS
62
252
70
192
10
-9.595552
20
-2.000000
30
-30.016031
0
VERTEX
8
0
6
CONTINUOUS
62
252
70
192
10
-7.983969
20
-2.000000
30
-28.404448
0
VERTEX
8
0
6
CONTINUOUS
62
252
70
192
10
-6.676718
20
-2.000000
30
-26.537500
0
VERTEX
8
0
6
CONTINUOUS
62
252
70
192
10
-5.713519
20
-2.000000
30
-24.471913
0
VERTEX
8
0
6
CONTINUOUS
62
252
70
192
10
-5.123639
20
-2.000000
30
-22.270450
0
VERTEX
8
0
6
CONTINUOUS
62
252
70
192
10
-4.925000
20
-15.000000
30
-20.000000
0
VERTEX
8
0
6
CONTINUOUS
62
252
70
192
10
-5.123639
20
-15.000000
30
-22.270450
0
VERTEX
8
0
6
CONTINUOUS
62
252
70
192
10
-5.713519
20
-15.000000
30
-24.471913
0
VERTEX
8
0
6
CONTINUOUS
62
252
70
192
10
-6.676718
20
-15.000000
30
-26.537500
0
VERTEX
8
0
6
CONTINUOUS
62
252
70
192
10
-7.983969
20
-15.000000
30
-28.404448
0
VERTEX
8
0
6
CONTINUOUS
62
252
70
192
10
-9.595552
20
-15.000000
30
-30.016031
0
VERTEX
8
0
6
CONTINUOUS
62
252
70
192
10
-11.462500
20
-15.000000
30
-31.323282
0
VERTEX
8
0
6
CONTINUOUS
62
252
70
192
10
-13.528087
20
-15.000000
30
-32.286481
0
VERTEX
8
0
6
CONTINUOUS
62
252
70
192
10
-15.729550
20
-15.000000
30
-32.876361
0
VERTEX
8
0
6
CONTINUOUS
62
252
70
192
10
-18.000000
20
-15.000000
30
-33.075000
0
VERTEX
8
0
6
CONTINUOUS
62
252
70
192
10
-20.270450
20
-15.000000
30
-32.876361
0
VERTEX
8
0
6
CONTINUOUS
62
252
70
192
10
-22.471913
20
-15.000000
30
-32.286481
0
VERTEX
8
0
6
CONTINUOUS
62
252
70
192
10
-24.537500
20
-15.000000
30
-31.323282
0
VERTEX
8
0
6
CONTINUOUS
62
252
70
192
10
-26.404448
20
-15.000000
30
-30.016031
0
VERTEX
8
0
6
CONTINUOUS
62
252
70
192
10
-28.016031
20
-15.000000
30
-28.404448
0
VERTEX
8
0
6
CONTINUOUS
62
252
70
192
10
-29.323282
20
-15.000000
30
-26.537500
0
VERTEX
8
0
6
CONTINUOUS
62
252
70
192
10
-30.286481
20
-15.000000
30
-24.471913
0
VERTEX
8
0
6
CONTINUOUS
62
252
70
192
10
-30.876361
20
-15.000000
30
-22.270450
0
VERTEX
8
0
6
CONTINUOUS
62
252
70
192
10
-31.075000
20
-15.000000
30
-20.000000
0
VERTEX
8
0
6
CONTINUOUS
62
252
70
192
10
-30.876361
20
-15.000000
30
-17.729550
0
VERTEX
8
0
6
CONTINUOUS
62
252
70
192
10
-30.286481
20
-15.000000
30
-15.528087
0
VERTEX
8
0
6
CONTINUOUS
62
252
70
192
10
-29.323282
20
-15.000000
30
-13.462500
0
VERTEX
8
0
6
CONTINUOUS
62
252
70
192
10
-28.016031
20
-15.000000
30
-11.595552
0
VERTEX
8
0
6
CONTINUOUS
62
252
70
192
10
-26.404448
20
-15.000000
30
-9.983969
0
VERTEX
8
0
6
CONTINUOUS
62
252
70
192
10
-24.537500
20
-15.000000
30
-8.676718
0
VERTEX
8
0
6
CONTINUOUS
62
252
70
192
10
-22.471913
20
-15.000000
30
-7.713519
0
VERTEX
8
0
6
CONTINUOUS
62
252
70
192
10
-20.270450
20
-15.000000
30
-7.123639
0
VERTEX
8
0
6
CONTINUOUS
62
252
70
192
10
-18.000000
20
-15.000000
30
-6.925000
0
VERTEX
8
0
6
CONTINUOUS
62
252
70
192
10
-15.729550
20
-15.000000
30
-7.123639
0
VERTEX
8
0
6
CONTINUOUS
62
252
70
192
10
-13.528087
20
-15.000000
30
-7.713519
0
VERTEX
8
0
6
CONTINUOUS
62
252
70
192
10
-11.462500
20
-15.000000
30
-8.676718
0
VERTEX
8
0
6
CONTINUOUS
62
252
70
192
10
-9.595552
20
-15.000000
30
-9.983969
0
VERTEX
8
0
6
CONTINUOUS
62
252
70
192
10
-7.983969
20
-15.000000
30
-11.595552
0
VERTEX
8
0
6
CONTINUOUS
62
252
70
192
10
-6.676718
20
-15.000000
30
-13.462500
0
VERTEX
8
0
6
CONTINUOUS
62
252
70
192
10
-5.713519
20
-15.000000
30
-15.528087
0
VERTEX
8
0
6
CONTINUOUS
62
252
70
192
10
-5.123639
20
-15.000000
30
-17.729550
0
VERTEX
8
0
6
CONTINUOUS
62
252
70
128
10
0.000000
20
0.000000
30
0.000000
71
2
72
72
73
1
0
VERTEX
8
0
6
CONTINUOUS
62
252
70
128
10
0.000000
20
0.000000
30
0.000000
71
1
72
72
73
37
0
VERTEX
8
0
6
CONTINUOUS
62
252
70
128
10
0.000000
20
0.000000
30
0.000000
71
1
72
37
73
36
0
VERTEX
8
0
6
CONTINUOUS
62
252
70
128
10
0.000000
20
0.000000
30
0.000000
71
36
72
37
73
38
0
VERTEX
8
0
6
CONTINUOUS
62
252
70
128
10
0.000000
20
0.000000
30
0.000000
71
36
72
38
73
35
0
VERTEX
8
0
6
CONTINUOUS
62
252
70
128
10
0.000000
20
0.000000
30
0.000000
71
35
72
38
73
39
0
VERTEX
8
0
6
CONTINUOUS
62
252
70
128
10
0.000000
20
0.000000
30
0.000000
71
35
72
39
73
34
0
VERTEX
8
0
6
CONTINUOUS
62
252
70
128
10
0.000000
20
0.000000
30
0.000000
71
34
72
39
73
40
0
VERTEX
8
0
6
CONTINUOUS
62
252
70
128
10
0.000000
20
0.000000
30
0.000000
71
34
72
40
73
33
0
VERTEX
8
0
6
CONTINUOUS
62
252
70
128
10
0.000000
20
0.000000
30
0.000000
71
33
72
40
73
41
0
VERTEX
8
0
6
CONTINUOUS
62
252
70
128
10
0.000000
20
0.000000
30
0.000000
71
33
72
41
73
32
0
VERTEX
8
0
6
CONTINUOUS
62
252
70
128
10
0.000000
20
0.000000
30
0.000000
71
32
72
41
73
42
0
VERTEX
8
0
6
CONTINUOUS
62
252
70
128
10
0.000000
20
0.000000
30
0.000000
71
32
72
42
73
31
0
VERTEX
8
0
6
CONTINUOUS
62
252
70
128
10
0.000000
20
0.000000
30
0.000000
71
31
72
42
73
43
0
VERTEX
8
0
6
CONTINUOUS
62
252
70
128
10
0.000000
20
0.000000
30
0.000000
71
31
72
43
73
30
0
VERTEX
8
0
6
CONTINUOUS
62
252
70
128
10
0.000000
20
0.000000
30
0.000000
71
30
72
43
73
44
0
VERTEX
8
0
6
CONTINUOUS
62
252
70
128
10
0.000000
20
0.000000
30
0.000000
71
30
72
44
73
29
0
VERTEX
8
0
6
CONTINUOUS
62
252
70
128
10
0.000000
20
0.000000
30
0.000000
71
29
72
44
73
45
0
VERTEX
8
0
6
CONTINUOUS
62
252
70
128
10
0.000000
20
0.000000
30
0.000000
71
29
72
45
73
28
0
VERTEX
8
0
6
CONTINUOUS
62
252
70
128
10
0.000000
20
0.000000
30
0.000000
71
28
72
45
73
46
0
VERTEX
8
0
6
CONTINUOUS
62
252
70
128
10
0.000000
20
0.000000
30
0.000000
71
28
72
46
73
27
0
VERTEX
8
0
6
CONTINUOUS
62
252
70
128
10
0.000000
20
0.000000
30
0.000000
71
27
72
46
73
47
0
VERTEX
8
0
6
CONTINUOUS
62
252
70
128
10
0.000000
20
0.000000
30
0.000000
71
27
72
47
73
26
0
VERTEX
8
0
6
CONTINUOUS
62
252
70
128
10
0.000000
20
0.000000
30
0.000000
71
26
72
47
73
48
0
VERTEX
8
0
6
CONTINUOUS
62
252
70
128
10
0.000000
20
0.000000
30
0.000000
71
26
72
48
73
25
0
VERTEX
8
0
6
CONTINUOUS
62
252
70
128
10
0.000000
20
0.000000
30
0.000000
71
25
72
48
73
49
0
VERTEX
8
0
6
CONTINUOUS
62
252
70
128
10
0.000000
20
0.000000
30
0.000000
71
25
72
49
73
24
0
VERTEX
8
0
6
CONTINUOUS
62
252
70
128
10
0.000000
20
0.000000
30
0.000000
71
24
72
49
73
50
0
VERTEX
8
0
6
CONTINUOUS
62
252
70
128
10
0.000000
20
0.000000
30
0.000000
71
24
72
50
73
23
0
VERTEX
8
0
6
CONTINUOUS
62
252
70
128
10
0.000000
20
0.000000
30
0.000000
71
23
72
50
73
51
0
VERTEX
8
0
6
CONTINUOUS
62
252
70
128
10
0.000000
20
0.000000
30
0.000000
71
23
72
51
73
22
0
VERTEX
8
0
6
CONTINUOUS
62
252
70
128
10
0.000000
20
0.000000
30
0.000000
71
22
72
51
73
52
0
VERTEX
8
0
6
CONTINUOUS
62
252
70
128
10
0.000000
20
0.000000
30
0.000000
71
22
72
52
73
21
0
VERTEX
8
0
6
CONTINUOUS
62
252
70
128
10
0.000000
20
0.000000
30
0.000000
71
21
72
52
73
53
0
VERTEX
8
0
6
CONTINUOUS
62
252
70
128
10
0.000000
20
0.000000
30
0.000000
71
21
72
53
73
20
0
VERTEX
8
0
6
CONTINUOUS
62
252
70
128
10
0.000000
20
0.000000
30
0.000000
71
20
72
53
73
54
0
VERTEX
8
0
6
CONTINUOUS
62
252
70
128
10
0.000000
20
0.000000
30
0.000000
71
20
72
54
73
19
0
VERTEX
8
0
6
CONTINUOUS
62
252
70
128
10
0.000000
20
0.000000
30
0.000000
71
19
72
54
73
55
0
VERTEX
8
0
6
CONTINUOUS
62
252
70
128
10
0.000000
20
0.000000
30
0.000000
71
19
72
55
73
18
0
VERTEX
8
0
6
CONTINUOUS
62
252
70
128
10
0.000000
20
0.000000
30
0.000000
71
18
72
55
73
56
0
VERTEX
8
0
6
CONTINUOUS
62
252
70
128
10
0.000000
20
0.000000
30
0.000000
71
18
72
56
73
17
0
VERTEX
8
0
6
CONTINUOUS
62
252
70
128
10
0.000000
20
0.000000
30
0.000000
71
17
72
56
73
57
0
VERTEX
8
0
6
CONTINUOUS
62
252
70
128
10
0.000000
20
0.000000
30
0.000000
71
17
72
57
73
16
0
VERTEX
8
0
6
CONTINUOUS
62
252
70
128
10
0.000000
20
0.000000
30
0.000000
71
16
72
57
73
58
0
VERTEX
8
0
6
CONTINUOUS
62
252
70
128
10
0.000000
20
0.000000
30
0.000000
71
16
72
58
73
15
0
VERTEX
8
0
6
CONTINUOUS
62
252
70
128
10
0.000000
20
0.000000
30
0.000000
71
15
72
58
73
59
0
VERTEX
8
0
6
CONTINUOUS
62
252
70
128
10
0.000000
20
0.000000
30
0.000000
71
15
72
59
73
14
0
VERTEX
8
0
6
CONTINUOUS
62
252
70
128
10
0.000000
20
0.000000
30
0.000000
71
14
72
59
73
60
0
VERTEX
8
0
6
CONTINUOUS
62
252
70
128
10
0.000000
20
0.000000
30
0.000000
71
14
72
60
73
13
0
VERTEX
8
0
6
CONTINUOUS
62
252
70
128
10
0.000000
20
0.000000
30
0.000000
71
13
72
60
73
61
0
VERTEX
8
0
6
CONTINUOUS
62
252
70
128
10
0.000000
20
0.000000
30
0.000000
71
13
72
61
73
12
0
VERTEX
8
0
6
CONTINUOUS
62
252
70
128
10
0.000000
20
0.000000
30
0.000000
71
12
72
61
73
62
0
VERTEX
8
0
6
CONTINUOUS
62
252
70
128
10
0.000000
20
0.000000
30
0.000000
71
12
72
62
73
11
0
VERTEX
8
0
6
CONTINUOUS
62
252
70
128
10
0.000000
20
0.000000
30
0.000000
71
11
72
62
73
63
0
VERTEX
8
0
6
CONTINUOUS
62
252
70
128
10
0.000000
20
0.000000
30
0.000000
71
11
72
63
73
10
0
VERTEX
8
0
6
CONTINUOUS
62
252
70
128
10
0.000000
20
0.000000
30
0.000000
71
10
72
63
73
64
0
VERTEX
8
0
6
CONTINUOUS
62
252
70
128
10
0.000000
20
0.000000
30
0.000000
71
10
72
64
73
9
0
VERTEX
8
0
6
CONTINUOUS
62
252
70
128
10
0.000000
20
0.000000
30
0.000000
71
9
72
64
73
65
0
VERTEX
8
0
6
CONTINUOUS
62
252
70
128
10
0.000000
20
0.000000
30
0.000000
71
9
72
65
73
8
0
VERTEX
8
0
6
CONTINUOUS
62
252
70
128
10
0.000000
20
0.000000
30
0.000000
71
8
72
65
73
66
0
VERTEX
8
0
6
CONTINUOUS
62
252
70
128
10
0.000000
20
0.000000
30
0.000000
71
8
72
66
73
7
0
VERTEX
8
0
6
CONTINUOUS
62
252
70
128
10
0.000000
20
0.000000
30
0.000000
71
7
72
66
73
67
0
VERTEX
8
0
6
CONTINUOUS
62
252
70
128
10
0.000000
20
0.000000
30
0.000000
71
7
72
67
73
6
0
VERTEX
8
0
6
CONTINUOUS
62
252
70
128
10
0.000000
20
0.000000
30
0.000000
71
6
72
67
73
68
0
VERTEX
8
0
6
CONTINUOUS
62
252
70
128
10
0.000000
20
0.000000
30
0.000000
71
6
72
68
73
5
0
VERTEX
8
0
6
CONTINUOUS
62
252
70
128
10
0.000000
20
0.000000
30
0.000000
71
5
72
68
73
69
0
VERTEX
8
0
6
CONTINUOUS
62
252
70
128
10
0.000000
20
0.000000
30
0.000000
71
5
72
69
73
4
0
VERTEX
8
0
6
CONTINUOUS
62
252
70
128
10
0.000000
20
0.000000
30
0.000000
71
4
72
69
73
70
0
VERTEX
8
0
6
CONTINUOUS
62
252
70
128
10
0.000000
20
0.000000
30
0.000000
71
4
72
70
73
3
0
VERTEX
8
0
6
CONTINUOUS
62
252
70
128
10
0.000000
20
0.000000
30
0.000000
71
3
72
70
73
71
0
VERTEX
8
0
6
CONTINUOUS
62
252
70
128
10
0.000000
20
0.000000
30
0.000000
71
3
72
71
73
2
0
VERTEX
8
0
6
CONTINUOUS
62
252
70
128
10
0.000000
20
0.000000
30
0.000000
71
2
72
71
73
72
0
SEQEND
0
POLYLINE
66
1
8
0
6
CONTINUOUS
62
252
70
64
75
0
10
0.000000
20
0.000000
30
0.000000
0
VERTEX
8
0
6
CONTINUOUS
62
252
70
192
10
-4.925000
20
-15.000000
30
-20.000000
0
VERTEX
8
0
6
CONTINUOUS
62
252
70
192
10
-5.123639
20
-15.000000
30
-17.729550
0
VERTEX
8
0
6
CONTINUOUS
62
252
70
192
10
-5.713519
20
-15.000000
30
-15.528087
0
VERTEX
8
0
6
CONTINUOUS
62
252
70
192
10
-6.676718
20
-15.000000
30
-13.462500
0
VERTEX
8
0
6
CONTINUOUS
62
252
70
192
10
-7.983969
20
-15.000000
30
-11.595552
0
VERTEX
8
0
6
CONTINUOUS
62
252
70
192
10
-9.595552
20
-15.000000
30
-9.983969
0
VERTEX
8
0
6
CONTINUOUS
62
252
70
192
10
-11.462500
20
-15.000000
30
-8.676718
0
VERTEX
8
0
6
CONTINUOUS
62
252
70
192
10
-13.528087
20
-15.000000
30
-7.713519
0
VERTEX
8
0
6
CONTINUOUS
62
252
70
192
10
-15.729550
20
-15.000000
30
-7.123639
0
VERTEX
8
0
6
CONTINUOUS
62
252
70
192
10
-18.000000
20
-15.000000
30
-6.925000
0
VERTEX
8
0
6
CONTINUOUS
62
252
70
192
10
-20.270450
20
-15.000000
30
-7.123639
0
VERTEX
8
0
6
CONTINUOUS
62
252
70
192
10
-22.471913
20
-15.000000
30
-7.713519
0
VERTEX
8
0
6
CONTINUOUS
62
252
70
192
10
-24.537500
20
-15.000000
30
-8.676718
0
VERTEX
8
0
6
CONTINUOUS
62
252
70
192
10
-26.404448
20
-15.000000
30
-9.983969
0
VERTEX
8
0
6
CONTINUOUS
62
252
70
192
10
-28.016031
20
-15.000000
30
-11.595552
0
VERTEX
8
0
6
CONTINUOUS
62
252
70
192
10
-29.323282
20
-15.000000
30
-13.462500
0
VERTEX
8
0
6
CONTINUOUS
62
252
70
192
10
-30.286481
20
-15.000000
30
-15.528087
0
VERTEX
8
0
6
CONTINUOUS
62
252
70
192
10
-30.876361
20
-15.000000
30
-17.729550
0
VERTEX
8
0
6
CONTINUOUS
62
252
70
192
10
-31.075000
20
-15.000000
30
-20.000000
0
VERTEX
8
0
6
CONTINUOUS
62
252
70
192
10
-30.876361
20
-15.000000
30
-22.270450
0
VERTEX
8
0
6
CONTINUOUS
62
252
70
192
10
-30.286481
20
-15.000000
30
-24.471913
0
VERTEX
8
0
6
CONTINUOUS
62
252
70
192
10
-29.323282
20
-15.000000
30
-26.537500
0
VERTEX
8
0
6
CONTINUOUS
62
252
70
192
10
-28.016031
20
-15.000000
30
-28.404448
0
VERTEX
8
0
6
CONTINUOUS
62
252
70
192
10
-26.404448
20
-15.000000
30
-30.016031
0
VERTEX
8
0
6
CONTINUOUS
62
252
70
192
10
-24.537500
20
-15.000000
30
-31.323282
0
VERTEX
8
0
6
CONTINUOUS
62
252
70
192
10
-22.471913
20
-15.000000
30
-32.286481
0
VERTEX
8
0
6
CONTINUOUS
62
252
70
192
10
-20.270450
20
-15.000000
30
-32.876361
0
VERTEX
8
0
6
CONTINUOUS
62
252
70
192
10
-18.000000
20
-15.000000
30
-33.075000
0
VERTEX
8
0
6
CONTINUOUS
62
252
70
192
10
-15.729550
20
-15.000000
30
-32.876361
0
VERTEX
8
0
6
CONTINUOUS
62
252
70
192
10
-13.528087
20
-15.000000
30
-32.286481
0
VERTEX
8
0
6
CONTINUOUS
62
252
70
192
10
-11.462500
20
-15.000000
30
-31.323282
0
VERTEX
8
0
6
CONTINUOUS
62
252
70
192
10
-9.595552
20
-15.000000
30
-30.016031
0
VERTEX
8
0
6
CONTINUOUS
62
252
70
192
10
-7.983969
20
-15.000000
30
-28.404448
0
VERTEX
8
0
6
CONTINUOUS
62
252
70
192
10
-6.676718
20
-15.000000
30
-26.537500
0
VERTEX
8
0
6
CONTINUOUS
62
252
70
192
10
-5.713519
20
-15.000000
30
-24.471913
0
VERTEX
8
0
6
CONTINUOUS
62
252
70
192
10
-5.123639
20
-15.000000
30
-22.270450
0
VERTEX
8
0
6
CONTINUOUS
62
252
70
128
10
0.000000
20
0.000000
30
0.000000
71
2
72
16
73
1
0
VERTEX
8
0
6
CONTINUOUS
62
252
70
128
10
0.000000
20
0.000000
30
0.000000
71
1
72
16
73
17
0
VERTEX
8
0
6
CONTINUOUS
62
252
70
128
10
0.000000
20
0.000000
30
0.000000
71
1
72
17
73
18
0
VERTEX
8
0
6
CONTINUOUS
62
252
70
128
10
0.000000
20
0.000000
30
0.000000
71
2
72
3
73
16
0
VERTEX
8
0
6
CONTINUOUS
62
252
70
128
10
0.000000
20
0.000000
30
0.000000
71
16
72
3
73
4
0
VERTEX
8
0
6
CONTINUOUS
62
252
70
128
10
0.000000
20
0.000000
30
0.000000
71
16
72
4
73
15
0
VERTEX
8
0
6
CONTINUOUS
62
252
70
128
10
0.000000
20
0.000000
30
0.000000
71
15
72
4
73
14
0
VERTEX
8
0
6
CONTINUOUS
62
252
70
128
10
0.000000
20
0.000000
30
0.000000
71
14
72
4
73
5
0
VERTEX
8
0
6
CONTINUOUS
62
252
70
128
10
0.000000
20
0.000000
30
0.000000
71
14
72
5
73
6
0
VERTEX
8
0
6
CONTINUOUS
62
252
70
128
10
0.000000
20
0.000000
30
0.000000
71
6
72
7
73
14
0
VERTEX
8
0
6
CONTINUOUS
62
252
70
128
10
0.000000
20
0.000000
30
0.000000
71
14
72
7
73
13
0
VERTEX
8
0
6
CONTINUOUS
62
252
70
128
10
0.000000
20
0.000000
30
0.000000
71
13
72
7
73
12
0
VERTEX
8
0
6
CONTINUOUS
62
252
70
128
10
0.000000
20
0.000000
30
0.000000
71
12
72
7
73
11
0
VERTEX
8
0
6
CONTINUOUS
62
252
70
128
10
0.000000
20
0.000000
30
0.000000
71
11
72
7
73
8
0
VERTEX
8
0
6
CONTINUOUS
62
252
70
128
10
0.000000
20
0.000000
30
0.000000
71
11
72
8
73
9
0
VERTEX
8
0
6
CONTINUOUS
62
252
70
128
10
0.000000
20
0.000000
30
0.000000
71
9
72
10
73
11
0
VERTEX
8
0
6
CONTINUOUS
62
252
70
128
10
0.000000
20
0.000000
30
0.000000
71
18
72
19
73
1
0
VERTEX
8
0
6
CONTINUOUS
62
252
70
128
10
0.000000
20
0.000000
30
0.000000
71
1
72
19
73
20
0
VERTEX
8
0
6
CONTINUOUS
62
252
70
128
10
0.000000
20
0.000000
30
0.000000
71
1
72
20
73
36
0
VERTEX
8
0
6
CONTINUOUS
62
252
70
128
10
0.000000
20
0.000000
30
0.000000
71
36
72
20
73
21
0
VERTEX
8
0
6
CONTINUOUS
62
252
70
128
10
0.000000
20
0.000000
30
0.000000
71
36
72
21
73
22
0
VERTEX
8
0
6
CONTINUOUS
62
252
70
128
10
0.000000
20
0.000000
30
0.000000
71
23
72
31
73
22
0
VERTEX
8
0
6
CONTINUOUS
62
252
70
128
10
0.000000
20
0.000000
30
0.000000
71
22
72
31
73
32
0
VERTEX
8
0
6
CONTINUOUS
62
252
70
128
10
0.000000
20
0.000000
30
0.000000
71
22
72
32
73
33
0
VERTEX
8
0
6
CONTINUOUS
62
252
70
128
10
0.000000
20
0.000000
30
0.000000
71
23
72
24
73
31
0
VERTEX
8
0
6
CONTINUOUS
62
252
70
128
10
0.000000
20
0.000000
30
0.000000
71
31
72
24
73
25
0
VERTEX
8
0
6
CONTINUOUS
62
252
70
128
10
0.000000
20
0.000000
30
0.000000
71
31
72
25
73
30
0
VERTEX
8
0
6
CONTINUOUS
62
252
70
128
10
0.000000
20
0.000000
30
0.000000
71
30
72
25
73
29
0
VERTEX
8
0
6
CONTINUOUS
62
252
70
128
10
0.000000
20
0.000000
30
0.000000
71
29
72
25
73
26
0
VERTEX
8
0
6
CONTINUOUS
62
252
70
128
10
0.000000
20
0.000000
30
0.000000
71
29
72
26
73
27
0
VERTEX
8
0
6
CONTINUOUS
62
252
70
128
10
0.000000
20
0.000000
30
0.000000
71
27
72
28
73
29
0
VERTEX
8
0
6
CONTINUOUS
62
252
70
128
10
0.000000
20
0.000000
30
0.000000
71
33
72
34
73
22
0
VERTEX
8
0
6
CONTINUOUS
62
252
70
128
10
0.000000
20
0.000000
30
0.000000
71
22
72
34
73
35
0
VERTEX
8
0
6
CONTINUOUS
62
252
70
128
10
0.000000
20
0.000000
30
0.000000
71
22
72
35
73
36
0
SEQEND
0
POLYLINE
66
1
8
0
6
CONTINUOUS
62
252
70
64
75
0
10
0.000000
20
0.000000
30
0.000000
0
VERTEX
8
0
6
CONTINUOUS
62
252
70
192
10
-2.711115
20
-13.800000
30
-29.500000
0
VERTEX
8
0
6
CONTINUOUS
62
252
70
192
10
-2.711115
20
-2.000000
30
-29.500000
0
VERTEX
8
0
6
CONTINUOUS
62
252
70
192
10
6.725000
20
-2.000000
30
-29.500000
0
VERTEX
8
0
6
CONTINUOUS
62
252
70
192
10
6.725000
20
-13.800000
30
-29.500000
0
VERTEX
8
0
6
CONTINUOUS
62
252
70
128
10
0.000000
20
0.000000
30
0.000000
71
2
72
3
73
1
0
VERTEX
8
0
6
CONTINUOUS
62
252
70
128
10
0.000000
20
0.000000
30
0.000000
71
1
72
3
73
4
0
SEQEND
0
POLYLINE
66
1
8
0
6
CONTINUOUS
62
252
70
64
75
0
10
0.000000
20
0.000000
30
0.000000
0
VERTEX
8
0
6
CONTINUOUS
62
252
70
192
10
6.725000
20
-13.800000
30
-47.000000
0
VERTEX
8
0
6
CONTINUOUS
62
252
70
192
10
6.725000
20
-2.000000
30
-47.000000
0
VERTEX
8
0
6
CONTINUOUS
62
252
70
192
10
-18.000000
20
-2.000000
30
-47.000000
0
VERTEX
8
0
6
CONTINUOUS
62
252
70
192
10
-18.000000
20
-13.800000
30
-47.000000
0
VERTEX
8
0
6
CONTINUOUS
62
252
70
128
10
0.000000
20
0.000000
30
0.000000
71
2
72
3
73
1
0
VERTEX
8
0
6
CONTINUOUS
62
252
70
128
10
0.000000
20
0.000000
30
0.000000
71
1
72
3
73
4
0
SEQEND
0
POLYLINE
66
1
8
0
6
CONTINUOUS
62
252
70
64
75
0
10
0.000000
20
0.000000
30
0.000000
0
VERTEX
8
0
6
CONTINUOUS
62
252
70
192
10
-18.000000
20
-13.800000
30
-38.000000
0
VERTEX
8
0
6
CONTINUOUS
62
252
70
192
10
-14.970052
20
-13.800000
30
-37.743151
0
VERTEX
8
0
6
CONTINUOUS
62
252
70
192
10
-12.026575
20
-13.800000
30
-36.979935
0
VERTEX
8
0
6
CONTINUOUS
62
252
70
192
10
-9.253572
20
-13.800000
30
-35.732133
0
VERTEX
8
0
6
CONTINUOUS
62
252
70
192
10
-6.730181
20
-13.800000
30
-34.035355
0
VERTEX
8
0
6
CONTINUOUS
62
252
70
192
10
-4.528417
20
-13.800000
30
-31.938026
0
VERTEX
8
0
6
CONTINUOUS
62
252
70
192
10
-2.711115
20
-13.800000
30
-29.500000
0
VERTEX
8
0
6
CONTINUOUS
62
252
70
192
10
6.725000
20
-13.800000
30
-29.500000
0
VERTEX
8
0
6
CONTINUOUS
62
252
70
192
10
6.725000
20
-13.800000
30
-47.000000
0
VERTEX
8
0
6
CONTINUOUS
62
252
70
192
10
-18.000000
20
-13.800000
30
-47.000000
0
VERTEX
8
0
6
CONTINUOUS
62
252
70
128
10
0.000000
20
0.000000
30
0.000000
71
1
72
2
73
10
0
VERTEX
8
0
6
CONTINUOUS
62
252
70
128
10
0.000000
20
0.000000
30
0.000000
71
10
72
2
73
3
0
VERTEX
8
0
6
CONTINUOUS
62
252
70
128
10
0.000000
20
0.000000
30
0.000000
71
10
72
3
73
9
0
VERTEX
8
0
6
CONTINUOUS
62
252
70
128
10
0.000000
20
0.000000
30
0.000000
71
9
72
3
73
4
0
VERTEX
8
0
6
CONTINUOUS
62
252
70
128
10
0.000000
20
0.000000
30
0.000000
71
9
72
4
73
5
0
VERTEX
8
0
6
CONTINUOUS
62
252
70
128
10
0.000000
20
0.000000
30
0.000000
71
5
72
6
73
9
0
VERTEX
8
0
6
CONTINUOUS
62
252
70
128
10
0.000000
20
0.000000
30
0.000000
71
9
72
6
73
8
0
VERTEX
8
0
6
CONTINUOUS
62
252
70
128
10
0.000000
20
0.000000
30
0.000000
71
8
72
6
73
7
0
SEQEND
0
POLYLINE
66
1
8
0
6
CONTINUOUS
62
252
70
64
75
0
10
0.000000
20
0.000000
30
0.000000
0
VERTEX
8
0
6
CONTINUOUS
62
252
70
192
10
-18.000000
20
-2.000000
30
-38.000000
0
VERTEX
8
0
6
CONTINUOUS
62
252
70
192
10
-18.000000
20
-13.800000
30
-38.000000
0
VERTEX
8
0
6
CONTINUOUS
62
252
70
192
10
-18.000000
20
-13.800000
30
-47.000000
0
VERTEX
8
0
6
CONTINUOUS
62
252
70
192
10
-18.000000
20
-2.000000
30
-47.000000
0
VERTEX
8
0
6
CONTINUOUS
62
252
70
128
10
0.000000
20
0.000000
30
0.000000
71
2
72
3
73
1
0
VERTEX
8
0
6
CONTINUOUS
62
252
70
128
10
0.000000
20
0.000000
30
0.000000
71
1
72
3
73
4
0
SEQEND
0
POLYLINE
66
1
8
0
6
CONTINUOUS
62
252
70
64
75
0
10
0.000000
20
0.000000
30
0.000000
0
VERTEX
8
0
6
CONTINUOUS
62
252
70
192
10
-4.925000
20
-2.000000
30
-20.000000
0
VERTEX
8
0
6
CONTINUOUS
62
252
70
192
10
-5.123639
20
-2.000000
30
-22.270450
0
VERTEX
8
0
6
CONTINUOUS
62
252
70
192
10
-5.713519
20
-2.000000
30
-24.471913
0
VERTEX
8
0
6
CONTINUOUS
62
252
70
192
10
-6.676718
20
-2.000000
30
-26.537500
0
VERTEX
8
0
6
CONTINUOUS
62
252
70
192
10
-7.983969
20
-2.000000
30
-28.404448
0
VERTEX
8
0
6
CONTINUOUS
62
252
70
192
10
-9.595552
20
-2.000000
30
-30.016031
0
VERTEX
8
0
6
CONTINUOUS
62
252
70
192
10
-11.462500
20
-2.000000
30
-31.323282
0
VERTEX
8
0
6
CONTINUOUS
62
252
70
192
10
-13.528087
20
-2.000000
30
-32.286481
0
VERTEX
8
0
6
CONTINUOUS
62
252
70
192
10
-15.729550
20
-2.000000
30
-32.876361
0
VERTEX
8
0
6
CONTINUOUS
62
252
70
192
10
-18.000000
20
-2.000000
30
-33.075000
0
VERTEX
8
0
6
CONTINUOUS
62
252
70
192
10
-20.270450
20
-2.000000
30
-32.876361
0
VERTEX
8
0
6
CONTINUOUS
62
252
70
192
10
-22.471913
20
-2.000000
30
-32.286481
0
VERTEX
8
0
6
CONTINUOUS
62
252
70
192
10
-24.537500
20
-2.000000
30
-31.323282
0
VERTEX
8
0
6
CONTINUOUS
62
252
70
192
10
-26.404448
20
-2.000000
30
-30.016031
0
VERTEX
8
0
6
CONTINUOUS
62
252
70
192
10
-28.016031
20
-2.000000
30
-28.404448
0
VERTEX
8
0
6
CONTINUOUS
62
252
70
192
10
-29.323282
20
-2.000000
30
-26.537500
0
VERTEX
8
0
6
CONTINUOUS
62
252
70
192
10
-30.286481
20
-2.000000
30
-24.471913
0
VERTEX
8
0
6
CONTINUOUS
62
252
70
192
10
-30.876361
20
-2.000000
30
-22.270450
0
VERTEX
8
0
6
CONTINUOUS
62
252
70
192
10
-31.075000
20
-2.000000
30
-20.000000
0
VERTEX
8
0
6
CONTINUOUS
62
252
70
192
10
-30.876361
20
-2.000000
30
-17.729550
0
VERTEX
8
0
6
CONTINUOUS
62
252
70
192
10
-30.286481
20
-2.000000
30
-15.528087
0
VERTEX
8
0
6
CONTINUOUS
62
252
70
192
10
-29.323282
20
-2.000000
30
-13.462500
0
VERTEX
8
0
6
CONTINUOUS
62
252
70
192
10
-28.016031
20
-2.000000
30
-11.595552
0
VERTEX
8
0
6
CONTINUOUS
62
252
70
192
10
-26.404448
20
-2.000000
30
-9.983969
0
VERTEX
8
0
6
CONTINUOUS
62
252
70
192
10
-24.537500
20
-2.000000
30
-8.676718
0
VERTEX
8
0
6
CONTINUOUS
62
252
70
192
10
-22.471913
20
-2.000000
30
-7.713519
0
VERTEX
8
0
6
CONTINUOUS
62
252
70
192
10
-20.270450
20
-2.000000
30
-7.123639
0
VERTEX
8
0
6
CONTINUOUS
62
252
70
192
10
-18.000000
20
-2.000000
30
-6.925000
0
VERTEX
8
0
6
CONTINUOUS
62
252
70
192
10
-15.729550
20
-2.000000
30
-7.123639
0
VERTEX
8
0
6
CONTINUOUS
62
252
70
192
10
-13.528087
20
-2.000000
30
-7.713519
0
VERTEX
8
0
6
CONTINUOUS
62
252
70
192
10
-11.462500
20
-2.000000
30
-8.676718
0
VERTEX
8
0
6
CONTINUOUS
62
252
70
192
10
-9.595552
20
-2.000000
30
-9.983969
0
VERTEX
8
0
6
CONTINUOUS
62
252
70
192
10
-7.983969
20
-2.000000
30
-11.595552
0
VERTEX
8
0
6
CONTINUOUS
62
252
70
192
10
-6.676718
20
-2.000000
30
-13.462500
0
VERTEX
8
0
6
CONTINUOUS
62
252
70
192
10
-5.713519
20
-2.000000
30
-15.528087
0
VERTEX
8
0
6
CONTINUOUS
62
252
70
192
10
-5.123639
20
-2.000000
30
-17.729550
0
VERTEX
8
0
6
CONTINUOUS
62
252
70
192
10
-2.711115
20
-2.000000
30
-29.500000
0
VERTEX
8
0
6
CONTINUOUS
62
252
70
192
10
-1.324632
20
-2.000000
30
-26.777322
0
VERTEX
8
0
6
CONTINUOUS
62
252
70
192
10
-0.418611
20
-2.000000
30
-23.859371
0
VERTEX
8
0
6
CONTINUOUS
62
252
70
192
10
-0.019157
20
-2.000000
30
-20.830221
0
VERTEX
8
0
6
CONTINUOUS
62
252
70
192
10
-0.137779
20
-2.000000
30
-17.777151
0
VERTEX
8
0
6
CONTINUOUS
62
252
70
192
10
-0.771060
20
-2.000000
30
-14.788126
0
VERTEX
8
0
6
CONTINUOUS
62
252
70
192
10
-1.900753
20
-2.000000
30
-11.949270
0
VERTEX
8
0
6
CONTINUOUS
62
252
70
192
10
-3.494309
20
-2.000000
30
-9.342377
0
VERTEX
8
0
6
CONTINUOUS
62
252
70
192
10
-5.505813
20
-2.000000
30
-7.042559
0
VERTEX
8
0
6
CONTINUOUS
62
252
70
192
10
-7.877307
20
-2.000000
30
-5.116079
0
VERTEX
8
0
6
CONTINUOUS
62
252
70
192
10
-10.540464
20
-2.000000
30
-3.618445
0
VERTEX
8
0
6
CONTINUOUS
62
252
70
192
10
-13.418551
20
-2.000000
30
-2.592808
0
VERTEX
8
0
6
CONTINUOUS
62
252
70
192
10
-16.428641
20
-2.000000
30
-2.068719
0
VERTEX
8
0
6
CONTINUOUS
62
252
70
192
10
-19.484006
20
-2.000000
30
-2.061279
0
VERTEX
8
0
6
CONTINUOUS
62
252
70
192
10
-22.496613
20
-2.000000
30
-2.570701
0
VERTEX
8
0
6
CONTINUOUS
62
252
70
192
10
-25.379660
20
-2.000000
30
-3.582308
0
VERTEX
8
0
6
CONTINUOUS
62
252
70
192
10
-28.050080
20
-2.000000
30
-5.066953
0
VERTEX
8
0
6
CONTINUOUS
62
252
70
192
10
-30.430929
20
-2.000000
30
-6.981859
0
VERTEX
8
0
6
CONTINUOUS
62
252
70
192
10
-32.453611
20
-2.000000
30
-9.271853
0
VERTEX
8
0
6
CONTINUOUS
62
252
70
192
10
-34.059845
20
-2.000000
30
-11.870954
0
VERTEX
8
0
6
CONTINUOUS
62
252
70
192
10
-35.203351
20
-2.000000
30
-14.704274
0
VERTEX
8
0
6
CONTINUOUS
62
252
70
192
10
-35.851183
20
-2.000000
30
-17.690179
0
VERTEX
8
0
6
CONTINUOUS
62
252
70
192
10
-35.984674
20
-2.000000
30
-20.742635
0
VERTEX
8
0
6
CONTINUOUS
62
252
70
192
10
-35.599978
20
-2.000000
30
-23.773695
0
VERTEX
8
0
6
CONTINUOUS
62
252
70
192
10
-34.708180
20
-2.000000
30
-26.696024
0
VERTEX
8
0
6
CONTINUOUS
62
252
70
192
10
-33.334974
20
-2.000000
30
-29.425422
0
VERTEX
8
0
6
CONTINUOUS
62
252
70
192
10
-31.519926
20
-2.000000
30
-31.883249
0
VERTEX
8
0
6
CONTINUOUS
62
252
70
192
10
-29.315332
20
-2.000000
30
-33.998687
0
VERTEX
8
0
6
CONTINUOUS
62
252
70
192
10
-26.784714
20
-2.000000
30
-35.710786
0
VERTEX
8
0
6
CONTINUOUS
62
252
70
192
10
-24.000984
20
-2.000000
30
-36.970215
0
VERTEX
8
0
6
CONTINUOUS
62
252
70
192
10
-21.044350
20
-2.000000
30
-37.740686
0
VERTEX
8
0
6
CONTINUOUS
62
252
70
192
10
-18.000000
20
-2.000000
30
-38.000000
0
VERTEX
8
0
6
CONTINUOUS
62
252
70
192
10
-18.000000
20
-2.000000
30
-47.000000
0
VERTEX
8
0
6
CONTINUOUS
62
252
70
192
10
6.725000
20
-2.000000
30
-47.000000
0
VERTEX
8
0
6
CONTINUOUS
62
252
70
192
10
6.725000
20
-2.000000
30
-29.500000
0
VERTEX
8
0
6
CONTINUOUS
62
252
70
128
10
0.000000
20
0.000000
30
0.000000
71
2
72
40
73
1
0
VERTEX
8
0
6
CONTINUOUS
62
252
70
128
10
0.000000
20
0.000000
30
0.000000
71
1
72
40
73
41
0
VERTEX
8
0
6
CONTINUOUS
62
252
70
128
10
0.000000
20
0.000000
30
0.000000
71
1
72
41
73
36
0
VERTEX
8
0
6
CONTINUOUS
62
252
70
128
10
0.000000
20
0.000000
30
0.000000
71
36
72
41
73
42
0
VERTEX
8
0
6
CONTINUOUS
62
252
70
128
10
0.000000
20
0.000000
30
0.000000
71
36
72
42
73
35
0
VERTEX
8
0
6
CONTINUOUS
62
252
70
128
10
0.000000
20
0.000000
30
0.000000
71
35
72
42
73
43
0
VERTEX
8
0
6
CONTINUOUS
62
252
70
128
10
0.000000
20
0.000000
30
0.000000
71
35
72
43
73
34
0
VERTEX
8
0
6
CONTINUOUS
62
252
70
128
10
0.000000
20
0.000000
30
0.000000
71
34
72
43
73
44
0
VERTEX
8
0
6
CONTINUOUS
62
252
70
128
10
0.000000
20
0.000000
30
0.000000
71
34
72
44
73
33
0
VERTEX
8
0
6
CONTINUOUS
62
252
70
128
10
0.000000
20
0.000000
30
0.000000
71
33
72
44
73
45
0
VERTEX
8
0
6
CONTINUOUS
62
252
70
128
10
0.000000
20
0.000000
30
0.000000
71
33
72
45
73
32
0
VERTEX
8
0
6
CONTINUOUS
62
252
70
128
10
0.000000
20
0.000000
30
0.000000
71
32
72
45
73
46
0
VERTEX
8
0
6
CONTINUOUS
62
252
70
128
10
0.000000
20
0.000000
30
0.000000
71
32
72
46
73
31
0
VERTEX
8
0
6
CONTINUOUS
62
252
70
128
10
0.000000
20
0.000000
30
0.000000
71
31
72
46
73
47
0
VERTEX
8
0
6
CONTINUOUS
62
252
70
128
10
0.000000
20
0.000000
30
0.000000
71
31
72
47
73
30
0
VERTEX
8
0
6
CONTINUOUS
62
252
70
128
10
0.000000
20
0.000000
30
0.000000
71
30
72
47
73
48
0
VERTEX
8
0
6
CONTINUOUS
62
252
70
128
10
0.000000
20
0.000000
30
0.000000
71
30
72
48
73
29
0
VERTEX
8
0
6
CONTINUOUS
62
252
70
128
10
0.000000
20
0.000000
30
0.000000
71
29
72
48
73
49
0
VERTEX
8
0
6
CONTINUOUS
62
252
70
128
10
0.000000
20
0.000000
30
0.000000
71
29
72
49
73
28
0
VERTEX
8
0
6
CONTINUOUS
62
252
70
128
10
0.000000
20
0.000000
30
0.000000
71
28
72
49
73
50
0
VERTEX
8
0
6
CONTINUOUS
62
252
70
128
10
0.000000
20
0.000000
30
0.000000
71
28
72
50
73
27
0
VERTEX
8
0
6
CONTINUOUS
62
252
70
128
10
0.000000
20
0.000000
30
0.000000
71
27
72
50
73
51
0
VERTEX
8
0
6
CONTINUOUS
62
252
70
128
10
0.000000
20
0.000000
30
0.000000
71
27
72
51
73
26
0
VERTEX
8
0
6
CONTINUOUS
62
252
70
128
10
0.000000
20
0.000000
30
0.000000
71
26
72
51
73
52
0
VERTEX
8
0
6
CONTINUOUS
62
252
70
128
10
0.000000
20
0.000000
30
0.000000
71
26
72
52
73
25
0
VERTEX
8
0
6
CONTINUOUS
62
252
70
128
10
0.000000
20
0.000000
30
0.000000
71
25
72
52
73
53
0
VERTEX
8
0
6
CONTINUOUS
62
252
70
128
10
0.000000
20
0.000000
30
0.000000
71
25
72
53
73
24
0
VERTEX
8
0
6
CONTINUOUS
62
252
70
128
10
0.000000
20
0.000000
30
0.000000
71
24
72
53
73
54
0
VERTEX
8
0
6
CONTINUOUS
62
252
70
128
10
0.000000
20
0.000000
30
0.000000
71
24
72
54
73
23
0
VERTEX
8
0
6
CONTINUOUS
62
252
70
128
10
0.000000
20
0.000000
30
0.000000
71
23
72
54
73
55
0
VERTEX
8
0
6
CONTINUOUS
62
252
70
128
10
0.000000
20
0.000000
30
0.000000
71
23
72
55
73
22
0
VERTEX
8
0
6
CONTINUOUS
62
252
70
128
10
0.000000
20
0.000000
30
0.000000
71
22
72
55
73
56
0
VERTEX
8
0
6
CONTINUOUS
62
252
70
128
10
0.000000
20
0.000000
30
0.000000
71
22
72
56
73
21
0
VERTEX
8
0
6
CONTINUOUS
62
252
70
128
10
0.000000
20
0.000000
30
0.000000
71
21
72
56
73
57
0
VERTEX
8
0
6
CONTINUOUS
62
252
70
128
10
0.000000
20
0.000000
30
0.000000
71
21
72
57
73
20
0
VERTEX
8
0
6
CONTINUOUS
62
252
70
128
10
0.000000
20
0.000000
30
0.000000
71
20
72
57
73
58
0
VERTEX
8
0
6
CONTINUOUS
62
252
70
128
10
0.000000
20
0.000000
30
0.000000
71
20
72
58
73
19
0
VERTEX
8
0
6
CONTINUOUS
62
252
70
128
10
0.000000
20
0.000000
30
0.000000
71
19
72
58
73
59
0
VERTEX
8
0
6
CONTINUOUS
62
252
70
128
10
0.000000
20
0.000000
30
0.000000
71
19
72
59
73
18
0
VERTEX
8
0
6
CONTINUOUS
62
252
70
128
10
0.000000
20
0.000000
30
0.000000
71
18
72
59
73
60
0
VERTEX
8
0
6
CONTINUOUS
62
252
70
128
10
0.000000
20
0.000000
30
0.000000
71
18
72
60
73
17
0
VERTEX
8
0
6
CONTINUOUS
62
252
70
128
10
0.000000
20
0.000000
30
0.000000
71
17
72
60
73
61
0
VERTEX
8
0
6
CONTINUOUS
62
252
70
128
10
0.000000
20
0.000000
30
0.000000
71
17
72
61
73
16
0
VERTEX
8
0
6
CONTINUOUS
62
252
70
128
10
0.000000
20
0.000000
30
0.000000
71
16
72
61
73
62
0
VERTEX
8
0
6
CONTINUOUS
62
252
70
128
10
0.000000
20
0.000000
30
0.000000
71
16
72
62
73
15
0
VERTEX
8
0
6
CONTINUOUS
62
252
70
128
10
0.000000
20
0.000000
30
0.000000
71
15
72
62
73
63
0
VERTEX
8
0
6
CONTINUOUS
62
252
70
128
10
0.000000
20
0.000000
30
0.000000
71
15
72
63
73
14
0
VERTEX
8
0
6
CONTINUOUS
62
252
70
128
10
0.000000
20
0.000000
30
0.000000
71
14
72
63
73
64
0
VERTEX
8
0
6
CONTINUOUS
62
252
70
128
10
0.000000
20
0.000000
30
0.000000
71
14
72
64
73
13
0
VERTEX
8
0
6
CONTINUOUS
62
252
70
128
10
0.000000
20
0.000000
30
0.000000
71
13
72
64
73
65
0
VERTEX
8
0
6
CONTINUOUS
62
252
70
128
10
0.000000
20
0.000000
30
0.000000
71
13
72
65
73
12
0
VERTEX
8
0
6
CONTINUOUS
62
252
70
128
10
0.000000
20
0.000000
30
0.000000
71
12
72
65
73
66
0
VERTEX
8
0
6
CONTINUOUS
62
252
70
128
10
0.000000
20
0.000000
30
0.000000
71
12
72
66
73
67
0
VERTEX
8
0
6
CONTINUOUS
62
252
70
128
10
0.000000
20
0.000000
30
0.000000
71
40
72
2
73
39
0
VERTEX
8
0
6
CONTINUOUS
62
252
70
128
10
0.000000
20
0.000000
30
0.000000
71
39
72
2
73
3
0
VERTEX
8
0
6
CONTINUOUS
62
252
70
128
10
0.000000
20
0.000000
30
0.000000
71
39
72
3
73
38
0
VERTEX
8
0
6
CONTINUOUS
62
252
70
128
10
0.000000
20
0.000000
30
0.000000
71
38
72
3
73
4
0
VERTEX
8
0
6
CONTINUOUS
62
252
70
128
10
0.000000
20
0.000000
30
0.000000
71
38
72
4
73
37
0
VERTEX
8
0
6
CONTINUOUS
62
252
70
128
10
0.000000
20
0.000000
30
0.000000
71
37
72
4
73
5
0
VERTEX
8
0
6
CONTINUOUS
62
252
70
128
10
0.000000
20
0.000000
30
0.000000
71
37
72
5
73
6
0
VERTEX
8
0
6
CONTINUOUS
62
252
70
128
10
0.000000
20
0.000000
30
0.000000
71
6
72
7
73
37
0
VERTEX
8
0
6
CONTINUOUS
62
252
70
128
10
0.000000
20
0.000000
30
0.000000
71
37
72
7
73
70
0
VERTEX
8
0
6
CONTINUOUS
62
252
70
128
10
0.000000
20
0.000000
30
0.000000
71
37
72
70
73
71
0
VERTEX
8
0
6
CONTINUOUS
62
252
70
128
10
0.000000
20
0.000000
30
0.000000
71
70
72
7
73
68
0
VERTEX
8
0
6
CONTINUOUS
62
252
70
128
10
0.000000
20
0.000000
30
0.000000
71
68
72
7
73
8
0
VERTEX
8
0
6
CONTINUOUS
62
252
70
128
10
0.000000
20
0.000000
30
0.000000
71
68
72
8
73
9
0
VERTEX
8
0
6
CONTINUOUS
62
252
70
128
10
0.000000
20
0.000000
30
0.000000
71
9
72
10
73
68
0
VERTEX
8
0
6
CONTINUOUS
62
252
70
128
10
0.000000
20
0.000000
30
0.000000
71
68
72
10
73
11
0
VERTEX
8
0
6
CONTINUOUS
62
252
70
128
10
0.000000
20
0.000000
30
0.000000
71
68
72
11
73
67
0
VERTEX
8
0
6
CONTINUOUS
62
252
70
128
10
0.000000
20
0.000000
30
0.000000
71
67
72
11
73
12
0
VERTEX
8
0
6
CONTINUOUS
62
252
70
128
10
0.000000
20
0.000000
30
0.000000
71
68
72
69
73
70
0
SEQEND
0
POLYLINE
66
1
8
0
6
CONTINUOUS
62
252
70
64
75
0
10
0.000000
20
0.000000
30
0.000000
0
VERTEX
8
0
6
CONTINUOUS
62
252
70
192
10
-18.000000
20
-13.800000
30
-38.000000
0
VERTEX
8
0
6
CONTINUOUS
62
252
70
192
10
-18.000000
20
-2.000000
30
-38.000000
0
VERTEX
8
0
6
CONTINUOUS
62
252
70
192
10
-21.044350
20
-2.000000
30
-37.740686
0
VERTEX
8
0
6
CONTINUOUS
62
252
70
192
10
-24.000984
20
-2.000000
30
-36.970215
0
VERTEX
8
0
6
CONTINUOUS
62
252
70
192
10
-26.784714
20
-2.000000
30
-35.710786
0
VERTEX
8
0
6
CONTINUOUS
62
252
70
192
10
-29.315332
20
-2.000000
30
-33.998687
0
VERTEX
8
0
6
CONTINUOUS
62
252
70
192
10
-31.519926
20
-2.000000
30
-31.883249
0
VERTEX
8
0
6
CONTINUOUS
62
252
70
192
10
-33.334974
20
-2.000000
30
-29.425422
0
VERTEX
8
0
6
CONTINUOUS
62
252
70
192
10
-34.708180
20
-2.000000
30
-26.696024
0
VERTEX
8
0
6
CONTINUOUS
62
252
70
192
10
-35.599978
20
-2.000000
30
-23.773695
0
VERTEX
8
0
6
CONTINUOUS
62
252
70
192
10
-35.984674
20
-2.000000
30
-20.742635
0
VERTEX
8
0
6
CONTINUOUS
62
252
70
192
10
-35.851183
20
-2.000000
30
-17.690179
0
VERTEX
8
0
6
CONTINUOUS
62
252
70
192
10
-35.203351
20
-2.000000
30
-14.704274
0
VERTEX
8
0
6
CONTINUOUS
62
252
70
192
10
-34.059845
20
-2.000000
30
-11.870954
0
VERTEX
8
0
6
CONTINUOUS
62
252
70
192
10
-32.453611
20
-2.000000
30
-9.271853
0
VERTEX
8
0
6
CONTINUOUS
62
252
70
192
10
-30.430929
20
-2.000000
30
-6.981859
0
VERTEX
8
0
6
CONTINUOUS
62
252
70
192
10
-28.050080
20
-2.000000
30
-5.066953
0
VERTEX
8
0
6
CONTINUOUS
62
252
70
192
10
-25.379660
20
-2.000000
30
-3.582308
0
VERTEX
8
0
6
CONTINUOUS
62
252
70
192
10
-22.496613
20
-2.000000
30
-2.570701
0
VERTEX
8
0
6
CONTINUOUS
62
252
70
192
10
-19.484006
20
-2.000000
30
-2.061279
0
VERTEX
8
0
6
CONTINUOUS
62
252
70
192
10
-16.428641
20
-2.000000
30
-2.068719
0
VERTEX
8
0
6
CONTINUOUS
62
252
70
192
10
-13.418551
20
-2.000000
30
-2.592808
0
VERTEX
8
0
6
CONTINUOUS
62
252
70
192
10
-10.540464
20
-2.000000
30
-3.618445
0
VERTEX
8
0
6
CONTINUOUS
62
252
70
192
10
-7.877307
20
-2.000000
30
-5.116079
0
VERTEX
8
0
6
CONTINUOUS
62
252
70
192
10
-5.505813
20
-2.000000
30
-7.042559
0
VERTEX
8
0
6
CONTINUOUS
62
252
70
192
10
-3.494309
20
-2.000000
30
-9.342377
0
VERTEX
8
0
6
CONTINUOUS
62
252
70
192
10
-1.900753
20
-2.000000
30
-11.949270
0
VERTEX
8
0
6
CONTINUOUS
62
252
70
192
10
-0.771060
20
-2.000000
30
-14.788126
0
VERTEX
8
0
6
CONTINUOUS
62
252
70
192
10
-0.137779
20
-2.000000
30
-17.777151
0
VERTEX
8
0
6
CONTINUOUS
62
252
70
192
10
-0.019157
20
-2.000000
30
-20.830221
0
VERTEX
8
0
6
CONTINUOUS
62
252
70
192
10
-0.418611
20
-2.000000
30
-23.859371
0
VERTEX
8
0
6
CONTINUOUS
62
252
70
192
10
-1.324632
20
-2.000000
30
-26.777322
0
VERTEX
8
0
6
CONTINUOUS
62
252
70
192
10
-2.711115
20
-2.000000
30
-29.500000
0
VERTEX
8
0
6
CONTINUOUS
62
252
70
192
10
-2.711115
20
-13.800000
30
-29.500000
0
VERTEX
8
0
6
CONTINUOUS
62
252
70
192
10
-4.528417
20
-13.800000
30
-31.938026
0
VERTEX
8
0
6
CONTINUOUS
62
252
70
192
10
-6.730181
20
-13.800000
30
-34.035355
0
VERTEX
8
0
6
CONTINUOUS
62
252
70
192
10
-9.253572
20
-13.800000
30
-35.732133
0
VERTEX
8
0
6
CONTINUOUS
62
252
70
192
10
-12.026575
20
-13.800000
30
-36.979935
0
VERTEX
8
0
6
CONTINUOUS
62
252
70
192
10
-14.970052
20
-13.800000
30
-37.743151
0
VERTEX
8
0
6
CONTINUOUS
62
252
70
192
10
0.000000
20
-15.000000
30
-20.000000
0
VERTEX
8
0
6
CONTINUOUS
62
252
70
192
10
-0.273460
20
-15.000000
30
-16.874333
0
VERTEX
8
0
6
CONTINUOUS
62
252
70
192
10
-1.085533
20
-15.000000
30
-13.843637
0
VERTEX
8
0
6
CONTINUOUS
62
252
70
192
10
-2.411543
20
-15.000000
30
-11.000000
0
VERTEX
8
0
6
CONTINUOUS
62
252
70
192
10
-4.211200
20
-15.000000
30
-8.429823
0
VERTEX
8
0
6
CONTINUOUS
62
252
70
192
10
-6.429823
20
-15.000000
30
-6.211200
0
VERTEX
8
0
6
CONTINUOUS
62
252
70
192
10
-9.000000
20
-15.000000
30
-4.411543
0
VERTEX
8
0
6
CONTINUOUS
62
252
70
192
10
-11.843637
20
-15.000000
30
-3.085533
0
VERTEX
8
0
6
CONTINUOUS
62
252
70
192
10
-14.874333
20
-15.000000
30
-2.273460
0
VERTEX
8
0
6
CONTINUOUS
62
252
70
192
10
-18.000000
20
-15.000000
30
-2.000000
0
VERTEX
8
0
6
CONTINUOUS
62
252
70
192
10
-21.125667
20
-15.000000
30
-2.273460
0
VERTEX
8
0
6
CONTINUOUS
62
252
70
192
10
-24.156363
20
-15.000000
30
-3.085533
0
VERTEX
8
0
6
CONTINUOUS
62
252
70
192
10
-27.000000
20
-15.000000
30
-4.411543
0
VERTEX
8
0
6
CONTINUOUS
62
252
70
192
10
-29.570177
20
-15.000000
30
-6.211200
0
VERTEX
8
0
6
CONTINUOUS
62
252
70
192
10
-31.788800
20
-15.000000
30
-8.429823
0
VERTEX
8
0
6
CONTINUOUS
62
252
70
192
10
-33.588457
20
-15.000000
30
-11.000000
0
VERTEX
8
0
6
CONTINUOUS
62
252
70
192
10
-34.914467
20
-15.000000
30
-13.843637
0
VERTEX
8
0
6
CONTINUOUS
62
252
70
192
10
-35.726540
20
-15.000000
30
-16.874333
0
VERTEX
8
0
6
CONTINUOUS
62
252
70
192
10
-36.000000
20
-15.000000
30
-20.000000
0
VERTEX
8
0
6
CONTINUOUS
62
252
70
192
10
-35.726540
20
-15.000000
30
-23.125667
0
VERTEX
8
0
6
CONTINUOUS
62
252
70
192
10
-34.914467
20
-15.000000
30
-26.156363
0
VERTEX
8
0
6
CONTINUOUS
62
252
70
192
10
-33.588457
20
-15.000000
30
-29.000000
0
VERTEX
8
0
6
CONTINUOUS
62
252
70
192
10
-31.788800
20
-15.000000
30
-31.570177
0
VERTEX
8
0
6
CONTINUOUS
62
252
70
192
10
-29.570177
20
-15.000000
30
-33.788800
0
VERTEX
8
0
6
CONTINUOUS
62
252
70
192
10
-27.000000
20
-15.000000
30
-35.588457
0
VERTEX
8
0
6
CONTINUOUS
62
252
70
192
10
-24.156363
20
-15.000000
30
-36.914467
0
VERTEX
8
0
6
CONTINUOUS
62
252
70
192
10
-21.125667
20
-15.000000
30
-37.726540
0
VERTEX
8
0
6
CONTINUOUS
62
252
70
192
10
-18.000000
20
-15.000000
30
-38.000000
0
VERTEX
8
0
6
CONTINUOUS
62
252
70
192
10
-14.874333
20
-15.000000
30
-37.726540
0
VERTEX
8
0
6
CONTINUOUS
62
252
70
192
10
-11.843637
20
-15.000000
30
-36.914467
0
VERTEX
8
0
6
CONTINUOUS
62
252
70
192
10
-9.000000
20
-15.000000
30
-35.588457
0
VERTEX
8
0
6
CONTINUOUS
62
252
70
192
10
-6.429823
20
-15.000000
30
-33.788800
0
VERTEX
8
0
6
CONTINUOUS
62
252
70
192
10
-4.211200
20
-15.000000
30
-31.570177
0
VERTEX
8
0
6
CONTINUOUS
62
252
70
192
10
-2.411543
20
-15.000000
30
-29.000000
0
VERTEX
8
0
6
CONTINUOUS
62
252
70
192
10
-1.085533
20
-15.000000
30
-26.156363
0
VERTEX
8
0
6
CONTINUOUS
62
252
70
192
10
-0.273460
20
-15.000000
30
-23.125667
0
VERTEX
8
0
6
CONTINUOUS
62
252
70
128
10
0.000000
20
0.000000
30
0.000000
71
2
72
3
73
1
0
VERTEX
8
0
6
CONTINUOUS
62
252
70
128
10
0.000000
20
0.000000
30
0.000000
71
1
72
3
73
66
0
VERTEX
8
0
6
CONTINUOUS
62
252
70
128
10
0.000000
20
0.000000
30
0.000000
71
1
72
66
73
67
0
VERTEX
8
0
6
CONTINUOUS
62
252
70
128
10
0.000000
20
0.000000
30
0.000000
71
3
72
4
73
66
0
VERTEX
8
0
6
CONTINUOUS
62
252
70
128
10
0.000000
20
0.000000
30
0.000000
71
66
72
4
73
65
0
VERTEX
8
0
6
CONTINUOUS
62
252
70
128
10
0.000000
20
0.000000
30
0.000000
71
65
72
4
73
5
0
VERTEX
8
0
6
CONTINUOUS
62
252
70
128
10
0.000000
20
0.000000
30
0.000000
71
65
72
5
73
64
0
VERTEX
8
0
6
CONTINUOUS
62
252
70
128
10
0.000000
20
0.000000
30
0.000000
71
64
72
5
73
6
0
VERTEX
8
0
6
CONTINUOUS
62
252
70
128
10
0.000000
20
0.000000
30
0.000000
71
64
72
6
73
63
0
VERTEX
8
0
6
CONTINUOUS
62
252
70
128
10
0.000000
20
0.000000
30
0.000000
71
63
72
6
73
7
0
VERTEX
8
0
6
CONTINUOUS
62
252
70
128
10
0.000000
20
0.000000
30
0.000000
71
63
72
7
73
62
0
VERTEX
8
0
6
CONTINUOUS
62
252
70
128
10
0.000000
20
0.000000
30
0.000000
71
62
72
7
73
8
0
VERTEX
8
0
6
CONTINUOUS
62
252
70
128
10
0.000000
20
0.000000
30
0.000000
71
62
72
8
73
61
0
VERTEX
8
0
6
CONTINUOUS
62
252
70
128
10
0.000000
20
0.000000
30
0.000000
71
61
72
8
73
9
0
VERTEX
8
0
6
CONTINUOUS
62
252
70
128
10
0.000000
20
0.000000
30
0.000000
71
61
72
9
73
60
0
VERTEX
8
0
6
CONTINUOUS
62
252
70
128
10
0.000000
20
0.000000
30
0.000000
71
60
72
9
73
10
0
VERTEX
8
0
6
CONTINUOUS
62
252
70
128
10
0.000000
20
0.000000
30
0.000000
71
60
72
10
73
59
0
VERTEX
8
0
6
CONTINUOUS
62
252
70
128
10
0.000000
20
0.000000
30
0.000000
71
59
72
10
73
11
0
VERTEX
8
0
6
CONTINUOUS
62
252
70
128
10
0.000000
20
0.000000
30
0.000000
71
59
72
11
73
58
0
VERTEX
8
0
6
CONTINUOUS
62
252
70
128
10
0.000000
20
0.000000
30
0.000000
71
58
72
11
73
12
0
VERTEX
8
0
6
CONTINUOUS
62
252
70
128
10
0.000000
20
0.000000
30
0.000000
71
58
72
12
73
57
0
VERTEX
8
0
6
CONTINUOUS
62
252
70
128
10
0.000000
20
0.000000
30
0.000000
71
57
72
12
73
13
0
VERTEX
8
0
6
CONTINUOUS
62
252
70
128
10
0.000000
20
0.000000
30
0.000000
71
57
72
13
73
56
0
VERTEX
8
0
6
CONTINUOUS
62
252
70
128
10
0.000000
20
0.000000
30
0.000000
71
56
72
13
73
14
0
VERTEX
8
0
6
CONTINUOUS
62
252
70
128
10
0.000000
20
0.000000
30
0.000000
71
56
72
14
73
55
0
VERTEX
8
0
6
CONTINUOUS
62
252
70
128
10
0.000000
20
0.000000
30
0.000000
71
55
72
14
73
15
0
VERTEX
8
0
6
CONTINUOUS
62
252
70
128
10
0.000000
20
0.000000
30
0.000000
71
55
72
15
73
54
0
VERTEX
8
0
6
CONTINUOUS
62
252
70
128
10
0.000000
20
0.000000
30
0.000000
71
54
72
15
73
16
0
VERTEX
8
0
6
CONTINUOUS
62
252
70
128
10
0.000000
20
0.000000
30
0.000000
71
54
72
16
73
53
0
VERTEX
8
0
6
CONTINUOUS
62
252
70
128
10
0.000000
20
0.000000
30
0.000000
71
53
72
16
73
17
0
VERTEX
8
0
6
CONTINUOUS
62
252
70
128
10
0.000000
20
0.000000
30
0.000000
71
53
72
17
73
52
0
VERTEX
8
0
6
CONTINUOUS
62
252
70
128
10
0.000000
20
0.000000
30
0.000000
71
52
72
17
73
18
0
VERTEX
8
0
6
CONTINUOUS
62
252
70
128
10
0.000000
20
0.000000
30
0.000000
71
52
72
18
73
51
0
VERTEX
8
0
6
CONTINUOUS
62
252
70
128
10
0.000000
20
0.000000
30
0.000000
71
51
72
18
73
19
0
VERTEX
8
0
6
CONTINUOUS
62
252
70
128
10
0.000000
20
0.000000
30
0.000000
71
51
72
19
73
50
0
VERTEX
8
0
6
CONTINUOUS
62
252
70
128
10
0.000000
20
0.000000
30
0.000000
71
50
72
19
73
20
0
VERTEX
8
0
6
CONTINUOUS
62
252
70
128
10
0.000000
20
0.000000
30
0.000000
71
50
72
20
73
49
0
VERTEX
8
0
6
CONTINUOUS
62
252
70
128
10
0.000000
20
0.000000
30
0.000000
71
49
72
20
73
21
0
VERTEX
8
0
6
CONTINUOUS
62
252
70
128
10
0.000000
20
0.000000
30
0.000000
71
49
72
21
73
48
0
VERTEX
8
0
6
CONTINUOUS
62
252
70
128
10
0.000000
20
0.000000
30
0.000000
71
48
72
21
73
22
0
VERTEX
8
0
6
CONTINUOUS
62
252
70
128
10
0.000000
20
0.000000
30
0.000000
71
48
72
22
73
47
0
VERTEX
8
0
6
CONTINUOUS
62
252
70
128
10
0.000000
20
0.000000
30
0.000000
71
47
72
22
73
23
0
VERTEX
8
0
6
CONTINUOUS
62
252
70
128
10
0.000000
20
0.000000
30
0.000000
71
47
72
23
73
46
0
VERTEX
8
0
6
CONTINUOUS
62
252
70
128
10
0.000000
20
0.000000
30
0.000000
71
46
72
23
73
24
0
VERTEX
8
0
6
CONTINUOUS
62
252
70
128
10
0.000000
20
0.000000
30
0.000000
71
46
72
24
73
45
0
VERTEX
8
0
6
CONTINUOUS
62
252
70
128
10
0.000000
20
0.000000
30
0.000000
71
45
72
24
73
25
0
VERTEX
8
0
6
CONTINUOUS
62
252
70
128
10
0.000000
20
0.000000
30
0.000000
71
45
72
25
73
44
0
VERTEX
8
0
6
CONTINUOUS
62
252
70
128
10
0.000000
20
0.000000
30
0.000000
71
44
72
25
73
26
0
VERTEX
8
0
6
CONTINUOUS
62
252
70
128
10
0.000000
20
0.000000
30
0.000000
71
44
72
26
73
43
0
VERTEX
8
0
6
CONTINUOUS
62
252
70
128
10
0.000000
20
0.000000
30
0.000000
71
43
72
26
73
27
0
VERTEX
8
0
6
CONTINUOUS
62
252
70
128
10
0.000000
20
0.000000
30
0.000000
71
43
72
27
73
42
0
VERTEX
8
0
6
CONTINUOUS
62
252
70
128
10
0.000000
20
0.000000
30
0.000000
71
42
72
27
73
28
0
VERTEX
8
0
6
CONTINUOUS
62
252
70
128
10
0.000000
20
0.000000
30
0.000000
71
42
72
28
73
41
0
VERTEX
8
0
6
CONTINUOUS
62
252
70
128
10
0.000000
20
0.000000
30
0.000000
71
41
72
28
73
29
0
VERTEX
8
0
6
CONTINUOUS
62
252
70
128
10
0.000000
20
0.000000
30
0.000000
71
41
72
29
73
40
0
VERTEX
8
0
6
CONTINUOUS
62
252
70
128
10
0.000000
20
0.000000
30
0.000000
71
40
72
29
73
30
0
VERTEX
8
0
6
CONTINUOUS
62
252
70
128
10
0.000000
20
0.000000
30
0.000000
71
40
72
30
73
75
0
VERTEX
8
0
6
CONTINUOUS
62
252
70
128
10
0.000000
20
0.000000
30
0.000000
71
75
72
30
73
31
0
VERTEX
8
0
6
CONTINUOUS
62
252
70
128
10
0.000000
20
0.000000
30
0.000000
71
75
72
31
73
74
0
VERTEX
8
0
6
CONTINUOUS
62
252
70
128
10
0.000000
20
0.000000
30
0.000000
71
74
72
31
73
32
0
VERTEX
8
0
6
CONTINUOUS
62
252
70
128
10
0.000000
20
0.000000
30
0.000000
71
74
72
32
73
73
0
VERTEX
8
0
6
CONTINUOUS
62
252
70
128
10
0.000000
20
0.000000
30
0.000000
71
73
72
32
73
33
0
VERTEX
8
0
6
CONTINUOUS
62
252
70
128
10
0.000000
20
0.000000
30
0.000000
71
73
72
33
73
34
0
VERTEX
8
0
6
CONTINUOUS
62
252
70
128
10
0.000000
20
0.000000
30
0.000000
71
73
72
34
73
72
0
VERTEX
8
0
6
CONTINUOUS
62
252
70
128
10
0.000000
20
0.000000
30
0.000000
71
72
72
34
73
35
0
VERTEX
8
0
6
CONTINUOUS
62
252
70
128
10
0.000000
20
0.000000
30
0.000000
71
72
72
35
73
71
0
VERTEX
8
0
6
CONTINUOUS
62
252
70
128
10
0.000000
20
0.000000
30
0.000000
71
71
72
35
73
36
0
VERTEX
8
0
6
CONTINUOUS
62
252
70
128
10
0.000000
20
0.000000
30
0.000000
71
71
72
36
73
70
0
VERTEX
8
0
6
CONTINUOUS
62
252
70
128
10
0.000000
20
0.000000
30
0.000000
71
70
72
36
73
37
0
VERTEX
8
0
6
CONTINUOUS
62
252
70
128
10
0.000000
20
0.000000
30
0.000000
71
70
72
37
73
69
0
VERTEX
8
0
6
CONTINUOUS
62
252
70
128
10
0.000000
20
0.000000
30
0.000000
71
69
72
37
73
38
0
VERTEX
8
0
6
CONTINUOUS
62
252
70
128
10
0.000000
20
0.000000
30
0.000000
71
69
72
38
73
68
0
VERTEX
8
0
6
CONTINUOUS
62
252
70
128
10
0.000000
20
0.000000
30
0.000000
71
68
72
38
73
39
0
VERTEX
8
0
6
CONTINUOUS
62
252
70
128
10
0.000000
20
0.000000
30
0.000000
71
68
72
39
73
67
0
VERTEX
8
0
6
CONTINUOUS
62
252
70
128
10
0.000000
20
0.000000
30
0.000000
71
67
72
39
73
1
0
SEQEND
0
POLYLINE
66
1
8
0
6
CONTINUOUS
62
252
70
64
75
0
10
0.000000
20
0.000000
30
0.000000
0
VERTEX
8
0
6
CONTINUOUS
62
252
70
192
10
-35.750000
20
0.000000
30
-43.000000
0
VERTEX
8
0
6
CONTINUOUS
62
252
70
192
10
-35.784183
20
-0.000000
30
-43.390708
0
VERTEX
8
0
6
CONTINUOUS
62
252
70
192
10
-35.885692
20
-0.000000
30
-43.769545
0
VERTEX
8
0
6
CONTINUOUS
62
252
70
192
10
-36.051443
20
-0.000000
30
-44.125000
0
VERTEX
8
0
6
CONTINUOUS
62
252
70
192
10
-36.276400
20
-0.000000
30
-44.446272
0
VERTEX
8
0
6
CONTINUOUS
62
252
70
192
10
-36.553728
20
-0.000000
30
-44.723600
0
VERTEX
8
0
6
CONTINUOUS
62
252
70
192
10
-36.875000
20
-0.000000
30
-44.948557
0
VERTEX
8
0
6
CONTINUOUS
62
252
70
192
10
-37.230455
20
-0.000000
30
-45.114308
0
VERTEX
8
0
6
CONTINUOUS
62
252
70
192
10
-37.609292
20
-0.000000
30
-45.215817
0
VERTEX
8
0
6
CONTINUOUS
62
252
70
192
10
-38.000000
20
-0.000000
30
-45.250000
0
VERTEX
8
0
6
CONTINUOUS
62
252
70
192
10
-38.390708
20
-0.000000
30
-45.215817
0
VERTEX
8
0
6
CONTINUOUS
62
252
70
192
10
-38.769545
20
-0.000000
30
-45.114308
0
VERTEX
8
0
6
CONTINUOUS
62
252
70
192
10
-39.125000
20
-0.000000
30
-44.948557
0
VERTEX
8
0
6
CONTINUOUS
62
252
70
192
10
-39.446272
20
-0.000000
30
-44.723600
0
VERTEX
8
0
6
CONTINUOUS
62
252
70
192
10
-39.723600
20
-0.000000
30
-44.446272
0
VERTEX
8
0
6
CONTINUOUS
62
252
70
192
10
-39.948557
20
-0.000000
30
-44.125000
0
VERTEX
8
0
6
CONTINUOUS
62
252
70
192
10
-40.114308
20
-0.000000
30
-43.769545
0
VERTEX
8
0
6
CONTINUOUS
62
252
70
192
10
-40.215817
20
-0.000000
30
-43.390708
0
VERTEX
8
0
6
CONTINUOUS
62
252
70
192
10
-40.250000
20
-0.000000
30
-43.000000
0
VERTEX
8
0
6
CONTINUOUS
62
252
70
192
10
-40.215817
20
-0.000000
30
-42.609292
0
VERTEX
8
0
6
CONTINUOUS
62
252
70
192
10
-40.114308
20
-0.000000
30
-42.230455
0
VERTEX
8
0
6
CONTINUOUS
62
252
70
192
10
-39.948557
20
-0.000000
30
-41.875000
0
VERTEX
8
0
6
CONTINUOUS
62
252
70
192
10
-39.723600
20
-0.000000
30
-41.553728
0
VERTEX
8
0
6
CONTINUOUS
62
252
70
192
10
-39.446272
20
-0.000000
30
-41.276400
0
VERTEX
8
0
6
CONTINUOUS
62
252
70
192
10
-39.125000
20
-0.000000
30
-41.051443
0
VERTEX
8
0
6
CONTINUOUS
62
252
70
192
10
-38.769545
20
-0.000000
30
-40.885692
0
VERTEX
8
0
6
CONTINUOUS
62
252
70
192
10
-38.390708
20
-0.000000
30
-40.784183
0
VERTEX
8
0
6
CONTINUOUS
62
252
70
192
10
-38.000000
20
-0.000000
30
-40.750000
0
VERTEX
8
0
6
CONTINUOUS
62
252
70
192
10
-37.609292
20
-0.000000
30
-40.784183
0
VERTEX
8
0
6
CONTINUOUS
62
252
70
192
10
-37.230455
20
-0.000000
30
-40.885692
0
VERTEX
8
0
6
CONTINUOUS
62
252
70
192
10
-36.875000
20
-0.000000
30
-41.051443
0
VERTEX
8
0
6
CONTINUOUS
62
252
70
192
10
-36.553728
20
-0.000000
30
-41.276400
0
VERTEX
8
0
6
CONTINUOUS
62
252
70
192
10
-36.276400
20
-0.000000
30
-41.553728
0
VERTEX
8
0
6
CONTINUOUS
62
252
70
192
10
-36.051443
20
-0.000000
30
-41.875000
0
VERTEX
8
0
6
CONTINUOUS
62
252
70
192
10
-35.885692
20
-0.000000
30
-42.230455
0
VERTEX
8
0
6
CONTINUOUS
62
252
70
192
10
-35.784183
20
-0.000000
30
-42.609292
0
VERTEX
8
0
6
CONTINUOUS
62
252
70
192
10
-35.750000
20
-15.000000
30
-43.000000
0
VERTEX
8
0
6
CONTINUOUS
62
252
70
192
10
-35.784183
20
-15.000000
30
-42.609292
0
VERTEX
8
0
6
CONTINUOUS
62
252
70
192
10
-35.885692
20
-15.000000
30
-42.230455
0
VERTEX
8
0
6
CONTINUOUS
62
252
70
192
10
-36.051443
20
-15.000000
30
-41.875000
0
VERTEX
8
0
6
CONTINUOUS
62
252
70
192
10
-36.276400
20
-15.000000
30
-41.553728
0
VERTEX
8
0
6
CONTINUOUS
62
252
70
192
10
-36.553728
20
-15.000000
30
-41.276400
0
VERTEX
8
0
6
CONTINUOUS
62
252
70
192
10
-36.875000
20
-15.000000
30
-41.051443
0
VERTEX
8
0
6
CONTINUOUS
62
252
70
192
10
-37.230455
20
-15.000000
30
-40.885692
0
VERTEX
8
0
6
CONTINUOUS
62
252
70
192
10
-37.609292
20
-15.000000
30
-40.784183
0
VERTEX
8
0
6
CONTINUOUS
62
252
70
192
10
-38.000000
20
-15.000000
30
-40.750000
0
VERTEX
8
0
6
CONTINUOUS
62
252
70
192
10
-38.390708
20
-15.000000
30
-40.784183
0
VERTEX
8
0
6
CONTINUOUS
62
252
70
192
10
-38.769545
20
-15.000000
30
-40.885692
0
VERTEX
8
0
6
CONTINUOUS
62
252
70
192
10
-39.125000
20
-15.000000
30
-41.051443
0
VERTEX
8
0
6
CONTINUOUS
62
252
70
192
10
-39.446272
20
-15.000000
30
-41.276400
0
VERTEX
8
0
6
CONTINUOUS
62
252
70
192
10
-39.723600
20
-15.000000
30
-41.553728
0
VERTEX
8
0
6
CONTINUOUS
62
252
70
192
10
-39.948557
20
-15.000000
30
-41.875000
0
VERTEX
8
0
6
CONTINUOUS
62
252
70
192
10
-40.114308
20
-15.000000
30
-42.230455
0
VERTEX
8
0
6
CONTINUOUS
62
252
70
192
10
-40.215817
20
-15.000000
30
-42.609292
0
VERTEX
8
0
6
CONTINUOUS
62
252
70
192
10
-40.250000
20
-15.000000
30
-43.000000
0
VERTEX
8
0
6
CONTINUOUS
62
252
70
192
10
-40.215817
20
-15.000000
30
-43.390708
0
VERTEX
8
0
6
CONTINUOUS
62
252
70
192
10
-40.114308
20
-15.000000
30
-43.769545
0
VERTEX
8
0
6
CONTINUOUS
62
252
70
192
10
-39.948557
20
-15.000000
30
-44.125000
0
VERTEX
8
0
6
CONTINUOUS
62
252
70
192
10
-39.723600
20
-15.000000
30
-44.446272
0
VERTEX
8
0
6
CONTINUOUS
62
252
70
192
10
-39.446272
20
-15.000000
30
-44.723600
0
VERTEX
8
0
6
CONTINUOUS
62
252
70
192
10
-39.125000
20
-15.000000
30
-44.948557
0
VERTEX
8
0
6
CONTINUOUS
62
252
70
192
10
-38.769545
20
-15.000000
30
-45.114308
0
VERTEX
8
0
6
CONTINUOUS
62
252
70
192
10
-38.390708
20
-15.000000
30
-45.215817
0
VERTEX
8
0
6
CONTINUOUS
62
252
70
192
10
-38.000000
20
-15.000000
30
-45.250000
0
VERTEX
8
0
6
CONTINUOUS
62
252
70
192
10
-37.609292
20
-15.000000
30
-45.215817
0
VERTEX
8
0
6
CONTINUOUS
62
252
70
192
10
-37.230455
20
-15.000000
30
-45.114308
0
VERTEX
8
0
6
CONTINUOUS
62
252
70
192
10
-36.875000
20
-15.000000
30
-44.948557
0
VERTEX
8
0
6
CONTINUOUS
62
252
70
192
10
-36.553728
20
-15.000000
30
-44.723600
0
VERTEX
8
0
6
CONTINUOUS
62
252
70
192
10
-36.276400
20
-15.000000
30
-44.446272
0
VERTEX
8
0
6
CONTINUOUS
62
252
70
192
10
-36.051443
20
-15.000000
30
-44.125000
0
VERTEX
8
0
6
CONTINUOUS
62
252
70
192
10
-35.885692
20
-15.000000
30
-43.769545
0
VERTEX
8
0
6
CONTINUOUS
62
252
70
192
10
-35.784183
20
-15.000000
30
-43.390708
0
VERTEX
8
0
6
CONTINUOUS
62
252
70
128
10
0.000000
20
0.000000
30
0.000000
71
2
72
37
73
1
0
VERTEX
8
0
6
CONTINUOUS
62
252
70
128
10
0.000000
20
0.000000
30
0.000000
71
1
72
37
73
38
0
VERTEX
8
0
6
CONTINUOUS
62
252
70
128
10
0.000000
20
0.000000
30
0.000000
71
1
72
38
73
36
0
VERTEX
8
0
6
CONTINUOUS
62
252
70
128
10
0.000000
20
0.000000
30
0.000000
71
36
72
38
73
39
0
VERTEX
8
0
6
CONTINUOUS
62
252
70
128
10
0.000000
20
0.000000
30
0.000000
71
36
72
39
73
35
0
VERTEX
8
0
6
CONTINUOUS
62
252
70
128
10
0.000000
20
0.000000
30
0.000000
71
35
72
39
73
40
0
VERTEX
8
0
6
CONTINUOUS
62
252
70
128
10
0.000000
20
0.000000
30
0.000000
71
35
72
40
73
34
0
VERTEX
8
0
6
CONTINUOUS
62
252
70
128
10
0.000000
20
0.000000
30
0.000000
71
34
72
40
73
41
0
VERTEX
8
0
6
CONTINUOUS
62
252
70
128
10
0.000000
20
0.000000
30
0.000000
71
34
72
41
73
33
0
VERTEX
8
0
6
CONTINUOUS
62
252
70
128
10
0.000000
20
0.000000
30
0.000000
71
33
72
41
73
42
0
VERTEX
8
0
6
CONTINUOUS
62
252
70
128
10
0.000000
20
0.000000
30
0.000000
71
33
72
42
73
32
0
VERTEX
8
0
6
CONTINUOUS
62
252
70
128
10
0.000000
20
0.000000
30
0.000000
71
32
72
42
73
43
0
VERTEX
8
0
6
CONTINUOUS
62
252
70
128
10
0.000000
20
0.000000
30
0.000000
71
32
72
43
73
31
0
VERTEX
8
0
6
CONTINUOUS
62
252
70
128
10
0.000000
20
0.000000
30
0.000000
71
31
72
43
73
44
0
VERTEX
8
0
6
CONTINUOUS
62
252
70
128
10
0.000000
20
0.000000
30
0.000000
71
31
72
44
73
30
0
VERTEX
8
0
6
CONTINUOUS
62
252
70
128
10
0.000000
20
0.000000
30
0.000000
71
30
72
44
73
29
0
VERTEX
8
0
6
CONTINUOUS
62
252
70
128
10
0.000000
20
0.000000
30
0.000000
71
29
72
44
73
45
0
VERTEX
8
0
6
CONTINUOUS
62
252
70
128
10
0.000000
20
0.000000
30
0.000000
71
29
72
45
73
28
0
VERTEX
8
0
6
CONTINUOUS
62
252
70
128
10
0.000000
20
0.000000
30
0.000000
71
28
72
45
73
46
0
VERTEX
8
0
6
CONTINUOUS
62
252
70
128
10
0.000000
20
0.000000
30
0.000000
71
28
72
46
73
27
0
VERTEX
8
0
6
CONTINUOUS
62
252
70
128
10
0.000000
20
0.000000
30
0.000000
71
27
72
46
73
47
0
VERTEX
8
0
6
CONTINUOUS
62
252
70
128
10
0.000000
20
0.000000
30
0.000000
71
27
72
47
73
26
0
VERTEX
8
0
6
CONTINUOUS
62
252
70
128
10
0.000000
20
0.000000
30
0.000000
71
26
72
47
73
48
0
VERTEX
8
0
6
CONTINUOUS
62
252
70
128
10
0.000000
20
0.000000
30
0.000000
71
26
72
48
73
25
0
VERTEX
8
0
6
CONTINUOUS
62
252
70
128
10
0.000000
20
0.000000
30
0.000000
71
25
72
48
73
49
0
VERTEX
8
0
6
CONTINUOUS
62
252
70
128
10
0.000000
20
0.000000
30
0.000000
71
25
72
49
73
24
0
VERTEX
8
0
6
CONTINUOUS
62
252
70
128
10
0.000000
20
0.000000
30
0.000000
71
24
72
49
73
50
0
VERTEX
8
0
6
CONTINUOUS
62
252
70
128
10
0.000000
20
0.000000
30
0.000000
71
24
72
50
73
23
0
VERTEX
8
0
6
CONTINUOUS
62
252
70
128
10
0.000000
20
0.000000
30
0.000000
71
23
72
50
73
51
0
VERTEX
8
0
6
CONTINUOUS
62
252
70
128
10
0.000000
20
0.000000
30
0.000000
71
23
72
51
73
22
0
VERTEX
8
0
6
CONTINUOUS
62
252
70
128
10
0.000000
20
0.000000
30
0.000000
71
22
72
51
73
52
0
VERTEX
8
0
6
CONTINUOUS
62
252
70
128
10
0.000000
20
0.000000
30
0.000000
71
22
72
52
73
21
0
VERTEX
8
0
6
CONTINUOUS
62
252
70
128
10
0.000000
20
0.000000
30
0.000000
71
21
72
52
73
53
0
VERTEX
8
0
6
CONTINUOUS
62
252
70
128
10
0.000000
20
0.000000
30
0.000000
71
21
72
53
73
20
0
VERTEX
8
0
6
CONTINUOUS
62
252
70
128
10
0.000000
20
0.000000
30
0.000000
71
20
72
53
73
54
0
VERTEX
8
0
6
CONTINUOUS
62
252
70
128
10
0.000000
20
0.000000
30
0.000000
71
20
72
54
73
19
0
VERTEX
8
0
6
CONTINUOUS
62
252
70
128
10
0.000000
20
0.000000
30
0.000000
71
19
72
54
73
55
0
VERTEX
8
0
6
CONTINUOUS
62
252
70
128
10
0.000000
20
0.000000
30
0.000000
71
19
72
55
73
18
0
VERTEX
8
0
6
CONTINUOUS
62
252
70
128
10
0.000000
20
0.000000
30
0.000000
71
18
72
55
73
56
0
VERTEX
8
0
6
CONTINUOUS
62
252
70
128
10
0.000000
20
0.000000
30
0.000000
71
18
72
56
73
17
0
VERTEX
8
0
6
CONTINUOUS
62
252
70
128
10
0.000000
20
0.000000
30
0.000000
71
17
72
56
73
57
0
VERTEX
8
0
6
CONTINUOUS
62
252
70
128
10
0.000000
20
0.000000
30
0.000000
71
17
72
57
73
16
0
VERTEX
8
0
6
CONTINUOUS
62
252
70
128
10
0.000000
20
0.000000
30
0.000000
71
16
72
57
73
58
0
VERTEX
8
0
6
CONTINUOUS
62
252
70
128
10
0.000000
20
0.000000
30
0.000000
71
16
72
58
73
15
0
VERTEX
8
0
6
CONTINUOUS
62
252
70
128
10
0.000000
20
0.000000
30
0.000000
71
15
72
58
73
59
0
VERTEX
8
0
6
CONTINUOUS
62
252
70
128
10
0.000000
20
0.000000
30
0.000000
71
15
72
59
73
14
0
VERTEX
8
0
6
CONTINUOUS
62
252
70
128
10
0.000000
20
0.000000
30
0.000000
71
14
72
59
73
60
0
VERTEX
8
0
6
CONTINUOUS
62
252
70
128
10
0.000000
20
0.000000
30
0.000000
71
14
72
60
73
13
0
VERTEX
8
0
6
CONTINUOUS
62
252
70
128
10
0.000000
20
0.000000
30
0.000000
71
13
72
60
73
61
0
VERTEX
8
0
6
CONTINUOUS
62
252
70
128
10
0.000000
20
0.000000
30
0.000000
71
13
72
61
73
12
0
VERTEX
8
0
6
CONTINUOUS
62
252
70
128
10
0.000000
20
0.000000
30
0.000000
71
12
72
61
73
62
0
VERTEX
8
0
6
CONTINUOUS
62
252
70
128
10
0.000000
20
0.000000
30
0.000000
71
12
72
62
73
11
0
VERTEX
8
0
6
CONTINUOUS
62
252
70
128
10
0.000000
20
0.000000
30
0.000000
71
11
72
62
73
63
0
VERTEX
8
0
6
CONTINUOUS
62
252
70
128
10
0.000000
20
0.000000
30
0.000000
71
11
72
63
73
10
0
VERTEX
8
0
6
CONTINUOUS
62
252
70
128
10
0.000000
20
0.000000
30
0.000000
71
10
72
63
73
64
0
VERTEX
8
0
6
CONTINUOUS
62
252
70
128
10
0.000000
20
0.000000
30
0.000000
71
10
72
64
73
9
0
VERTEX
8
0
6
CONTINUOUS
62
252
70
128
10
0.000000
20
0.000000
30
0.000000
71
9
72
64
73
65
0
VERTEX
8
0
6
CONTINUOUS
62
252
70
128
10
0.000000
20
0.000000
30
0.000000
71
9
72
65
73
8
0
VERTEX
8
0
6
CONTINUOUS
62
252
70
128
10
0.000000
20
0.000000
30
0.000000
71
8
72
65
73
66
0
VERTEX
8
0
6
CONTINUOUS
62
252
70
128
10
0.000000
20
0.000000
30
0.000000
71
8
72
66
73
67
0
VERTEX
8
0
6
CONTINUOUS
62
252
70
128
10
0.000000
20
0.000000
30
0.000000
71
37
72
2
73
72
0
VERTEX
8
0
6
CONTINUOUS
62
252
70
128
10
0.000000
20
0.000000
30
0.000000
71
72
72
2
73
3
0
VERTEX
8
0
6
CONTINUOUS
62
252
70
128
10
0.000000
20
0.000000
30
0.000000
71
72
72
3
73
71
0
VERTEX
8
0
6
CONTINUOUS
62
252
70
128
10
0.000000
20
0.000000
30
0.000000
71
71
72
3
73
4
0
VERTEX
8
0
6
CONTINUOUS
62
252
70
128
10
0.000000
20
0.000000
30
0.000000
71
71
72
4
73
70
0
VERTEX
8
0
6
CONTINUOUS
62
252
70
128
10
0.000000
20
0.000000
30
0.000000
71
70
72
4
73
5
0
VERTEX
8
0
6
CONTINUOUS
62
252
70
128
10
0.000000
20
0.000000
30
0.000000
71
70
72
5
73
69
0
VERTEX
8
0
6
CONTINUOUS
62
252
70
128
10
0.000000
20
0.000000
30
0.000000
71
69
72
5
73
6
0
VERTEX
8
0
6
CONTINUOUS
62
252
70
128
10
0.000000
20
0.000000
30
0.000000
71
69
72
6
73
68
0
VERTEX
8
0
6
CONTINUOUS
62
252
70
128
10
0.000000
20
0.000000
30
0.000000
71
68
72
6
73
7
0
VERTEX
8
0
6
CONTINUOUS
62
252
70
128
10
0.000000
20
0.000000
30
0.000000
71
68
72
7
73
67
0
VERTEX
8
0
6
CONTINUOUS
62
252
70
128
10
0.000000
20
0.000000
30
0.000000
71
67
72
7
73
8
0
SEQEND
0
POLYLINE
66
1
8
0
6
CONTINUOUS
62
252
70
64
75
0
10
0.000000
20
0.000000
30
0.000000
0
VERTEX
8
0
6
CONTINUOUS
62
252
70
192
10
-0.000000
20
-0.000000
30
-2.250000
0
VERTEX
8
0
6
CONTINUOUS
62
252
70
192
10
-0.390708
20
-0.000000
30
-2.215817
0
VERTEX
8
0
6
CONTINUOUS
62
252
70
192
10
-0.769545
20
-0.000000
30
-2.114308
0
VERTEX
8
0
6
CONTINUOUS
62
252
70
192
10
-1.125000
20
-0.000000
30
-1.948557
0
VERTEX
8
0
6
CONTINUOUS
62
252
70
192
10
-1.446272
20
-0.000000
30
-1.723600
0
VERTEX
8
0
6
CONTINUOUS
62
252
70
192
10
-1.723600
20
-0.000000
30
-1.446272
0
VERTEX
8
0
6
CONTINUOUS
62
252
70
192
10
-1.948557
20
-0.000000
30
-1.125000
0
VERTEX
8
0
6
CONTINUOUS
62
252
70
192
10
-2.114308
20
-0.000000
30
-0.769545
0
VERTEX
8
0
6
CONTINUOUS
62
252
70
192
10
-2.215817
20
-0.000000
30
-0.390708
0
VERTEX
8
0
6
CONTINUOUS
62
252
70
192
10
-2.250000
20
-0.000000
30
0.000000
0
VERTEX
8
0
6
CONTINUOUS
62
252
70
192
10
-2.215817
20
-0.000000
30
0.390708
0
VERTEX
8
0
6
CONTINUOUS
62
252
70
192
10
-2.114308
20
-0.000000
30
0.769545
0
VERTEX
8
0
6
CONTINUOUS
62
252
70
192
10
-1.948557
20
-0.000000
30
1.125000
0
VERTEX
8
0
6
CONTINUOUS
62
252
70
192
10
-1.723600
20
-0.000000
30
1.446272
0
VERTEX
8
0
6
CONTINUOUS
62
252
70
192
10
-1.446272
20
-0.000000
30
1.723600
0
VERTEX
8
0
6
CONTINUOUS
62
252
70
192
10
-1.125000
20
-0.000000
30
1.948557
0
VERTEX
8
0
6
CONTINUOUS
62
252
70
192
10
-0.769545
20
-0.000000
30
2.114308
0
VERTEX
8
0
6
CONTINUOUS
62
252
70
192
10
-0.390708
20
-0.000000
30
2.215817
0
VERTEX
8
0
6
CONTINUOUS
62
252
70
192
10
0.000000
20
-0.000000
30
2.250000
0
VERTEX
8
0
6
CONTINUOUS
62
252
70
192
10
0.390708
20
-0.000000
30
2.215817
0
VERTEX
8
0
6
CONTINUOUS
62
252
70
192
10
0.769545
20
-0.000000
30
2.114308
0
VERTEX
8
0
6
CONTINUOUS
62
252
70
192
10
1.125000
20
-0.000000
30
1.948557
0
VERTEX
8
0
6
CONTINUOUS
62
252
70
192
10
1.446272
20
-0.000000
30
1.723600
0
VERTEX
8
0
6
CONTINUOUS
62
252
70
192
10
1.723600
20
-0.000000
30
1.446272
0
VERTEX
8
0
6
CONTINUOUS
62
252
70
192
10
1.948557
20
-0.000000
30
1.125000
0
VERTEX
8
0
6
CONTINUOUS
62
252
70
192
10
2.114308
20
-0.000000
30
0.769545
0
VERTEX
8
0
6
CONTINUOUS
62
252
70
192
10
2.215817
20
-0.000000
30
0.390708
0
VERTEX
8
0
6
CONTINUOUS
62
252
70
192
10
2.250000
20
-0.000000
30
-0.000000
0
VERTEX
8
0
6
CONTINUOUS
62
252
70
192
10
2.215817
20
-0.000000
30
-0.390708
0
VERTEX
8
0
6
CONTINUOUS
62
252
70
192
10
2.114308
20
-0.000000
30
-0.769545
0
VERTEX
8
0
6
CONTINUOUS
62
252
70
192
10
1.948557
20
-0.000000
30
-1.125000
0
VERTEX
8
0
6
CONTINUOUS
62
252
70
192
10
1.723600
20
-0.000000
30
-1.446272
0
VERTEX
8
0
6
CONTINUOUS
62
252
70
192
10
1.446272
20
-0.000000
30
-1.723600
0
VERTEX
8
0
6
CONTINUOUS
62
252
70
192
10
1.125000
20
-0.000000
30
-1.948557
0
VERTEX
8
0
6
CONTINUOUS
62
252
70
192
10
0.769545
20
-0.000000
30
-2.114308
0
VERTEX
8
0
6
CONTINUOUS
62
252
70
192
10
0.390708
20
-0.000000
30
-2.215817
0
VERTEX
8
0
6
CONTINUOUS
62
252
70
192
10
-0.000000
20
-15.000000
30
-2.250000
0
VERTEX
8
0
6
CONTINUOUS
62
252
70
192
10
0.390708
20
-15.000000
30
-2.215817
0
VERTEX
8
0
6
CONTINUOUS
62
252
70
192
10
0.769545
20
-15.000000
30
-2.114308
0
VERTEX
8
0
6
CONTINUOUS
62
252
70
192
10
1.125000
20
-15.000000
30
-1.948557
0
VERTEX
8
0
6
CONTINUOUS
62
252
70
192
10
1.446272
20
-15.000000
30
-1.723600
0
VERTEX
8
0
6
CONTINUOUS
62
252
70
192
10
1.723600
20
-15.000000
30
-1.446272
0
VERTEX
8
0
6
CONTINUOUS
62
252
70
192
10
1.948557
20
-15.000000
30
-1.125000
0
VERTEX
8
0
6
CONTINUOUS
62
252
70
192
10
2.114308
20
-15.000000
30
-0.769545
0
VERTEX
8
0
6
CONTINUOUS
62
252
70
192
10
2.215817
20
-15.000000
30
-0.390708
0
VERTEX
8
0
6
CONTINUOUS
62
252
70
192
10
2.250000
20
-15.000000
30
0.000000
0
VERTEX
8
0
6
CONTINUOUS
62
252
70
192
10
2.215817
20
-15.000000
30
0.390708
0
VERTEX
8
0
6
CONTINUOUS
62
252
70
192
10
2.114308
20
-15.000000
30
0.769545
0
VERTEX
8
0
6
CONTINUOUS
62
252
70
192
10
1.948557
20
-15.000000
30
1.125000
0
VERTEX
8
0
6
CONTINUOUS
62
252
70
192
10
1.723600
20
-15.000000
30
1.446272
0
VERTEX
8
0
6
CONTINUOUS
62
252
70
192
10
1.446272
20
-15.000000
30
1.723600
0
VERTEX
8
0
6
CONTINUOUS
62
252
70
192
10
1.125000
20
-15.000000
30
1.948557
0
VERTEX
8
0
6
CONTINUOUS
62
252
70
192
10
0.769545
20
-15.000000
30
2.114308
0
VERTEX
8
0
6
CONTINUOUS
62
252
70
192
10
0.390708
20
-15.000000
30
2.215817
0
VERTEX
8
0
6
CONTINUOUS
62
252
70
192
10
-0.000000
20
-15.000000
30
2.250000
0
VERTEX
8
0
6
CONTINUOUS
62
252
70
192
10
-0.390708
20
-15.000000
30
2.215817
0
VERTEX
8
0
6
CONTINUOUS
62
252
70
192
10
-0.769545
20
-15.000000
30
2.114308
0
VERTEX
8
0
6
CONTINUOUS
62
252
70
192
10
-1.125000
20
-15.000000
30
1.948557
0
VERTEX
8
0
6
CONTINUOUS
62
252
70
192
10
-1.446272
20
-15.000000
30
1.723600
0
VERTEX
8
0
6
CONTINUOUS
62
252
70
192
10
-1.723600
20
-15.000000
30
1.446272
0
VERTEX
8
0
6
CONTINUOUS
62
252
70
192
10
-1.948557
20
-15.000000
30
1.125000
0
VERTEX
8
0
6
CONTINUOUS
62
252
70
192
10
-2.114308
20
-15.000000
30
0.769545
0
VERTEX
8
0
6
CONTINUOUS
62
252
70
192
10
-2.215817
20
-15.000000
30
0.390708
0
VERTEX
8
0
6
CONTINUOUS
62
252
70
192
10
-2.250000
20
-15.000000
30
0.000000
0
VERTEX
8
0
6
CONTINUOUS
62
252
70
192
10
-2.215817
20
-15.000000
30
-0.390708
0
VERTEX
8
0
6
CONTINUOUS
62
252
70
192
10
-2.114308
20
-15.000000
30
-0.769545
0
VERTEX
8
0
6
CONTINUOUS
62
252
70
192
10
-1.948557
20
-15.000000
30
-1.125000
0
VERTEX
8
0
6
CONTINUOUS
62
252
70
192
10
-1.723600
20
-15.000000
30
-1.446272
0
VERTEX
8
0
6
CONTINUOUS
62
252
70
192
10
-1.446272
20
-15.000000
30
-1.723600
0
VERTEX
8
0
6
CONTINUOUS
62
252
70
192
10
-1.125000
20
-15.000000
30
-1.948557
0
VERTEX
8
0
6
CONTINUOUS
62
252
70
192
10
-0.769545
20
-15.000000
30
-2.114308
0
VERTEX
8
0
6
CONTINUOUS
62
252
70
192
10
-0.390708
20
-15.000000
30
-2.215817
0
VERTEX
8
0
6
CONTINUOUS
62
252
70
128
10
0.000000
20
0.000000
30
0.000000
71
2
72
72
73
1
0
VERTEX
8
0
6
CONTINUOUS
62
252
70
128
10
0.000000
20
0.000000
30
0.000000
71
1
72
72
73
37
0
VERTEX
8
0
6
CONTINUOUS
62
252
70
128
10
0.000000
20
0.000000
30
0.000000
71
1
72
37
73
36
0
VERTEX
8
0
6
CONTINUOUS
62
252
70
128
10
0.000000
20
0.000000
30
0.000000
71
36
72
37
73
38
0
VERTEX
8
0
6
CONTINUOUS
62
252
70
128
10
0.000000
20
0.000000
30
0.000000
71
36
72
38
73
35
0
VERTEX
8
0
6
CONTINUOUS
62
252
70
128
10
0.000000
20
0.000000
30
0.000000
71
35
72
38
73
39
0
VERTEX
8
0
6
CONTINUOUS
62
252
70
128
10
0.000000
20
0.000000
30
0.000000
71
35
72
39
73
34
0
VERTEX
8
0
6
CONTINUOUS
62
252
70
128
10
0.000000
20
0.000000
30
0.000000
71
34
72
39
73
40
0
VERTEX
8
0
6
CONTINUOUS
62
252
70
128
10
0.000000
20
0.000000
30
0.000000
71
34
72
40
73
33
0
VERTEX
8
0
6
CONTINUOUS
62
252
70
128
10
0.000000
20
0.000000
30
0.000000
71
33
72
40
73
41
0
VERTEX
8
0
6
CONTINUOUS
62
252
70
128
10
0.000000
20
0.000000
30
0.000000
71
33
72
41
73
32
0
VERTEX
8
0
6
CONTINUOUS
62
252
70
128
10
0.000000
20
0.000000
30
0.000000
71
32
72
41
73
42
0
VERTEX
8
0
6
CONTINUOUS
62
252
70
128
10
0.000000
20
0.000000
30
0.000000
71
32
72
42
73
31
0
VERTEX
8
0
6
CONTINUOUS
62
252
70
128
10
0.000000
20
0.000000
30
0.000000
71
31
72
42
73
43
0
VERTEX
8
0
6
CONTINUOUS
62
252
70
128
10
0.000000
20
0.000000
30
0.000000
71
31
72
43
73
30
0
VERTEX
8
0
6
CONTINUOUS
62
252
70
128
10
0.000000
20
0.000000
30
0.000000
71
30
72
43
73
44
0
VERTEX
8
0
6
CONTINUOUS
62
252
70
128
10
0.000000
20
0.000000
30
0.000000
71
30
72
44
73
29
0
VERTEX
8
0
6
CONTINUOUS
62
252
70
128
10
0.000000
20
0.000000
30
0.000000
71
29
72
44
73
45
0
VERTEX
8
0
6
CONTINUOUS
62
252
70
128
10
0.000000
20
0.000000
30
0.000000
71
29
72
45
73
28
0
VERTEX
8
0
6
CONTINUOUS
62
252
70
128
10
0.000000
20
0.000000
30
0.000000
71
28
72
45
73
46
0
VERTEX
8
0
6
CONTINUOUS
62
252
70
128
10
0.000000
20
0.000000
30
0.000000
71
28
72
46
73
27
0
VERTEX
8
0
6
CONTINUOUS
62
252
70
128
10
0.000000
20
0.000000
30
0.000000
71
27
72
46
73
47
0
VERTEX
8
0
6
CONTINUOUS
62
252
70
128
10
0.000000
20
0.000000
30
0.000000
71
27
72
47
73
26
0
VERTEX
8
0
6
CONTINUOUS
62
252
70
128
10
0.000000
20
0.000000
30
0.000000
71
26
72
47
73
48
0
VERTEX
8
0
6
CONTINUOUS
62
252
70
128
10
0.000000
20
0.000000
30
0.000000
71
26
72
48
73
25
0
VERTEX
8
0
6
CONTINUOUS
62
252
70
128
10
0.000000
20
0.000000
30
0.000000
71
25
72
48
73
49
0
VERTEX
8
0
6
CONTINUOUS
62
252
70
128
10
0.000000
20
0.000000
30
0.000000
71
25
72
49
73
24
0
VERTEX
8
0
6
CONTINUOUS
62
252
70
128
10
0.000000
20
0.000000
30
0.000000
71
24
72
49
73
50
0
VERTEX
8
0
6
CONTINUOUS
62
252
70
128
10
0.000000
20
0.000000
30
0.000000
71
24
72
50
73
23
0
VERTEX
8
0
6
CONTINUOUS
62
252
70
128
10
0.000000
20
0.000000
30
0.000000
71
23
72
50
73
51
0
VERTEX
8
0
6
CONTINUOUS
62
252
70
128
10
0.000000
20
0.000000
30
0.000000
71
23
72
51
73
22
0
VERTEX
8
0
6
CONTINUOUS
62
252
70
128
10
0.000000
20
0.000000
30
0.000000
71
22
72
51
73
52
0
VERTEX
8
0
6
CONTINUOUS
62
252
70
128
10
0.000000
20
0.000000
30
0.000000
71
22
72
52
73
21
0
VERTEX
8
0
6
CONTINUOUS
62
252
70
128
10
0.000000
20
0.000000
30
0.000000
71
21
72
52
73
53
0
VERTEX
8
0
6
CONTINUOUS
62
252
70
128
10
0.000000
20
0.000000
30
0.000000
71
21
72
53
73
20
0
VERTEX
8
0
6
CONTINUOUS
62
252
70
128
10
0.000000
20
0.000000
30
0.000000
71
20
72
53
73
54
0
VERTEX
8
0
6
CONTINUOUS
62
252
70
128
10
0.000000
20
0.000000
30
0.000000
71
20
72
54
73
19
0
VERTEX
8
0
6
CONTINUOUS
62
252
70
128
10
0.000000
20
0.000000
30
0.000000
71
19
72
54
73
55
0
VERTEX
8
0
6
CONTINUOUS
62
252
70
128
10
0.000000
20
0.000000
30
0.000000
71
19
72
55
73
18
0
VERTEX
8
0
6
CONTINUOUS
62
252
70
128
10
0.000000
20
0.000000
30
0.000000
71
18
72
55
73
56
0
VERTEX
8
0
6
CONTINUOUS
62
252
70
128
10
0.000000
20
0.000000
30
0.000000
71
18
72
56
73
17
0
VERTEX
8
0
6
CONTINUOUS
62
252
70
128
10
0.000000
20
0.000000
30
0.000000
71
17
72
56
73
57
0
VERTEX
8
0
6
CONTINUOUS
62
252
70
128
10
0.000000
20
0.000000
30
0.000000
71
17
72
57
73
16
0
VERTEX
8
0
6
CONTINUOUS
62
252
70
128
10
0.000000
20
0.000000
30
0.000000
71
16
72
57
73
58
0
VERTEX
8
0
6
CONTINUOUS
62
252
70
128
10
0.000000
20
0.000000
30
0.000000
71
16
72
58
73
15
0
VERTEX
8
0
6
CONTINUOUS
62
252
70
128
10
0.000000
20
0.000000
30
0.000000
71
15
72
58
73
59
0
VERTEX
8
0
6
CONTINUOUS
62
252
70
128
10
0.000000
20
0.000000
30
0.000000
71
15
72
59
73
14
0
VERTEX
8
0
6
CONTINUOUS
62
252
70
128
10
0.000000
20
0.000000
30
0.000000
71
14
72
59
73
60
0
VERTEX
8
0
6
CONTINUOUS
62
252
70
128
10
0.000000
20
0.000000
30
0.000000
71
14
72
60
73
13
0
VERTEX
8
0
6
CONTINUOUS
62
252
70
128
10
0.000000
20
0.000000
30
0.000000
71
13
72
60
73
61
0
VERTEX
8
0
6
CONTINUOUS
62
252
70
128
10
0.000000
20
0.000000
30
0.000000
71
13
72
61
73
12
0
VERTEX
8
0
6
CONTINUOUS
62
252
70
128
10
0.000000
20
0.000000
30
0.000000
71
12
72
61
73
62
0
VERTEX
8
0
6
CONTINUOUS
62
252
70
128
10
0.000000
20
0.000000
30
0.000000
71
12
72
62
73
11
0
VERTEX
8
0
6
CONTINUOUS
62
252
70
128
10
0.000000
20
0.000000
30
0.000000
71
11
72
62
73
63
0
VERTEX
8
0
6
CONTINUOUS
62
252
70
128
10
0.000000
20
0.000000
30
0.000000
71
11
72
63
73
10
0
VERTEX
8
0
6
CONTINUOUS
62
252
70
128
10
0.000000
20
0.000000
30
0.000000
71
10
72
63
73
64
0
VERTEX
8
0
6
CONTINUOUS
62
252
70
128
10
0.000000
20
0.000000
30
0.000000
71
10
72
64
73
9
0
VERTEX
8
0
6
CONTINUOUS
62
252
70
128
10
0.000000
20
0.000000
30
0.000000
71
9
72
64
73
65
0
VERTEX
8
0
6
CONTINUOUS
62
252
70
128
10
0.000000
20
0.000000
30
0.000000
71
9
72
65
73
8
0
VERTEX
8
0
6
CONTINUOUS
62
252
70
128
10
0.000000
20
0.000000
30
0.000000
71
8
72
65
73
66
0
VERTEX
8
0
6
CONTINUOUS
62
252
70
128
10
0.000000
20
0.000000
30
0.000000
71
8
72
66
73
7
0
VERTEX
8
0
6
CONTINUOUS
62
252
70
128
10
0.000000
20
0.000000
30
0.000000
71
7
72
66
73
67
0
VERTEX
8
0
6
CONTINUOUS
62
252
70
128
10
0.000000
20
0.000000
30
0.000000
71
7
72
67
73
6
0
VERTEX
8
0
6
CONTINUOUS
62
252
70
128
10
0.000000
20
0.000000
30
0.000000
71
6
72
67
73
68
0
VERTEX
8
0
6
CONTINUOUS
62
252
70
128
10
0.000000
20
0.000000
30
0.000000
71
6
72
68
73
5
0
VERTEX
8
0
6
CONTINUOUS
62
252
70
128
10
0.000000
20
0.000000
30
0.000000
71
5
72
68
73
69
0
VERTEX
8
0
6
CONTINUOUS
62
252
70
128
10
0.000000
20
0.000000
30
0.000000
71
5
72
69
73
4
0
VERTEX
8
0
6
CONTINUOUS
62
252
70
128
10
0.000000
20
0.000000
30
0.000000
71
4
72
69
73
70
0
VERTEX
8
0
6
CONTINUOUS
62
252
70
128
10
0.000000
20
0.000000
30
0.000000
71
4
72
70
73
3
0
VERTEX
8
0
6
CONTINUOUS
62
252
70
128
10
0.000000
20
0.000000
30
0.000000
71
3
72
70
73
71
0
VERTEX
8
0
6
CONTINUOUS
62
252
70
128
10
0.000000
20
0.000000
30
0.000000
71
3
72
71
73
2
0
VERTEX
8
0
6
CONTINUOUS
62
252
70
128
10
0.000000
20
0.000000
30
0.000000
71
2
72
71
73
72
0
SEQEND
0
POLYLINE
66
1
8
0
6
CONTINUOUS
62
252
70
64
75
0
10
0.000000
20
0.000000
30
0.000000
0
VERTEX
8
0
6
CONTINUOUS
62
252
70
192
10
-24.224899
20
-0.750000
30
18.712250
0
VERTEX
8
0
6
CONTINUOUS
62
252
70
192
10
-24.231238
20
-0.828142
30
18.709689
0
VERTEX
8
0
6
CONTINUOUS
62
252
70
192
10
-24.250061
20
-0.903909
30
18.702084
0
VERTEX
8
0
6
CONTINUOUS
62
252
70
192
10
-24.280798
20
-0.975000
30
18.689666
0
VERTEX
8
0
6
CONTINUOUS
62
252
70
192
10
-24.322513
20
-1.039254
30
18.672811
0
VERTEX
8
0
6
CONTINUOUS
62
252
70
192
10
-24.373940
20
-1.094720
30
18.652034
0
VERTEX
8
0
6
CONTINUOUS
62
252
70
192
10
-24.433516
20
-1.139711
30
18.627964
0
VERTEX
8
0
6
CONTINUOUS
62
252
70
192
10
-24.499430
20
-1.172862
30
18.601332
0
VERTEX
8
0
6
CONTINUOUS
62
252
70
192
10
-24.569680
20
-1.193163
30
18.572949
0
VERTEX
8
0
6
CONTINUOUS
62
252
70
192
10
-24.642132
20
-1.200000
30
18.543677
0
VERTEX
8
0
6
CONTINUOUS
62
252
70
192
10
-24.714584
20
-1.193163
30
18.514405
0
VERTEX
8
0
6
CONTINUOUS
62
252
70
192
10
-24.784834
20
-1.172862
30
18.486022
0
VERTEX
8
0
6
CONTINUOUS
62
252
70
192
10
-24.850748
20
-1.139711
30
18.459391
0
VERTEX
8
0
6
CONTINUOUS
62
252
70
192
10
-24.910324
20
-1.094720
30
18.435320
0
VERTEX
8
0
6
CONTINUOUS
62
252
70
192
10
-24.961751
20
-1.039254
30
18.414543
0
VERTEX
8
0
6
CONTINUOUS
62
252
70
192
10
-25.003466
20
-0.975000
30
18.397689
0
VERTEX
8
0
6
CONTINUOUS
62
252
70
192
10
-25.034202
20
-0.903909
30
18.385270
0
VERTEX
8
0
6
CONTINUOUS
62
252
70
192
10
-25.053026
20
-0.828142
30
18.377665
0
VERTEX
8
0
6
CONTINUOUS
62
252
70
192
10
-25.059365
20
-0.750000
30
18.375104
0
VERTEX
8
0
6
CONTINUOUS
62
252
70
192
10
-25.053026
20
-0.671858
30
18.377665
0
VERTEX
8
0
6
CONTINUOUS
62
252
70
192
10
-25.034202
20
-0.596091
30
18.385270
0
VERTEX
8
0
6
CONTINUOUS
62
252
70
192
10
-25.003466
20
-0.525000
30
18.397689
0
VERTEX
8
0
6
CONTINUOUS
62
252
70
192
10
-24.961751
20
-0.460746
30
18.414543
0
VERTEX
8
0
6
CONTINUOUS
62
252
70
192
10
-24.910324
20
-0.405280
30
18.435320
0
VERTEX
8
0
6
CONTINUOUS
62
252
70
192
10
-24.850748
20
-0.360289
30
18.459391
0
VERTEX
8
0
6
CONTINUOUS
62
252
70
192
10
-24.784834
20
-0.327138
30
18.486022
0
VERTEX
8
0
6
CONTINUOUS
62
252
70
192
10
-24.714584
20
-0.306837
30
18.514405
0
VERTEX
8
0
6
CONTINUOUS
62
252
70
192
10
-24.642132
20
-0.300000
30
18.543677
0
VERTEX
8
0
6
CONTINUOUS
62
252
70
192
10
-24.569680
20
-0.306837
30
18.572949
0
VERTEX
8
0
6
CONTINUOUS
62
252
70
192
10
-24.499430
20
-0.327138
30
18.601332
0
VERTEX
8
0
6
CONTINUOUS
62
252
70
192
10
-24.433516
20
-0.360289
30
18.627964
0
VERTEX
8
0
6
CONTINUOUS
62
252
70
192
10
-24.373940
20
-0.405280
30
18.652034
0
VERTEX
8
0
6
CONTINUOUS
62
252
70
192
10
-24.322513
20
-0.460746
30
18.672811
0
VERTEX
8
0
6
CONTINUOUS
62
252
70
192
10
-24.280798
20
-0.525000
30
18.689666
0
VERTEX
8
0
6
CONTINUOUS
62
252
70
192
10
-24.250061
20
-0.596091
30
18.702084
0
VERTEX
8
0
6
CONTINUOUS
62
252
70
192
10
-24.231238
20
-0.671858
30
18.709689
0
VERTEX
8
0
6
CONTINUOUS
62
252
70
192
10
-19.401666
20
-0.750000
30
4.371808
0
VERTEX
8
0
6
CONTINUOUS
62
252
70
192
10
-19.399206
20
-0.794645
30
4.371848
0
VERTEX
8
0
6
CONTINUOUS
62
252
70
192
10
-19.391832
20
-0.839788
30
4.371964
0
VERTEX
8
0
6
CONTINUOUS
62
252
70
192
10
-19.379550
20
-0.884510
30
4.372151
0
VERTEX
8
0
6
CONTINUOUS
62
252
70
192
10
-19.362368
20
-0.927894
30
4.372402
0
VERTEX
8
0
6
CONTINUOUS
62
252
70
192
10
-19.340500
20
-0.969115
30
4.372706
0
VERTEX
8
0
6
CONTINUOUS
62
252
70
192
10
-19.314652
20
-1.007560
30
4.373040
0
VERTEX
8
0
6
CONTINUOUS
62
252
70
192
10
-19.285597
20
-1.042649
30
4.373386
0
VERTEX
8
0
6
CONTINUOUS
62
252
70
192
10
-19.253983
20
-1.073922
30
4.373724
0
VERTEX
8
0
6
CONTINUOUS
62
252
70
192
10
-19.218982
20
-1.102336
30
4.374050
0
VERTEX
8
0
6
CONTINUOUS
62
252
70
192
10
-19.180710
20
-1.127851
30
4.374352
0
VERTEX
8
0
6
CONTINUOUS
62
252
70
192
10
-19.139725
20
-1.149985
30
4.374613
0
VERTEX
8
0
6
CONTINUOUS
62
252
70
192
10
-19.096583
20
-1.168257
30
4.374815
0
VERTEX
8
0
6
CONTINUOUS
62
252
70
192
10
-19.051906
20
-1.182345
30
4.374944
0
VERTEX
8
0
6
CONTINUOUS
62
252
70
192
10
-19.006449
20
-1.192279
30
4.374995
0
VERTEX
8
0
6
CONTINUOUS
62
252
70
192
10
-18.916297
20
-1.199998
30
4.374861
0
VERTEX
8
0
6
CONTINUOUS
62
252
70
192
10
-18.826073
20
-1.191849
30
4.374397
0
VERTEX
8
0
6
CONTINUOUS
62
252
70
192
10
-18.780632
20
-1.181734
30
4.374045
0
VERTEX
8
0
6
CONTINUOUS
62
252
70
192
10
-18.735982
20
-1.167505
30
4.373621
0
VERTEX
8
0
6
CONTINUOUS
62
252
70
192
10
-18.692861
20
-1.149152
30
4.373133
0
VERTEX
8
0
6
CONTINUOUS
62
252
70
192
10
-18.651874
20
-1.127004
30
4.372601
0
VERTEX
8
0
6
CONTINUOUS
62
252
70
192
10
-18.613574
20
-1.101532
30
4.372044
0
VERTEX
8
0
6
CONTINUOUS
62
252
70
192
10
-18.578509
20
-1.073205
30
4.371485
0
VERTEX
8
0
6
CONTINUOUS
62
252
70
192
10
-18.546780
20
-1.042042
30
4.370936
0
VERTEX
8
0
6
CONTINUOUS
62
252
70
192
10
-18.517559
20
-1.007075
30
4.370394
0
VERTEX
8
0
6
CONTINUOUS
62
252
70
192
10
-18.491517
20
-0.968754
30
4.369884
0
VERTEX
8
0
6
CONTINUOUS
62
252
70
192
10
-18.469450
20
-0.927652
30
4.369431
0
VERTEX
8
0
6
CONTINUOUS
62
252
70
192
10
-18.452081
20
-0.884368
30
4.369061
0
VERTEX
8
0
6
CONTINUOUS
62
252
70
192
10
-18.439647
20
-0.839723
30
4.368789
0
VERTEX
8
0
6
CONTINUOUS
62
252
70
192
10
-18.432171
20
-0.794628
30
4.368622
0
VERTEX
8
0
6
CONTINUOUS
62
252
70
192
10
-18.429674
20
-0.750000
30
4.368565
0
VERTEX
8
0
6
CONTINUOUS
62
252
70
192
10
-18.432171
20
-0.705372
30
4.368622
0
VERTEX
8
0
6
CONTINUOUS
62
252
70
192
10
-18.439647
20
-0.660277
30
4.368789
0
VERTEX
8
0
6
CONTINUOUS
62
252
70
192
10
-18.452081
20
-0.615632
30
4.369061
0
VERTEX
8
0
6
CONTINUOUS
62
252
70
192
10
-18.469450
20
-0.572348
30
4.369431
0
VERTEX
8
0
6
CONTINUOUS
62
252
70
192
10
-18.491517
20
-0.531246
30
4.369884
0
VERTEX
8
0
6
CONTINUOUS
62
252
70
192
10
-18.517559
20
-0.492925
30
4.370394
0
VERTEX
8
0
6
CONTINUOUS
62
252
70
192
10
-18.546780
20
-0.457958
30
4.370936
0
VERTEX
8
0
6
CONTINUOUS
62
252
70
192
10
-18.578509
20
-0.426795
30
4.371485
0
VERTEX
8
0
6
CONTINUOUS
62
252
70
192
10
-18.613574
20
-0.398468
30
4.372044
0
VERTEX
8
0
6
CONTINUOUS
62
252
70
192
10
-18.651874
20
-0.372996
30
4.372601
0
VERTEX
8
0
6
CONTINUOUS
62
252
70
192
10
-18.692861
20
-0.350848
30
4.373133
0
VERTEX
8
0
6
CONTINUOUS
62
252
70
192
10
-18.735982
20
-0.332495
30
4.373621
0
VERTEX
8
0
6
CONTINUOUS
62
252
70
192
10
-18.780632
20
-0.318266
30
4.374045
0
VERTEX
8
0
6
CONTINUOUS
62
252
70
192
10
-18.826073
20
-0.308151
30
4.374397
0
VERTEX
8
0
6
CONTINUOUS
62
252
70
192
10
-18.916297
20
-0.300002
30
4.374861
0
VERTEX
8
0
6
CONTINUOUS
62
252
70
192
10
-19.006449
20
-0.307721
30
4.374995
0
VERTEX
8
0
6
CONTINUOUS
62
252
70
192
10
-19.051906
20
-0.317655
30
4.374944
0
VERTEX
8
0
6
CONTINUOUS
62
252
70
192
10
-19.096583
20
-0.331743
30
4.374815
0
VERTEX
8
0
6
CONTINUOUS
62
252
70
192
10
-19.139725
20
-0.350015
30
4.374613
0
VERTEX
8
0
6
CONTINUOUS
62
252
70
192
10
-19.180710
20
-0.372149
30
4.374352
0
VERTEX
8
0
6
CONTINUOUS
62
252
70
192
10
-19.218982
20
-0.397664
30
4.374050
0
VERTEX
8
0
6
CONTINUOUS
62
252
70
192
10
-19.253983
20
-0.426078
30
4.373724
0
VERTEX
8
0
6
CONTINUOUS
62
252
70
192
10
-19.285597
20
-0.457351
30
4.373386
0
VERTEX
8
0
6
CONTINUOUS
62
252
70
192
10
-19.314652
20
-0.492440
30
4.373040
0
VERTEX
8
0
6
CONTINUOUS
62
252
70
192
10
-19.340500
20
-0.530885
30
4.372706
0
VERTEX
8
0
6
CONTINUOUS
62
252
70
192
10
-19.362368
20
-0.572106
30
4.372402
0
VERTEX
8
0
6
CONTINUOUS
62
252
70
192
10
-19.379550
20
-0.615490
30
4.372151
0
VERTEX
8
0
6
CONTINUOUS
62
252
70
192
10
-19.391832
20
-0.660212
30
4.371964
0
VERTEX
8
0
6
CONTINUOUS
62
252
70
192
10
-19.399206
20
-0.705355
30
4.371848
0
VERTEX
8
0
6
CONTINUOUS
62
252
70
128
10
0.000000
20
0.000000
30
0.000000
71
2
72
66
73
1
0
VERTEX
8
0
6
CONTINUOUS
62
252
70
128
10
0.000000
20
0.000000
30
0.000000
71
1
72
66
73
67
0
VERTEX
8
0
6
CONTINUOUS
62
252
70
128
10
0.000000
20
0.000000
30
0.000000
71
1
72
67
73
68
0
VERTEX
8
0
6
CONTINUOUS
62
252
70
128
10
0.000000
20
0.000000
30
0.000000
71
3
72
64
73
2
0
VERTEX
8
0
6
CONTINUOUS
62
252
70
128
10
0.000000
20
0.000000
30
0.000000
71
2
72
64
73
65
0
VERTEX
8
0
6
CONTINUOUS
62
252
70
128
10
0.000000
20
0.000000
30
0.000000
71
2
72
65
73
66
0
VERTEX
8
0
6
CONTINUOUS
62
252
70
128
10
0.000000
20
0.000000
30
0.000000
71
64
72
3
73
63
0
VERTEX
8
0
6
CONTINUOUS
62
252
70
128
10
0.000000
20
0.000000
30
0.000000
71
63
72
3
73
4
0
VERTEX
8
0
6
CONTINUOUS
62
252
70
128
10
0.000000
20
0.000000
30
0.000000
71
63
72
4
73
62
0
VERTEX
8
0
6
CONTINUOUS
62
252
70
128
10
0.000000
20
0.000000
30
0.000000
71
62
72
4
73
61
0
VERTEX
8
0
6
CONTINUOUS
62
252
70
128
10
0.000000
20
0.000000
30
0.000000
71
61
72
4
73
5
0
VERTEX
8
0
6
CONTINUOUS
62
252
70
128
10
0.000000
20
0.000000
30
0.000000
71
61
72
5
73
60
0
VERTEX
8
0
6
CONTINUOUS
62
252
70
128
10
0.000000
20
0.000000
30
0.000000
71
60
72
5
73
59
0
VERTEX
8
0
6
CONTINUOUS
62
252
70
128
10
0.000000
20
0.000000
30
0.000000
71
59
72
5
73
6
0
VERTEX
8
0
6
CONTINUOUS
62
252
70
128
10
0.000000
20
0.000000
30
0.000000
71
59
72
6
73
58
0
VERTEX
8
0
6
CONTINUOUS
62
252
70
128
10
0.000000
20
0.000000
30
0.000000
71
58
72
6
73
57
0
VERTEX
8
0
6
CONTINUOUS
62
252
70
128
10
0.000000
20
0.000000
30
0.000000
71
57
72
6
73
7
0
VERTEX
8
0
6
CONTINUOUS
62
252
70
128
10
0.000000
20
0.000000
30
0.000000
71
57
72
7
73
56
0
VERTEX
8
0
6
CONTINUOUS
62
252
70
128
10
0.000000
20
0.000000
30
0.000000
71
56
72
7
73
8
0
VERTEX
8
0
6
CONTINUOUS
62
252
70
128
10
0.000000
20
0.000000
30
0.000000
71
56
72
8
73
55
0
VERTEX
8
0
6
CONTINUOUS
62
252
70
128
10
0.000000
20
0.000000
30
0.000000
71
55
72
8
73
54
0
VERTEX
8
0
6
CONTINUOUS
62
252
70
128
10
0.000000
20
0.000000
30
0.000000
71
54
72
8
73
9
0
VERTEX
8
0
6
CONTINUOUS
62
252
70
128
10
0.000000
20
0.000000
30
0.000000
71
54
72
9
73
53
0
VERTEX
8
0
6
CONTINUOUS
62
252
70
128
10
0.000000
20
0.000000
30
0.000000
71
53
72
9
73
52
0
VERTEX
8
0
6
CONTINUOUS
62
252
70
128
10
0.000000
20
0.000000
30
0.000000
71
52
72
9
73
10
0
VERTEX
8
0
6
CONTINUOUS
62
252
70
128
10
0.000000
20
0.000000
30
0.000000
71
52
72
10
73
11
0
VERTEX
8
0
6
CONTINUOUS
62
252
70
128
10
0.000000
20
0.000000
30
0.000000
71
12
72
50
73
11
0
VERTEX
8
0
6
CONTINUOUS
62
252
70
128
10
0.000000
20
0.000000
30
0.000000
71
11
72
50
73
51
0
VERTEX
8
0
6
CONTINUOUS
62
252
70
128
10
0.000000
20
0.000000
30
0.000000
71
11
72
51
73
52
0
VERTEX
8
0
6
CONTINUOUS
62
252
70
128
10
0.000000
20
0.000000
30
0.000000
71
13
72
48
73
12
0
VERTEX
8
0
6
CONTINUOUS
62
252
70
128
10
0.000000
20
0.000000
30
0.000000
71
12
72
48
73
49
0
VERTEX
8
0
6
CONTINUOUS
62
252
70
128
10
0.000000
20
0.000000
30
0.000000
71
12
72
49
73
50
0
VERTEX
8
0
6
CONTINUOUS
62
252
70
128
10
0.000000
20
0.000000
30
0.000000
71
48
72
13
73
47
0
VERTEX
8
0
6
CONTINUOUS
62
252
70
128
10
0.000000
20
0.000000
30
0.000000
71
47
72
13
73
14
0
VERTEX
8
0
6
CONTINUOUS
62
252
70
128
10
0.000000
20
0.000000
30
0.000000
71
47
72
14
73
46
0
VERTEX
8
0
6
CONTINUOUS
62
252
70
128
10
0.000000
20
0.000000
30
0.000000
71
46
72
14
73
45
0
VERTEX
8
0
6
CONTINUOUS
62
252
70
128
10
0.000000
20
0.000000
30
0.000000
71
45
72
14
73
15
0
VERTEX
8
0
6
CONTINUOUS
62
252
70
128
10
0.000000
20
0.000000
30
0.000000
71
45
72
15
73
44
0
VERTEX
8
0
6
CONTINUOUS
62
252
70
128
10
0.000000
20
0.000000
30
0.000000
71
44
72
15
73
43
0
VERTEX
8
0
6
CONTINUOUS
62
252
70
128
10
0.000000
20
0.000000
30
0.000000
71
43
72
15
73
16
0
VERTEX
8
0
6
CONTINUOUS
62
252
70
128
10
0.000000
20
0.000000
30
0.000000
71
43
72
16
73
42
0
VERTEX
8
0
6
CONTINUOUS
62
252
70
128
10
0.000000
20
0.000000
30
0.000000
71
42
72
16
73
41
0
VERTEX
8
0
6
CONTINUOUS
62
252
70
128
10
0.000000
20
0.000000
30
0.000000
71
41
72
16
73
17
0
VERTEX
8
0
6
CONTINUOUS
62
252
70
128
10
0.000000
20
0.000000
30
0.000000
71
41
72
17
73
40
0
VERTEX
8
0
6
CONTINUOUS
62
252
70
128
10
0.000000
20
0.000000
30
0.000000
71
40
72
17
73
18
0
VERTEX
8
0
6
CONTINUOUS
62
252
70
128
10
0.000000
20
0.000000
30
0.000000
71
40
72
18
73
39
0
VERTEX
8
0
6
CONTINUOUS
62
252
70
128
10
0.000000
20
0.000000
30
0.000000
71
39
72
18
73
38
0
VERTEX
8
0
6
CONTINUOUS
62
252
70
128
10
0.000000
20
0.000000
30
0.000000
71
38
72
18
73
19
0
VERTEX
8
0
6
CONTINUOUS
62
252
70
128
10
0.000000
20
0.000000
30
0.000000
71
38
72
19
73
37
0
VERTEX
8
0
6
CONTINUOUS
62
252
70
128
10
0.000000
20
0.000000
30
0.000000
71
37
72
19
73
96
0
VERTEX
8
0
6
CONTINUOUS
62
252
70
128
10
0.000000
20
0.000000
30
0.000000
71
96
72
19
73
20
0
VERTEX
8
0
6
CONTINUOUS
62
252
70
128
10
0.000000
20
0.000000
30
0.000000
71
96
72
20
73
95
0
VERTEX
8
0
6
CONTINUOUS
62
252
70
128
10
0.000000
20
0.000000
30
0.000000
71
95
72
20
73
94
0
VERTEX
8
0
6
CONTINUOUS
62
252
70
128
10
0.000000
20
0.000000
30
0.000000
71
94
72
20
73
21
0
VERTEX
8
0
6
CONTINUOUS
62
252
70
128
10
0.000000
20
0.000000
30
0.000000
71
94
72
21
73
93
0
VERTEX
8
0
6
CONTINUOUS
62
252
70
128
10
0.000000
20
0.000000
30
0.000000
71
93
72
21
73
22
0
VERTEX
8
0
6
CONTINUOUS
62
252
70
128
10
0.000000
20
0.000000
30
0.000000
71
93
72
22
73
92
0
VERTEX
8
0
6
CONTINUOUS
62
252
70
128
10
0.000000
20
0.000000
30
0.000000
71
92
72
22
73
91
0
VERTEX
8
0
6
CONTINUOUS
62
252
70
128
10
0.000000
20
0.000000
30
0.000000
71
91
72
22
73
23
0
VERTEX
8
0
6
CONTINUOUS
62
252
70
128
10
0.000000
20
0.000000
30
0.000000
71
91
72
23
73
90
0
VERTEX
8
0
6
CONTINUOUS
62
252
70
128
10
0.000000
20
0.000000
30
0.000000
71
90
72
23
73
89
0
VERTEX
8
0
6
CONTINUOUS
62
252
70
128
10
0.000000
20
0.000000
30
0.000000
71
89
72
23
73
24
0
VERTEX
8
0
6
CONTINUOUS
62
252
70
128
10
0.000000
20
0.000000
30
0.000000
71
89
72
24
73
88
0
VERTEX
8
0
6
CONTINUOUS
62
252
70
128
10
0.000000
20
0.000000
30
0.000000
71
88
72
24
73
87
0
VERTEX
8
0
6
CONTINUOUS
62
252
70
128
10
0.000000
20
0.000000
30
0.000000
71
87
72
24
73
25
0
VERTEX
8
0
6
CONTINUOUS
62
252
70
128
10
0.000000
20
0.000000
30
0.000000
71
87
72
25
73
86
0
VERTEX
8
0
6
CONTINUOUS
62
252
70
128
10
0.000000
20
0.000000
30
0.000000
71
86
72
25
73
26
0
VERTEX
8
0
6
CONTINUOUS
62
252
70
128
10
0.000000
20
0.000000
30
0.000000
71
86
72
26
73
85
0
VERTEX
8
0
6
CONTINUOUS
62
252
70
128
10
0.000000
20
0.000000
30
0.000000
71
85
72
26
73
84
0
VERTEX
8
0
6
CONTINUOUS
62
252
70
128
10
0.000000
20
0.000000
30
0.000000
71
84
72
26
73
27
0
VERTEX
8
0
6
CONTINUOUS
62
252
70
128
10
0.000000
20
0.000000
30
0.000000
71
84
72
27
73
83
0
VERTEX
8
0
6
CONTINUOUS
62
252
70
128
10
0.000000
20
0.000000
30
0.000000
71
83
72
27
73
82
0
VERTEX
8
0
6
CONTINUOUS
62
252
70
128
10
0.000000
20
0.000000
30
0.000000
71
82
72
27
73
28
0
VERTEX
8
0
6
CONTINUOUS
62
252
70
128
10
0.000000
20
0.000000
30
0.000000
71
82
72
28
73
29
0
VERTEX
8
0
6
CONTINUOUS
62
252
70
128
10
0.000000
20
0.000000
30
0.000000
71
30
72
80
73
29
0
VERTEX
8
0
6
CONTINUOUS
62
252
70
128
10
0.000000
20
0.000000
30
0.000000
71
29
72
80
73
81
0
VERTEX
8
0
6
CONTINUOUS
62
252
70
128
10
0.000000
20
0.000000
30
0.000000
71
29
72
81
73
82
0
VERTEX
8
0
6
CONTINUOUS
62
252
70
128
10
0.000000
20
0.000000
30
0.000000
71
31
72
78
73
30
0
VERTEX
8
0
6
CONTINUOUS
62
252
70
128
10
0.000000
20
0.000000
30
0.000000
71
30
72
78
73
79
0
VERTEX
8
0
6
CONTINUOUS
62
252
70
128
10
0.000000
20
0.000000
30
0.000000
71
30
72
79
73
80
0
VERTEX
8
0
6
CONTINUOUS
62
252
70
128
10
0.000000
20
0.000000
30
0.000000
71
78
72
31
73
77
0
VERTEX
8
0
6
CONTINUOUS
62
252
70
128
10
0.000000
20
0.000000
30
0.000000
71
77
72
31
73
32
0
VERTEX
8
0
6
CONTINUOUS
62
252
70
128
10
0.000000
20
0.000000
30
0.000000
71
77
72
32
73
76
0
VERTEX
8
0
6
CONTINUOUS
62
252
70
128
10
0.000000
20
0.000000
30
0.000000
71
76
72
32
73
75
0
VERTEX
8
0
6
CONTINUOUS
62
252
70
128
10
0.000000
20
0.000000
30
0.000000
71
75
72
32
73
33
0
VERTEX
8
0
6
CONTINUOUS
62
252
70
128
10
0.000000
20
0.000000
30
0.000000
71
75
72
33
73
74
0
VERTEX
8
0
6
CONTINUOUS
62
252
70
128
10
0.000000
20
0.000000
30
0.000000
71
74
72
33
73
73
0
VERTEX
8
0
6
CONTINUOUS
62
252
70
128
10
0.000000
20
0.000000
30
0.000000
71
73
72
33
73
34
0
VERTEX
8
0
6
CONTINUOUS
62
252
70
128
10
0.000000
20
0.000000
30
0.000000
71
73
72
34
73
72
0
VERTEX
8
0
6
CONTINUOUS
62
252
70
128
10
0.000000
20
0.000000
30
0.000000
71
72
72
34
73
71
0
VERTEX
8
0
6
CONTINUOUS
62
252
70
128
10
0.000000
20
0.000000
30
0.000000
71
71
72
34
73
35
0
VERTEX
8
0
6
CONTINUOUS
62
252
70
128
10
0.000000
20
0.000000
30
0.000000
71
71
72
35
73
70
0
VERTEX
8
0
6
CONTINUOUS
62
252
70
128
10
0.000000
20
0.000000
30
0.000000
71
70
72
35
73
36
0
VERTEX
8
0
6
CONTINUOUS
62
252
70
128
10
0.000000
20
0.000000
30
0.000000
71
70
72
36
73
69
0
VERTEX
8
0
6
CONTINUOUS
62
252
70
128
10
0.000000
20
0.000000
30
0.000000
71
69
72
36
73
68
0
VERTEX
8
0
6
CONTINUOUS
62
252
70
128
10
0.000000
20
0.000000
30
0.000000
71
68
72
36
73
1
0
SEQEND
0
POLYLINE
66
1
8
0
6
CONTINUOUS
62
252
70
64
75
0
10
0.000000
20
0.000000
30
0.000000
0
VERTEX
8
0
6
CONTINUOUS
62
252
70
192
10
-24.224899
20
-0.750000
30
18.712250
0
VERTEX
8
0
6
CONTINUOUS
62
252
70
192
10
-24.231238
20
-0.671858
30
18.709689
0
VERTEX
8
0
6
CONTINUOUS
62
252
70
192
10
-24.250061
20
-0.596091
30
18.702084
0
VERTEX
8
0
6
CONTINUOUS
62
252
70
192
10
-24.280798
20
-0.525000
30
18.689666
0
VERTEX
8
0
6
CONTINUOUS
62
252
70
192
10
-24.322513
20
-0.460746
30
18.672811
0
VERTEX
8
0
6
CONTINUOUS
62
252
70
192
10
-24.373940
20
-0.405280
30
18.652034
0
VERTEX
8
0
6
CONTINUOUS
62
252
70
192
10
-24.433516
20
-0.360289
30
18.627964
0
VERTEX
8
0
6
CONTINUOUS
62
252
70
192
10
-24.499430
20
-0.327138
30
18.601332
0
VERTEX
8
0
6
CONTINUOUS
62
252
70
192
10
-24.569680
20
-0.306837
30
18.572949
0
VERTEX
8
0
6
CONTINUOUS
62
252
70
192
10
-24.642132
20
-0.300000
30
18.543677
0
VERTEX
8
0
6
CONTINUOUS
62
252
70
192
10
-24.714584
20
-0.306837
30
18.514405
0
VERTEX
8
0
6
CONTINUOUS
62
252
70
192
10
-24.784834
20
-0.327138
30
18.486022
0
VERTEX
8
0
6
CONTINUOUS
62
252
70
192
10
-24.850748
20
-0.360289
30
18.459391
0
VERTEX
8
0
6
CONTINUOUS
62
252
70
192
10
-24.910324
20
-0.405280
30
18.435320
0
VERTEX
8
0
6
CONTINUOUS
62
252
70
192
10
-24.961751
20
-0.460746
30
18.414543
0
VERTEX
8
0
6
CONTINUOUS
62
252
70
192
10
-25.003466
20
-0.525000
30
18.397689
0
VERTEX
8
0
6
CONTINUOUS
62
252
70
192
10
-25.034202
20
-0.596091
30
18.385270
0
VERTEX
8
0
6
CONTINUOUS
62
252
70
192
10
-25.053026
20
-0.671858
30
18.377665
0
VERTEX
8
0
6
CONTINUOUS
62
252
70
192
10
-25.059365
20
-0.750000
30
18.375104
0
VERTEX
8
0
6
CONTINUOUS
62
252
70
192
10
-25.053026
20
-0.828142
30
18.377665
0
VERTEX
8
0
6
CONTINUOUS
62
252
70
192
10
-25.034202
20
-0.903909
30
18.385270
0
VERTEX
8
0
6
CONTINUOUS
62
252
70
192
10
-25.003466
20
-0.975000
30
18.397689
0
VERTEX
8
0
6
CONTINUOUS
62
252
70
192
10
-24.961751
20
-1.039254
30
18.414543
0
VERTEX
8
0
6
CONTINUOUS
62
252
70
192
10
-24.910324
20
-1.094720
30
18.435320
0
VERTEX
8
0
6
CONTINUOUS
62
252
70
192
10
-24.850748
20
-1.139711
30
18.459391
0
VERTEX
8
0
6
CONTINUOUS
62
252
70
192
10
-24.784834
20
-1.172862
30
18.486022
0
VERTEX
8
0
6
CONTINUOUS
62
252
70
192
10
-24.714584
20
-1.193163
30
18.514405
0
VERTEX
8
0
6
CONTINUOUS
62
252
70
192
10
-24.642132
20
-1.200000
30
18.543677
0
VERTEX
8
0
6
CONTINUOUS
62
252
70
192
10
-24.569680
20
-1.193163
30
18.572949
0
VERTEX
8
0
6
CONTINUOUS
62
252
70
192
10
-24.499430
20
-1.172862
30
18.601332
0
VERTEX
8
0
6
CONTINUOUS
62
252
70
192
10
-24.433516
20
-1.139711
30
18.627964
0
VERTEX
8
0
6
CONTINUOUS
62
252
70
192
10
-24.373940
20
-1.094720
30
18.652034
0
VERTEX
8
0
6
CONTINUOUS
62
252
70
192
10
-24.322513
20
-1.039254
30
18.672811
0
VERTEX
8
0
6
CONTINUOUS
62
252
70
192
10
-24.280798
20
-0.975000
30
18.689666
0
VERTEX
8
0
6
CONTINUOUS
62
252
70
192
10
-24.250061
20
-0.903909
30
18.702084
0
VERTEX
8
0
6
CONTINUOUS
62
252
70
192
10
-24.231238
20
-0.828142
30
18.709689
0
VERTEX
8
0
6
CONTINUOUS
62
252
70
128
10
0.000000
20
0.000000
30
0.000000
71
2
72
17
73
1
0
VERTEX
8
0
6
CONTINUOUS
62
252
70
128
10
0.000000
20
0.000000
30
0.000000
71
1
72
17
73
18
0
VERTEX
8
0
6
CONTINUOUS
62
252
70
128
10
0.000000
20
0.000000
30
0.000000
71
1
72
18
73
19
0
VERTEX
8
0
6
CONTINUOUS
62
252
70
128
10
0.000000
20
0.000000
30
0.000000
71
2
72
3
73
17
0
VERTEX
8
0
6
CONTINUOUS
62
252
70
128
10
0.000000
20
0.000000
30
0.000000
71
17
72
3
73
16
0
VERTEX
8
0
6
CONTINUOUS
62
252
70
128
10
0.000000
20
0.000000
30
0.000000
71
16
72
3
73
15
0
VERTEX
8
0
6
CONTINUOUS
62
252
70
128
10
0.000000
20
0.000000
30
0.000000
71
15
72
3
73
4
0
VERTEX
8
0
6
CONTINUOUS
62
252
70
128
10
0.000000
20
0.000000
30
0.000000
71
15
72
4
73
5
0
VERTEX
8
0
6
CONTINUOUS
62
252
70
128
10
0.000000
20
0.000000
30
0.000000
71
6
72
11
73
5
0
VERTEX
8
0
6
CONTINUOUS
62
252
70
128
10
0.000000
20
0.000000
30
0.000000
71
5
72
11
73
12
0
VERTEX
8
0
6
CONTINUOUS
62
252
70
128
10
0.000000
20
0.000000
30
0.000000
71
5
72
12
73
13
0
VERTEX
8
0
6
CONTINUOUS
62
252
70
128
10
0.000000
20
0.000000
30
0.000000
71
6
72
7
73
11
0
VERTEX
8
0
6
CONTINUOUS
62
252
70
128
10
0.000000
20
0.000000
30
0.000000
71
11
72
7
73
10
0
VERTEX
8
0
6
CONTINUOUS
62
252
70
128
10
0.000000
20
0.000000
30
0.000000
71
10
72
7
73
9
0
VERTEX
8
0
6
CONTINUOUS
62
252
70
128
10
0.000000
20
0.000000
30
0.000000
71
9
72
7
73
8
0
VERTEX
8
0
6
CONTINUOUS
62
252
70
128
10
0.000000
20
0.000000
30
0.000000
71
13
72
14
73
5
0
VERTEX
8
0
6
CONTINUOUS
62
252
70
128
10
0.000000
20
0.000000
30
0.000000
71
5
72
14
73
15
0
VERTEX
8
0
6
CONTINUOUS
62
252
70
128
10
0.000000
20
0.000000
30
0.000000
71
19
72
20
73
1
0
VERTEX
8
0
6
CONTINUOUS
62
252
70
128
10
0.000000
20
0.000000
30
0.000000
71
1
72
20
73
21
0
VERTEX
8
0
6
CONTINUOUS
62
252
70
128
10
0.000000
20
0.000000
30
0.000000
71
1
72
21
73
22
0
VERTEX
8
0
6
CONTINUOUS
62
252
70
128
10
0.000000
20
0.000000
30
0.000000
71
23
72
33
73
22
0
VERTEX
8
0
6
CONTINUOUS
62
252
70
128
10
0.000000
20
0.000000
30
0.000000
71
22
72
33
73
34
0
VERTEX
8
0
6
CONTINUOUS
62
252
70
128
10
0.000000
20
0.000000
30
0.000000
71
22
72
34
73
35
0
VERTEX
8
0
6
CONTINUOUS
62
252
70
128
10
0.000000
20
0.000000
30
0.000000
71
23
72
24
73
33
0
VERTEX
8
0
6
CONTINUOUS
62
252
70
128
10
0.000000
20
0.000000
30
0.000000
71
33
72
24
73
25
0
VERTEX
8
0
6
CONTINUOUS
62
252
70
128
10
0.000000
20
0.000000
30
0.000000
71
33
72
25
73
32
0
VERTEX
8
0
6
CONTINUOUS
62
252
70
128
10
0.000000
20
0.000000
30
0.000000
71
32
72
25
73
31
0
VERTEX
8
0
6
CONTINUOUS
62
252
70
128
10
0.000000
20
0.000000
30
0.000000
71
31
72
25
73
30
0
VERTEX
8
0
6
CONTINUOUS
62
252
70
128
10
0.000000
20
0.000000
30
0.000000
71
30
72
25
73
29
0
VERTEX
8
0
6
CONTINUOUS
62
252
70
128
10
0.000000
20
0.000000
30
0.000000
71
29
72
25
73
26
0
VERTEX
8
0
6
CONTINUOUS
62
252
70
128
10
0.000000
20
0.000000
30
0.000000
71
29
72
26
73
27
0
VERTEX
8
0
6
CONTINUOUS
62
252
70
128
10
0.000000
20
0.000000
30
0.000000
71
27
72
28
73
29
0
VERTEX
8
0
6
CONTINUOUS
62
252
70
128
10
0.000000
20
0.000000
30
0.000000
71
35
72
36
73
22
0
VERTEX
8
0
6
CONTINUOUS
62
252
70
128
10
0.000000
20
0.000000
30
0.000000
71
22
72
36
73
1
0
SEQEND
0
POLYLINE
66
1
8
0
6
CONTINUOUS
62
252
70
64
75
0
10
0.000000
20
0.000000
30
0.000000
0
VERTEX
8
0
6
CONTINUOUS
62
252
70
192
10
-23.024899
20
-0.750000
30
18.712250
0
VERTEX
8
0
6
CONTINUOUS
62
252
70
192
10
-23.031238
20
-0.828142
30
18.709689
0
VERTEX
8
0
6
CONTINUOUS
62
252
70
192
10
-23.050061
20
-0.903909
30
18.702084
0
VERTEX
8
0
6
CONTINUOUS
62
252
70
192
10
-23.080798
20
-0.975000
30
18.689666
0
VERTEX
8
0
6
CONTINUOUS
62
252
70
192
10
-23.122513
20
-1.039254
30
18.672811
0
VERTEX
8
0
6
CONTINUOUS
62
252
70
192
10
-23.173940
20
-1.094720
30
18.652034
0
VERTEX
8
0
6
CONTINUOUS
62
252
70
192
10
-23.233516
20
-1.139711
30
18.627964
0
VERTEX
8
0
6
CONTINUOUS
62
252
70
192
10
-23.299430
20
-1.172862
30
18.601332
0
VERTEX
8
0
6
CONTINUOUS
62
252
70
192
10
-23.369680
20
-1.193163
30
18.572949
0
VERTEX
8
0
6
CONTINUOUS
62
252
70
192
10
-23.442132
20
-1.200000
30
18.543677
0
VERTEX
8
0
6
CONTINUOUS
62
252
70
192
10
-23.514584
20
-1.193163
30
18.514405
0
VERTEX
8
0
6
CONTINUOUS
62
252
70
192
10
-23.584834
20
-1.172862
30
18.486022
0
VERTEX
8
0
6
CONTINUOUS
62
252
70
192
10
-23.650748
20
-1.139711
30
18.459391
0
VERTEX
8
0
6
CONTINUOUS
62
252
70
192
10
-23.710324
20
-1.094720
30
18.435320
0
VERTEX
8
0
6
CONTINUOUS
62
252
70
192
10
-23.761751
20
-1.039254
30
18.414543
0
VERTEX
8
0
6
CONTINUOUS
62
252
70
192
10
-23.803466
20
-0.975000
30
18.397689
0
VERTEX
8
0
6
CONTINUOUS
62
252
70
192
10
-23.834202
20
-0.903909
30
18.385270
0
VERTEX
8
0
6
CONTINUOUS
62
252
70
192
10
-23.853026
20
-0.828142
30
18.377665
0
VERTEX
8
0
6
CONTINUOUS
62
252
70
192
10
-23.859365
20
-0.750000
30
18.375104
0
VERTEX
8
0
6
CONTINUOUS
62
252
70
192
10
-23.853026
20
-0.671858
30
18.377665
0
VERTEX
8
0
6
CONTINUOUS
62
252
70
192
10
-23.834202
20
-0.596091
30
18.385270
0
VERTEX
8
0
6
CONTINUOUS
62
252
70
192
10
-23.803466
20
-0.525000
30
18.397689
0
VERTEX
8
0
6
CONTINUOUS
62
252
70
192
10
-23.761751
20
-0.460746
30
18.414543
0
VERTEX
8
0
6
CONTINUOUS
62
252
70
192
10
-23.710324
20
-0.405280
30
18.435320
0
VERTEX
8
0
6
CONTINUOUS
62
252
70
192
10
-23.650748
20
-0.360289
30
18.459391
0
VERTEX
8
0
6
CONTINUOUS
62
252
70
192
10
-23.584834
20
-0.327138
30
18.486022
0
VERTEX
8
0
6
CONTINUOUS
62
252
70
192
10
-23.514584
20
-0.306837
30
18.514405
0
VERTEX
8
0
6
CONTINUOUS
62
252
70
192
10
-23.442132
20
-0.300000
30
18.543677
0
VERTEX
8
0
6
CONTINUOUS
62
252
70
192
10
-23.369680
20
-0.306837
30
18.572949
0
VERTEX
8
0
6
CONTINUOUS
62
252
70
192
10
-23.299430
20
-0.327138
30
18.601332
0
VERTEX
8
0
6
CONTINUOUS
62
252
70
192
10
-23.233516
20
-0.360289
30
18.627964
0
VERTEX
8
0
6
CONTINUOUS
62
252
70
192
10
-23.173940
20
-0.405280
30
18.652034
0
VERTEX
8
0
6
CONTINUOUS
62
252
70
192
10
-23.122513
20
-0.460746
30
18.672811
0
VERTEX
8
0
6
CONTINUOUS
62
252
70
192
10
-23.080798
20
-0.525000
30
18.689666
0
VERTEX
8
0
6
CONTINUOUS
62
252
70
192
10
-23.050061
20
-0.596091
30
18.702084
0
VERTEX
8
0
6
CONTINUOUS
62
252
70
192
10
-23.031238
20
-0.671858
30
18.709689
0
VERTEX
8
0
6
CONTINUOUS
62
252
70
192
10
-18.014596
20
-0.399767
30
4.355784
0
VERTEX
8
0
6
CONTINUOUS
62
252
70
192
10
-18.053552
20
-0.431721
30
4.357273
0
VERTEX
8
0
6
CONTINUOUS
62
252
70
192
10
-18.088603
20
-0.467423
30
4.358562
0
VERTEX
8
0
6
CONTINUOUS
62
252
70
192
10
-18.120353
20
-0.507843
30
4.359687
0
VERTEX
8
0
6
CONTINUOUS
62
252
70
192
10
-18.147712
20
-0.552220
30
4.360626
0
VERTEX
8
0
6
CONTINUOUS
62
252
70
192
10
-18.169562
20
-0.599744
30
4.361354
0
VERTEX
8
0
6
CONTINUOUS
62
252
70
192
10
-18.185235
20
-0.649403
30
4.361866
0
VERTEX
8
0
6
CONTINUOUS
62
252
70
192
10
-18.194662
20
-0.699920
30
4.362168
0
VERTEX
8
0
6
CONTINUOUS
62
252
70
192
10
-18.197811
20
-0.750000
30
4.362267
0
VERTEX
8
0
6
CONTINUOUS
62
252
70
192
10
-18.194662
20
-0.800080
30
4.362168
0
VERTEX
8
0
6
CONTINUOUS
62
252
70
192
10
-18.185235
20
-0.850597
30
4.361866
0
VERTEX
8
0
6
CONTINUOUS
62
252
70
192
10
-18.169562
20
-0.900256
30
4.361354
0
VERTEX
8
0
6
CONTINUOUS
62
252
70
192
10
-18.147712
20
-0.947780
30
4.360626
0
VERTEX
8
0
6
CONTINUOUS
62
252
70
192
10
-18.120353
20
-0.992157
30
4.359687
0
VERTEX
8
0
6
CONTINUOUS
62
252
70
192
10
-18.088603
20
-1.032577
30
4.358562
0
VERTEX
8
0
6
CONTINUOUS
62
252
70
192
10
-18.053552
20
-1.068279
30
4.357273
0
VERTEX
8
0
6
CONTINUOUS
62
252
70
192
10
-18.014596
20
-1.100233
30
4.355784
0
VERTEX
8
0
6
CONTINUOUS
62
252
70
192
10
-17.958965
20
-1.136378
30
4.356726
0
VERTEX
8
0
6
CONTINUOUS
62
252
70
192
10
-17.898057
20
-1.165071
30
4.357584
0
VERTEX
8
0
6
CONTINUOUS
62
252
70
192
10
-17.833734
20
-1.185242
30
4.358283
0
VERTEX
8
0
6
CONTINUOUS
62
252
70
192
10
-17.768181
20
-1.196787
30
4.358789
0
VERTEX
8
0
6
CONTINUOUS
62
252
70
192
10
-17.703688
20
-1.199944
30
4.359082
0
VERTEX
8
0
6
CONTINUOUS
62
252
70
192
10
-17.638782
20
-1.194855
30
4.359158
0
VERTEX
8
0
6
CONTINUOUS
62
252
70
192
10
-17.573295
20
-1.181389
30
4.359029
0
VERTEX
8
0
6
CONTINUOUS
62
252
70
192
10
-17.509500
20
-1.159362
30
4.358700
0
VERTEX
8
0
6
CONTINUOUS
62
252
70
192
10
-17.449487
20
-1.129059
30
4.358201
0
VERTEX
8
0
6
CONTINUOUS
62
252
70
192
10
-17.394958
20
-1.091770
30
4.357594
0
VERTEX
8
0
6
CONTINUOUS
62
252
70
192
10
-17.347340
20
-1.048690
30
4.356944
0
VERTEX
8
0
6
CONTINUOUS
62
252
70
192
10
-17.305394
20
-0.998244
30
4.356275
0
VERTEX
8
0
6
CONTINUOUS
62
252
70
192
10
-17.270438
20
-0.941131
30
4.355653
0
VERTEX
8
0
6
CONTINUOUS
62
252
70
192
10
-17.244738
20
-0.879102
30
4.355158
0
VERTEX
8
0
6
CONTINUOUS
62
252
70
192
10
-17.229260
20
-0.814484
30
4.354843
0
VERTEX
8
0
6
CONTINUOUS
62
252
70
192
10
-17.224086
20
-0.750000
30
4.354733
0
VERTEX
8
0
6
CONTINUOUS
62
252
70
192
10
-17.229260
20
-0.685516
30
4.354843
0
VERTEX
8
0
6
CONTINUOUS
62
252
70
192
10
-17.244738
20
-0.620898
30
4.355158
0
VERTEX
8
0
6
CONTINUOUS
62
252
70
192
10
-17.270438
20
-0.558869
30
4.355653
0
VERTEX
8
0
6
CONTINUOUS
62
252
70
192
10
-17.305394
20
-0.501756
30
4.356275
0
VERTEX
8
0
6
CONTINUOUS
62
252
70
192
10
-17.347340
20
-0.451310
30
4.356944
0
VERTEX
8
0
6
CONTINUOUS
62
252
70
192
10
-17.394958
20
-0.408230
30
4.357594
0
VERTEX
8
0
6
CONTINUOUS
62
252
70
192
10
-17.449487
20
-0.370941
30
4.358201
0
VERTEX
8
0
6
CONTINUOUS
62
252
70
192
10
-17.509500
20
-0.340638
30
4.358700
0
VERTEX
8
0
6
CONTINUOUS
62
252
70
192
10
-17.573295
20
-0.318611
30
4.359029
0
VERTEX
8
0
6
CONTINUOUS
62
252
70
192
10
-17.638782
20
-0.305145
30
4.359158
0
VERTEX
8
0
6
CONTINUOUS
62
252
70
192
10
-17.703688
20
-0.300056
30
4.359082
0
VERTEX
8
0
6
CONTINUOUS
62
252
70
192
10
-17.768181
20
-0.303213
30
4.358789
0
VERTEX
8
0
6
CONTINUOUS
62
252
70
192
10
-17.833734
20
-0.314758
30
4.358283
0
VERTEX
8
0
6
CONTINUOUS
62
252
70
192
10
-17.898057
20
-0.334929
30
4.357584
0
VERTEX
8
0
6
CONTINUOUS
62
252
70
192
10
-17.958965
20
-0.363622
30
4.356726
0
VERTEX
8
0
6
CONTINUOUS
62
252
70
128
10
0.000000
20
0.000000
30
0.000000
71
2
72
68
73
1
0
VERTEX
8
0
6
CONTINUOUS
62
252
70
128
10
0.000000
20
0.000000
30
0.000000
71
1
72
68
73
69
0
VERTEX
8
0
6
CONTINUOUS
62
252
70
128
10
0.000000
20
0.000000
30
0.000000
71
1
72
69
73
70
0
VERTEX
8
0
6
CONTINUOUS
62
252
70
128
10
0.000000
20
0.000000
30
0.000000
71
68
72
2
73
67
0
VERTEX
8
0
6
CONTINUOUS
62
252
70
128
10
0.000000
20
0.000000
30
0.000000
71
67
72
2
73
3
0
VERTEX
8
0
6
CONTINUOUS
62
252
70
128
10
0.000000
20
0.000000
30
0.000000
71
67
72
3
73
66
0
VERTEX
8
0
6
CONTINUOUS
62
252
70
128
10
0.000000
20
0.000000
30
0.000000
71
66
72
3
73
4
0
VERTEX
8
0
6
CONTINUOUS
62
252
70
128
10
0.000000
20
0.000000
30
0.000000
71
66
72
4
73
65
0
VERTEX
8
0
6
CONTINUOUS
62
252
70
128
10
0.000000
20
0.000000
30
0.000000
71
65
72
4
73
5
0
VERTEX
8
0
6
CONTINUOUS
62
252
70
128
10
0.000000
20
0.000000
30
0.000000
71
65
72
5
73
64
0
VERTEX
8
0
6
CONTINUOUS
62
252
70
128
10
0.000000
20
0.000000
30
0.000000
71
64
72
5
73
6
0
VERTEX
8
0
6
CONTINUOUS
62
252
70
128
10
0.000000
20
0.000000
30
0.000000
71
64
72
6
73
63
0
VERTEX
8
0
6
CONTINUOUS
62
252
70
128
10
0.000000
20
0.000000
30
0.000000
71
63
72
6
73
62
0
VERTEX
8
0
6
CONTINUOUS
62
252
70
128
10
0.000000
20
0.000000
30
0.000000
71
62
72
6
73
7
0
VERTEX
8
0
6
CONTINUOUS
62
252
70
128
10
0.000000
20
0.000000
30
0.000000
71
62
72
7
73
61
0
VERTEX
8
0
6
CONTINUOUS
62
252
70
128
10
0.000000
20
0.000000
30
0.000000
71
61
72
7
73
8
0
VERTEX
8
0
6
CONTINUOUS
62
252
70
128
10
0.000000
20
0.000000
30
0.000000
71
61
72
8
73
60
0
VERTEX
8
0
6
CONTINUOUS
62
252
70
128
10
0.000000
20
0.000000
30
0.000000
71
60
72
8
73
9
0
VERTEX
8
0
6
CONTINUOUS
62
252
70
128
10
0.000000
20
0.000000
30
0.000000
71
60
72
9
73
59
0
VERTEX
8
0
6
CONTINUOUS
62
252
70
128
10
0.000000
20
0.000000
30
0.000000
71
59
72
9
73
10
0
VERTEX
8
0
6
CONTINUOUS
62
252
70
128
10
0.000000
20
0.000000
30
0.000000
71
59
72
10
73
58
0
VERTEX
8
0
6
CONTINUOUS
62
252
70
128
10
0.000000
20
0.000000
30
0.000000
71
58
72
10
73
57
0
VERTEX
8
0
6
CONTINUOUS
62
252
70
128
10
0.000000
20
0.000000
30
0.000000
71
57
72
10
73
11
0
VERTEX
8
0
6
CONTINUOUS
62
252
70
128
10
0.000000
20
0.000000
30
0.000000
71
57
72
11
73
56
0
VERTEX
8
0
6
CONTINUOUS
62
252
70
128
10
0.000000
20
0.000000
30
0.000000
71
56
72
11
73
12
0
VERTEX
8
0
6
CONTINUOUS
62
252
70
128
10
0.000000
20
0.000000
30
0.000000
71
56
72
12
73
55
0
VERTEX
8
0
6
CONTINUOUS
62
252
70
128
10
0.000000
20
0.000000
30
0.000000
71
55
72
12
73
13
0
VERTEX
8
0
6
CONTINUOUS
62
252
70
128
10
0.000000
20
0.000000
30
0.000000
71
55
72
13
73
54
0
VERTEX
8
0
6
CONTINUOUS
62
252
70
128
10
0.000000
20
0.000000
30
0.000000
71
54
72
13
73
53
0
VERTEX
8
0
6
CONTINUOUS
62
252
70
128
10
0.000000
20
0.000000
30
0.000000
71
53
72
13
73
14
0
VERTEX
8
0
6
CONTINUOUS
62
252
70
128
10
0.000000
20
0.000000
30
0.000000
71
53
72
14
73
52
0
VERTEX
8
0
6
CONTINUOUS
62
252
70
128
10
0.000000
20
0.000000
30
0.000000
71
52
72
14
73
15
0
VERTEX
8
0
6
CONTINUOUS
62
252
70
128
10
0.000000
20
0.000000
30
0.000000
71
52
72
15
73
51
0
VERTEX
8
0
6
CONTINUOUS
62
252
70
128
10
0.000000
20
0.000000
30
0.000000
71
51
72
15
73
50
0
VERTEX
8
0
6
CONTINUOUS
62
252
70
128
10
0.000000
20
0.000000
30
0.000000
71
50
72
15
73
16
0
VERTEX
8
0
6
CONTINUOUS
62
252
70
128
10
0.000000
20
0.000000
30
0.000000
71
50
72
16
73
49
0
VERTEX
8
0
6
CONTINUOUS
62
252
70
128
10
0.000000
20
0.000000
30
0.000000
71
49
72
16
73
17
0
VERTEX
8
0
6
CONTINUOUS
62
252
70
128
10
0.000000
20
0.000000
30
0.000000
71
49
72
17
73
48
0
VERTEX
8
0
6
CONTINUOUS
62
252
70
128
10
0.000000
20
0.000000
30
0.000000
71
48
72
17
73
47
0
VERTEX
8
0
6
CONTINUOUS
62
252
70
128
10
0.000000
20
0.000000
30
0.000000
71
47
72
17
73
18
0
VERTEX
8
0
6
CONTINUOUS
62
252
70
128
10
0.000000
20
0.000000
30
0.000000
71
47
72
18
73
46
0
VERTEX
8
0
6
CONTINUOUS
62
252
70
128
10
0.000000
20
0.000000
30
0.000000
71
46
72
18
73
19
0
VERTEX
8
0
6
CONTINUOUS
62
252
70
128
10
0.000000
20
0.000000
30
0.000000
71
46
72
19
73
45
0
VERTEX
8
0
6
CONTINUOUS
62
252
70
128
10
0.000000
20
0.000000
30
0.000000
71
45
72
19
73
44
0
VERTEX
8
0
6
CONTINUOUS
62
252
70
128
10
0.000000
20
0.000000
30
0.000000
71
44
72
19
73
20
0
VERTEX
8
0
6
CONTINUOUS
62
252
70
128
10
0.000000
20
0.000000
30
0.000000
71
44
72
20
73
43
0
VERTEX
8
0
6
CONTINUOUS
62
252
70
128
10
0.000000
20
0.000000
30
0.000000
71
43
72
20
73
21
0
VERTEX
8
0
6
CONTINUOUS
62
252
70
128
10
0.000000
20
0.000000
30
0.000000
71
43
72
21
73
42
0
VERTEX
8
0
6
CONTINUOUS
62
252
70
128
10
0.000000
20
0.000000
30
0.000000
71
42
72
21
73
41
0
VERTEX
8
0
6
CONTINUOUS
62
252
70
128
10
0.000000
20
0.000000
30
0.000000
71
41
72
21
73
22
0
VERTEX
8
0
6
CONTINUOUS
62
252
70
128
10
0.000000
20
0.000000
30
0.000000
71
41
72
22
73
40
0
VERTEX
8
0
6
CONTINUOUS
62
252
70
128
10
0.000000
20
0.000000
30
0.000000
71
40
72
22
73
23
0
VERTEX
8
0
6
CONTINUOUS
62
252
70
128
10
0.000000
20
0.000000
30
0.000000
71
40
72
23
73
39
0
VERTEX
8
0
6
CONTINUOUS
62
252
70
128
10
0.000000
20
0.000000
30
0.000000
71
39
72
23
73
38
0
VERTEX
8
0
6
CONTINUOUS
62
252
70
128
10
0.000000
20
0.000000
30
0.000000
71
38
72
23
73
24
0
VERTEX
8
0
6
CONTINUOUS
62
252
70
128
10
0.000000
20
0.000000
30
0.000000
71
38
72
24
73
37
0
VERTEX
8
0
6
CONTINUOUS
62
252
70
128
10
0.000000
20
0.000000
30
0.000000
71
37
72
24
73
25
0
VERTEX
8
0
6
CONTINUOUS
62
252
70
128
10
0.000000
20
0.000000
30
0.000000
71
37
72
25
73
84
0
VERTEX
8
0
6
CONTINUOUS
62
252
70
128
10
0.000000
20
0.000000
30
0.000000
71
84
72
25
73
83
0
VERTEX
8
0
6
CONTINUOUS
62
252
70
128
10
0.000000
20
0.000000
30
0.000000
71
83
72
25
73
26
0
VERTEX
8
0
6
CONTINUOUS
62
252
70
128
10
0.000000
20
0.000000
30
0.000000
71
83
72
26
73
82
0
VERTEX
8
0
6
CONTINUOUS
62
252
70
128
10
0.000000
20
0.000000
30
0.000000
71
82
72
26
73
27
0
VERTEX
8
0
6
CONTINUOUS
62
252
70
128
10
0.000000
20
0.000000
30
0.000000
71
82
72
27
73
81
0
VERTEX
8
0
6
CONTINUOUS
62
252
70
128
10
0.000000
20
0.000000
30
0.000000
71
81
72
27
73
28
0
VERTEX
8
0
6
CONTINUOUS
62
252
70
128
10
0.000000
20
0.000000
30
0.000000
71
81
72
28
73
80
0
VERTEX
8
0
6
CONTINUOUS
62
252
70
128
10
0.000000
20
0.000000
30
0.000000
71
80
72
28
73
79
0
VERTEX
8
0
6
CONTINUOUS
62
252
70
128
10
0.000000
20
0.000000
30
0.000000
71
79
72
28
73
29
0
VERTEX
8
0
6
CONTINUOUS
62
252
70
128
10
0.000000
20
0.000000
30
0.000000
71
79
72
29
73
78
0
VERTEX
8
0
6
CONTINUOUS
62
252
70
128
10
0.000000
20
0.000000
30
0.000000
71
78
72
29
73
30
0
VERTEX
8
0
6
CONTINUOUS
62
252
70
128
10
0.000000
20
0.000000
30
0.000000
71
78
72
30
73
77
0
VERTEX
8
0
6
CONTINUOUS
62
252
70
128
10
0.000000
20
0.000000
30
0.000000
71
77
72
30
73
31
0
VERTEX
8
0
6
CONTINUOUS
62
252
70
128
10
0.000000
20
0.000000
30
0.000000
71
77
72
31
73
76
0
VERTEX
8
0
6
CONTINUOUS
62
252
70
128
10
0.000000
20
0.000000
30
0.000000
71
76
72
31
73
32
0
VERTEX
8
0
6
CONTINUOUS
62
252
70
128
10
0.000000
20
0.000000
30
0.000000
71
76
72
32
73
75
0
VERTEX
8
0
6
CONTINUOUS
62
252
70
128
10
0.000000
20
0.000000
30
0.000000
71
75
72
32
73
74
0
VERTEX
8
0
6
CONTINUOUS
62
252
70
128
10
0.000000
20
0.000000
30
0.000000
71
74
72
32
73
33
0
VERTEX
8
0
6
CONTINUOUS
62
252
70
128
10
0.000000
20
0.000000
30
0.000000
71
74
72
33
73
73
0
VERTEX
8
0
6
CONTINUOUS
62
252
70
128
10
0.000000
20
0.000000
30
0.000000
71
73
72
33
73
34
0
VERTEX
8
0
6
CONTINUOUS
62
252
70
128
10
0.000000
20
0.000000
30
0.000000
71
73
72
34
73
72
0
VERTEX
8
0
6
CONTINUOUS
62
252
70
128
10
0.000000
20
0.000000
30
0.000000
71
72
72
34
73
35
0
VERTEX
8
0
6
CONTINUOUS
62
252
70
128
10
0.000000
20
0.000000
30
0.000000
71
72
72
35
73
71
0
VERTEX
8
0
6
CONTINUOUS
62
252
70
128
10
0.000000
20
0.000000
30
0.000000
71
71
72
35
73
36
0
VERTEX
8
0
6
CONTINUOUS
62
252
70
128
10
0.000000
20
0.000000
30
0.000000
71
71
72
36
73
70
0
VERTEX
8
0
6
CONTINUOUS
62
252
70
128
10
0.000000
20
0.000000
30
0.000000
71
70
72
36
73
1
0
SEQEND
0
POLYLINE
66
1
8
0
6
CONTINUOUS
62
252
70
64
75
0
10
0.000000
20
0.000000
30
0.000000
0
VERTEX
8
0
6
CONTINUOUS
62
252
70
192
10
-23.024899
20
-0.750000
30
18.712250
0
VERTEX
8
0
6
CONTINUOUS
62
252
70
192
10
-23.031238
20
-0.671858
30
18.709689
0
VERTEX
8
0
6
CONTINUOUS
62
252
70
192
10
-23.050061
20
-0.596091
30
18.702084
0
VERTEX
8
0
6
CONTINUOUS
62
252
70
192
10
-23.080798
20
-0.525000
30
18.689666
0
VERTEX
8
0
6
CONTINUOUS
62
252
70
192
10
-23.122513
20
-0.460746
30
18.672811
0
VERTEX
8
0
6
CONTINUOUS
62
252
70
192
10
-23.173940
20
-0.405280
30
18.652034
0
VERTEX
8
0
6
CONTINUOUS
62
252
70
192
10
-23.233516
20
-0.360289
30
18.627964
0
VERTEX
8
0
6
CONTINUOUS
62
252
70
192
10
-23.299430
20
-0.327138
30
18.601332
0
VERTEX
8
0
6
CONTINUOUS
62
252
70
192
10
-23.369680
20
-0.306837
30
18.572949
0
VERTEX
8
0
6
CONTINUOUS
62
252
70
192
10
-23.442132
20
-0.300000
30
18.543677
0
VERTEX
8
0
6
CONTINUOUS
62
252
70
192
10
-23.514584
20
-0.306837
30
18.514405
0
VERTEX
8
0
6
CONTINUOUS
62
252
70
192
10
-23.584834
20
-0.327138
30
18.486022
0
VERTEX
8
0
6
CONTINUOUS
62
252
70
192
10
-23.650748
20
-0.360289
30
18.459391
0
VERTEX
8
0
6
CONTINUOUS
62
252
70
192
10
-23.710324
20
-0.405280
30
18.435320
0
VERTEX
8
0
6
CONTINUOUS
62
252
70
192
10
-23.761751
20
-0.460746
30
18.414543
0
VERTEX
8
0
6
CONTINUOUS
62
252
70
192
10
-23.803466
20
-0.525000
30
18.397689
0
VERTEX
8
0
6
CONTINUOUS
62
252
70
192
10
-23.834202
20
-0.596091
30
18.385270
0
VERTEX
8
0
6
CONTINUOUS
62
252
70
192
10
-23.853026
20
-0.671858
30
18.377665
0
VERTEX
8
0
6
CONTINUOUS
62
252
70
192
10
-23.859365
20
-0.750000
30
18.375104
0
VERTEX
8
0
6
CONTINUOUS
62
252
70
192
10
-23.853026
20
-0.828142
30
18.377665
0
VERTEX
8
0
6
CONTINUOUS
62
252
70
192
10
-23.834202
20
-0.903909
30
18.385270
0
VERTEX
8
0
6
CONTINUOUS
62
252
70
192
10
-23.803466
20
-0.975000
30
18.397689
0
VERTEX
8
0
6
CONTINUOUS
62
252
70
192
10
-23.761751
20
-1.039254
30
18.414543
0
VERTEX
8
0
6
CONTINUOUS
62
252
70
192
10
-23.710324
20
-1.094720
30
18.435320
0
VERTEX
8
0
6
CONTINUOUS
62
252
70
192
10
-23.650748
20
-1.139711
30
18.459391
0
VERTEX
8
0
6
CONTINUOUS
62
252
70
192
10
-23.584834
20
-1.172862
30
18.486022
0
VERTEX
8
0
6
CONTINUOUS
62
252
70
192
10
-23.514584
20
-1.193163
30
18.514405
0
VERTEX
8
0
6
CONTINUOUS
62
252
70
192
10
-23.442132
20
-1.200000
30
18.543677
0
VERTEX
8
0
6
CONTINUOUS
62
252
70
192
10
-23.369680
20
-1.193163
30
18.572949
0
VERTEX
8
0
6
CONTINUOUS
62
252
70
192
10
-23.299430
20
-1.172862
30
18.601332
0
VERTEX
8
0
6
CONTINUOUS
62
252
70
192
10
-23.233516
20
-1.139711
30
18.627964
0
VERTEX
8
0
6
CONTINUOUS
62
252
70
192
10
-23.173940
20
-1.094720
30
18.652034
0
VERTEX
8
0
6
CONTINUOUS
62
252
70
192
10
-23.122513
20
-1.039254
30
18.672811
0
VERTEX
8
0
6
CONTINUOUS
62
252
70
192
10
-23.080798
20
-0.975000
30
18.689666
0
VERTEX
8
0
6
CONTINUOUS
62
252
70
192
10
-23.050061
20
-0.903909
30
18.702084
0
VERTEX
8
0
6
CONTINUOUS
62
252
70
192
10
-23.031238
20
-0.828142
30
18.709689
0
VERTEX
8
0
6
CONTINUOUS
62
252
70
128
10
0.000000
20
0.000000
30
0.000000
71
36
72
1
73
20
0
VERTEX
8
0
6
CONTINUOUS
62
252
70
128
10
0.000000
20
0.000000
30
0.000000
71
20
72
1
73
2
0
VERTEX
8
0
6
CONTINUOUS
62
252
70
128
10
0.000000
20
0.000000
30
0.000000
71
20
72
2
73
19
0
VERTEX
8
0
6
CONTINUOUS
62
252
70
128
10
0.000000
20
0.000000
30
0.000000
71
19
72
2
73
18
0
VERTEX
8
0
6
CONTINUOUS
62
252
70
128
10
0.000000
20
0.000000
30
0.000000
71
18
72
2
73
17
0
VERTEX
8
0
6
CONTINUOUS
62
252
70
128
10
0.000000
20
0.000000
30
0.000000
71
17
72
2
73
16
0
VERTEX
8
0
6
CONTINUOUS
62
252
70
128
10
0.000000
20
0.000000
30
0.000000
71
16
72
2
73
3
0
VERTEX
8
0
6
CONTINUOUS
62
252
70
128
10
0.000000
20
0.000000
30
0.000000
71
16
72
3
73
4
0
VERTEX
8
0
6
CONTINUOUS
62
252
70
128
10
0.000000
20
0.000000
30
0.000000
71
5
72
14
73
4
0
VERTEX
8
0
6
CONTINUOUS
62
252
70
128
10
0.000000
20
0.000000
30
0.000000
71
4
72
14
73
15
0
VERTEX
8
0
6
CONTINUOUS
62
252
70
128
10
0.000000
20
0.000000
30
0.000000
71
4
72
15
73
16
0
VERTEX
8
0
6
CONTINUOUS
62
252
70
128
10
0.000000
20
0.000000
30
0.000000
71
5
72
6
73
14
0
VERTEX
8
0
6
CONTINUOUS
62
252
70
128
10
0.000000
20
0.000000
30
0.000000
71
14
72
6
73
7
0
VERTEX
8
0
6
CONTINUOUS
62
252
70
128
10
0.000000
20
0.000000
30
0.000000
71
14
72
7
73
13
0
VERTEX
8
0
6
CONTINUOUS
62
252
70
128
10
0.000000
20
0.000000
30
0.000000
71
13
72
7
73
12
0
VERTEX
8
0
6
CONTINUOUS
62
252
70
128
10
0.000000
20
0.000000
30
0.000000
71
12
72
7
73
11
0
VERTEX
8
0
6
CONTINUOUS
62
252
70
128
10
0.000000
20
0.000000
30
0.000000
71
11
72
7
73
10
0
VERTEX
8
0
6
CONTINUOUS
62
252
70
128
10
0.000000
20
0.000000
30
0.000000
71
10
72
7
73
9
0
VERTEX
8
0
6
CONTINUOUS
62
252
70
128
10
0.000000
20
0.000000
30
0.000000
71
9
72
7
73
8
0
VERTEX
8
0
6
CONTINUOUS
62
252
70
128
10
0.000000
20
0.000000
30
0.000000
71
20
72
21
73
36
0
VERTEX
8
0
6
CONTINUOUS
62
252
70
128
10
0.000000
20
0.000000
30
0.000000
71
36
72
21
73
22
0
VERTEX
8
0
6
CONTINUOUS
62
252
70
128
10
0.000000
20
0.000000
30
0.000000
71
36
72
22
73
35
0
VERTEX
8
0
6
CONTINUOUS
62
252
70
128
10
0.000000
20
0.000000
30
0.000000
71
35
72
22
73
34
0
VERTEX
8
0
6
CONTINUOUS
62
252
70
128
10
0.000000
20
0.000000
30
0.000000
71
34
72
22
73
33
0
VERTEX
8
0
6
CONTINUOUS
62
252
70
128
10
0.000000
20
0.000000
30
0.000000
71
33
72
22
73
32
0
VERTEX
8
0
6
CONTINUOUS
62
252
70
128
10
0.000000
20
0.000000
30
0.000000
71
32
72
22
73
31
0
VERTEX
8
0
6
CONTINUOUS
62
252
70
128
10
0.000000
20
0.000000
30
0.000000
71
31
72
22
73
23
0
VERTEX
8
0
6
CONTINUOUS
62
252
70
128
10
0.000000
20
0.000000
30
0.000000
71
31
72
23
73
24
0
VERTEX
8
0
6
CONTINUOUS
62
252
70
128
10
0.000000
20
0.000000
30
0.000000
71
24
72
25
73
31
0
VERTEX
8
0
6
CONTINUOUS
62
252
70
128
10
0.000000
20
0.000000
30
0.000000
71
31
72
25
73
26
0
VERTEX
8
0
6
CONTINUOUS
62
252
70
128
10
0.000000
20
0.000000
30
0.000000
71
31
72
26
73
30
0
VERTEX
8
0
6
CONTINUOUS
62
252
70
128
10
0.000000
20
0.000000
30
0.000000
71
30
72
26
73
29
0
VERTEX
8
0
6
CONTINUOUS
62
252
70
128
10
0.000000
20
0.000000
30
0.000000
71
29
72
26
73
28
0
VERTEX
8
0
6
CONTINUOUS
62
252
70
128
10
0.000000
20
0.000000
30
0.000000
71
28
72
26
73
27
0
SEQEND
0
POLYLINE
66
1
8
0
6
CONTINUOUS
62
252
70
64
75
0
10
0.000000
20
0.000000
30
0.000000
0
VERTEX
8
0
6
CONTINUOUS
62
252
70
192
10
-18.014596
20
-0.399767
30
4.355784
0
VERTEX
8
0
6
CONTINUOUS
62
252
70
192
10
-17.958965
20
-0.363622
30
4.356726
0
VERTEX
8
0
6
CONTINUOUS
62
252
70
192
10
-17.898057
20
-0.334929
30
4.357584
0
VERTEX
8
0
6
CONTINUOUS
62
252
70
192
10
-17.833734
20
-0.314758
30
4.358283
0
VERTEX
8
0
6
CONTINUOUS
62
252
70
192
10
-17.768181
20
-0.303213
30
4.358789
0
VERTEX
8
0
6
CONTINUOUS
62
252
70
192
10
-17.703688
20
-0.300056
30
4.359082
0
VERTEX
8
0
6
CONTINUOUS
62
252
70
192
10
-17.638782
20
-0.305145
30
4.359158
0
VERTEX
8
0
6
CONTINUOUS
62
252
70
192
10
-17.573295
20
-0.318611
30
4.359029
0
VERTEX
8
0
6
CONTINUOUS
62
252
70
192
10
-17.509500
20
-0.340638
30
4.358700
0
VERTEX
8
0
6
CONTINUOUS
62
252
70
192
10
-17.449487
20
-0.370941
30
4.358201
0
VERTEX
8
0
6
CONTINUOUS
62
252
70
192
10
-17.394958
20
-0.408230
30
4.357594
0
VERTEX
8
0
6
CONTINUOUS
62
252
70
192
10
-17.347340
20
-0.451310
30
4.356944
0
VERTEX
8
0
6
CONTINUOUS
62
252
70
192
10
-17.305394
20
-0.501756
30
4.356275
0
VERTEX
8
0
6
CONTINUOUS
62
252
70
192
10
-17.270438
20
-0.558869
30
4.355653
0
VERTEX
8
0
6
CONTINUOUS
62
252
70
192
10
-17.244738
20
-0.620898
30
4.355158
0
VERTEX
8
0
6
CONTINUOUS
62
252
70
192
10
-17.229260
20
-0.685516
30
4.354843
0
VERTEX
8
0
6
CONTINUOUS
62
252
70
192
10
-17.224086
20
-0.750000
30
4.354733
0
VERTEX
8
0
6
CONTINUOUS
62
252
70
192
10
-17.229260
20
-0.814484
30
4.354843
0
VERTEX
8
0
6
CONTINUOUS
62
252
70
192
10
-17.244738
20
-0.879102
30
4.355158
0
VERTEX
8
0
6
CONTINUOUS
62
252
70
192
10
-17.270438
20
-0.941131
30
4.355653
0
VERTEX
8
0
6
CONTINUOUS
62
252
70
192
10
-17.305394
20
-0.998244
30
4.356275
0
VERTEX
8
0
6
CONTINUOUS
62
252
70
192
10
-17.347340
20
-1.048690
30
4.356944
0
VERTEX
8
0
6
CONTINUOUS
62
252
70
192
10
-17.394958
20
-1.091770
30
4.357594
0
VERTEX
8
0
6
CONTINUOUS
62
252
70
192
10
-17.449487
20
-1.129059
30
4.358201
0
VERTEX
8
0
6
CONTINUOUS
62
252
70
192
10
-17.509500
20
-1.159362
30
4.358700
0
VERTEX
8
0
6
CONTINUOUS
62
252
70
192
10
-17.573295
20
-1.181389
30
4.359029
0
VERTEX
8
0
6
CONTINUOUS
62
252
70
192
10
-17.638782
20
-1.194855
30
4.359158
0
VERTEX
8
0
6
CONTINUOUS
62
252
70
192
10
-17.703688
20
-1.199944
30
4.359082
0
VERTEX
8
0
6
CONTINUOUS
62
252
70
192
10
-17.768181
20
-1.196787
30
4.358789
0
VERTEX
8
0
6
CONTINUOUS
62
252
70
192
10
-17.833734
20
-1.185242
30
4.358283
0
VERTEX
8
0
6
CONTINUOUS
62
252
70
192
10
-17.898057
20
-1.165071
30
4.357584
0
VERTEX
8
0
6
CONTINUOUS
62
252
70
192
10
-17.958965
20
-1.136378
30
4.356726
0
VERTEX
8
0
6
CONTINUOUS
62
252
70
192
10
-18.014596
20
-1.100233
30
4.355784
0
VERTEX
8
0
6
CONTINUOUS
62
252
70
192
10
-18.014596
20
-15.000000
30
4.355784
0
VERTEX
8
0
6
CONTINUOUS
62
252
70
192
10
-14.754924
20
-15.000000
30
4.150064
0
VERTEX
8
0
6
CONTINUOUS
62
252
70
192
10
-11.571657
20
-15.000000
30
3.418907
0
VERTEX
8
0
6
CONTINUOUS
62
252
70
192
10
-8.548920
20
-15.000000
30
2.181634
0
VERTEX
8
0
6
CONTINUOUS
62
252
70
192
10
-5.766596
20
-15.000000
30
0.470945
0
VERTEX
8
0
6
CONTINUOUS
62
252
70
192
10
-5.766596
20
0.000000
30
0.470945
0
VERTEX
8
0
6
CONTINUOUS
62
252
70
192
10
-8.548920
20
0.000000
30
2.181634
0
VERTEX
8
0
6
CONTINUOUS
62
252
70
192
10
-11.571657
20
0.000000
30
3.418907
0
VERTEX
8
0
6
CONTINUOUS
62
252
70
192
10
-14.754924
20
0.000000
30
4.150064
0
VERTEX
8
0
6
CONTINUOUS
62
252
70
192
10
-18.014596
20
0.000000
30
4.355784
0
VERTEX
8
0
6
CONTINUOUS
62
252
70
192
10
-16.992259
20
-0.750000
30
4.348525
0
VERTEX
8
0
6
CONTINUOUS
62
252
70
192
10
-16.989687
20
-0.704798
30
4.348442
0
VERTEX
8
0
6
CONTINUOUS
62
252
70
192
10
-16.981989
20
-0.659137
30
4.348190
0
VERTEX
8
0
6
CONTINUOUS
62
252
70
192
10
-16.969185
20
-0.613974
30
4.347761
0
VERTEX
8
0
6
CONTINUOUS
62
252
70
192
10
-16.951301
20
-0.570262
30
4.347149
0
VERTEX
8
0
6
CONTINUOUS
62
252
70
192
10
-16.928612
20
-0.528846
30
4.346351
0
VERTEX
8
0
6
CONTINUOUS
62
252
70
192
10
-16.901893
20
-0.490344
30
4.345378
0
VERTEX
8
0
6
CONTINUOUS
62
252
70
192
10
-16.871978
20
-0.455350
30
4.344248
0
VERTEX
8
0
6
CONTINUOUS
62
252
70
192
10
-16.839484
20
-0.424244
30
4.342968
0
VERTEX
8
0
6
CONTINUOUS
62
252
70
192
10
-16.803529
20
-0.395989
30
4.341490
0
VERTEX
8
0
6
CONTINUOUS
62
252
70
192
10
-16.764362
20
-0.370721
30
4.339807
0
VERTEX
8
0
6
CONTINUOUS
62
252
70
192
10
-16.722543
20
-0.348888
30
4.337928
0
VERTEX
8
0
6
CONTINUOUS
62
252
70
192
10
-16.678637
20
-0.330938
30
4.335861
0
VERTEX
8
0
6
CONTINUOUS
62
252
70
192
10
-16.633272
20
-0.317144
30
4.333619
0
VERTEX
8
0
6
CONTINUOUS
62
252
70
192
10
-16.587202
20
-0.307450
30
4.331239
0
VERTEX
8
0
6
CONTINUOUS
62
252
70
192
10
-16.496008
20
-0.300004
30
4.326224
0
VERTEX
8
0
6
CONTINUOUS
62
252
70
192
10
-16.404723
20
-0.308093
30
4.320776
0
VERTEX
8
0
6
CONTINUOUS
62
252
70
192
10
-16.313413
20
-0.332069
30
4.314921
0
VERTEX
8
0
6
CONTINUOUS
62
252
70
192
10
-16.269587
20
-0.350149
30
4.311958
0
VERTEX
8
0
6
CONTINUOUS
62
252
70
192
10
-16.227826
20
-0.372011
30
4.309045
0
VERTEX
8
0
6
CONTINUOUS
62
252
70
192
10
-16.188681
20
-0.397223
30
4.306237
0
VERTEX
8
0
6
CONTINUOUS
62
252
70
192
10
-16.152700
20
-0.425352
30
4.303590
0
VERTEX
8
0
6
CONTINUOUS
62
252
70
192
10
-16.120105
20
-0.456292
30
4.301134
0
VERTEX
8
0
6
CONTINUOUS
62
252
70
192
10
-16.090010
20
-0.491103
30
4.298817
0
VERTEX
8
0
6
CONTINUOUS
62
252
70
192
10
-16.063063
20
-0.529413
30
4.296706
0
VERTEX
8
0
6
CONTINUOUS
62
252
70
192
10
-16.040126
20
-0.570646
30
4.294881
0
VERTEX
8
0
6
CONTINUOUS
62
252
70
192
10
-16.022002
20
-0.614199
30
4.293421
0
VERTEX
8
0
6
CONTINUOUS
62
252
70
192
10
-16.008998
20
-0.659242
30
4.292363
0
VERTEX
8
0
6
CONTINUOUS
62
252
70
192
10
-16.001162
20
-0.704825
30
4.291720
0
VERTEX
8
0
6
CONTINUOUS
62
252
70
192
10
-15.998539
20
-0.750000
30
4.291503
0
VERTEX
8
0
6
CONTINUOUS
62
252
70
192
10
-16.001162
20
-0.795175
30
4.291720
0
VERTEX
8
0
6
CONTINUOUS
62
252
70
192
10
-16.008998
20
-0.840758
30
4.292363
0
VERTEX
8
0
6
CONTINUOUS
62
252
70
192
10
-16.022002
20
-0.885801
30
4.293421
0
VERTEX
8
0
6
CONTINUOUS
62
252
70
192
10
-16.040126
20
-0.929354
30
4.294881
0
VERTEX
8
0
6
CONTINUOUS
62
252
70
192
10
-16.063063
20
-0.970587
30
4.296706
0
VERTEX
8
0
6
CONTINUOUS
62
252
70
192
10
-16.090010
20
-1.008897
30
4.298817
0
VERTEX
8
0
6
CONTINUOUS
62
252
70
192
10
-16.120105
20
-1.043708
30
4.301134
0
VERTEX
8
0
6
CONTINUOUS
62
252
70
192
10
-16.152700
20
-1.074648
30
4.303590
0
VERTEX
8
0
6
CONTINUOUS
62
252
70
192
10
-16.188681
20
-1.102777
30
4.306237
0
VERTEX
8
0
6
CONTINUOUS
62
252
70
192
10
-16.227826
20
-1.127989
30
4.309045
0
VERTEX
8
0
6
CONTINUOUS
62
252
70
192
10
-16.269587
20
-1.149851
30
4.311958
0
VERTEX
8
0
6
CONTINUOUS
62
252
70
192
10
-16.313413
20
-1.167931
30
4.314921
0
VERTEX
8
0
6
CONTINUOUS
62
252
70
192
10
-16.404723
20
-1.191907
30
4.320776
0
VERTEX
8
0
6
CONTINUOUS
62
252
70
192
10
-16.496008
20
-1.199996
30
4.326224
0
VERTEX
8
0
6
CONTINUOUS
62
252
70
192
10
-16.587202
20
-1.192550
30
4.331239
0
VERTEX
8
0
6
CONTINUOUS
62
252
70
192
10
-16.633272
20
-1.182856
30
4.333619
0
VERTEX
8
0
6
CONTINUOUS
62
252
70
192
10
-16.678637
20
-1.169062
30
4.335861
0
VERTEX
8
0
6
CONTINUOUS
62
252
70
192
10
-16.722543
20
-1.151112
30
4.337928
0
VERTEX
8
0
6
CONTINUOUS
62
252
70
192
10
-16.764362
20
-1.129279
30
4.339807
0
VERTEX
8
0
6
CONTINUOUS
62
252
70
192
10
-16.803529
20
-1.104011
30
4.341490
0
VERTEX
8
0
6
CONTINUOUS
62
252
70
192
10
-16.839484
20
-1.075756
30
4.342968
0
VERTEX
8
0
6
CONTINUOUS
62
252
70
192
10
-16.871978
20
-1.044650
30
4.344248
0
VERTEX
8
0
6
CONTINUOUS
62
252
70
192
10
-16.901893
20
-1.009656
30
4.345378
0
VERTEX
8
0
6
CONTINUOUS
62
252
70
192
10
-16.928612
20
-0.971154
30
4.346351
0
VERTEX
8
0
6
CONTINUOUS
62
252
70
192
10
-16.951301
20
-0.929738
30
4.347149
0
VERTEX
8
0
6
CONTINUOUS
62
252
70
192
10
-16.969185
20
-0.886026
30
4.347761
0
VERTEX
8
0
6
CONTINUOUS
62
252
70
192
10
-16.981989
20
-0.840863
30
4.348190
0
VERTEX
8
0
6
CONTINUOUS
62
252
70
192
10
-16.989687
20
-0.795202
30
4.348442
0
VERTEX
8
0
6
CONTINUOUS
62
252
70
128
10
0.000000
20
0.000000
30
0.000000
71
1
72
2
73
43
0
VERTEX
8
0
6
CONTINUOUS
62
252
70
128
10
0.000000
20
0.000000
30
0.000000
71
43
72
2
73
3
0
VERTEX
8
0
6
CONTINUOUS
62
252
70
128
10
0.000000
20
0.000000
30
0.000000
71
43
72
3
73
4
0
VERTEX
8
0
6
CONTINUOUS
62
252
70
128
10
0.000000
20
0.000000
30
0.000000
71
4
72
5
73
43
0
VERTEX
8
0
6
CONTINUOUS
62
252
70
128
10
0.000000
20
0.000000
30
0.000000
71
43
72
5
73
6
0
VERTEX
8
0
6
CONTINUOUS
62
252
70
128
10
0.000000
20
0.000000
30
0.000000
71
43
72
6
73
7
0
VERTEX
8
0
6
CONTINUOUS
62
252
70
128
10
0.000000
20
0.000000
30
0.000000
71
7
72
8
73
43
0
VERTEX
8
0
6
CONTINUOUS
62
252
70
128
10
0.000000
20
0.000000
30
0.000000
71
43
72
8
73
9
0
VERTEX
8
0
6
CONTINUOUS
62
252
70
128
10
0.000000
20
0.000000
30
0.000000
71
43
72
9
73
55
0
VERTEX
8
0
6
CONTINUOUS
62
252
70
128
10
0.000000
20
0.000000
30
0.000000
71
55
72
9
73
10
0
VERTEX
8
0
6
CONTINUOUS
62
252
70
128
10
0.000000
20
0.000000
30
0.000000
71
55
72
10
73
54
0
VERTEX
8
0
6
CONTINUOUS
62
252
70
128
10
0.000000
20
0.000000
30
0.000000
71
54
72
10
73
53
0
VERTEX
8
0
6
CONTINUOUS
62
252
70
128
10
0.000000
20
0.000000
30
0.000000
71
53
72
10
73
11
0
VERTEX
8
0
6
CONTINUOUS
62
252
70
128
10
0.000000
20
0.000000
30
0.000000
71
53
72
11
73
52
0
VERTEX
8
0
6
CONTINUOUS
62
252
70
128
10
0.000000
20
0.000000
30
0.000000
71
52
72
11
73
12
0
VERTEX
8
0
6
CONTINUOUS
62
252
70
128
10
0.000000
20
0.000000
30
0.000000
71
52
72
12
73
51
0
VERTEX
8
0
6
CONTINUOUS
62
252
70
128
10
0.000000
20
0.000000
30
0.000000
71
51
72
12
73
50
0
VERTEX
8
0
6
CONTINUOUS
62
252
70
128
10
0.000000
20
0.000000
30
0.000000
71
50
72
12
73
13
0
VERTEX
8
0
6
CONTINUOUS
62
252
70
128
10
0.000000
20
0.000000
30
0.000000
71
50
72
13
73
49
0
VERTEX
8
0
6
CONTINUOUS
62
252
70
128
10
0.000000
20
0.000000
30
0.000000
71
49
72
13
73
14
0
VERTEX
8
0
6
CONTINUOUS
62
252
70
128
10
0.000000
20
0.000000
30
0.000000
71
49
72
14
73
48
0
VERTEX
8
0
6
CONTINUOUS
62
252
70
128
10
0.000000
20
0.000000
30
0.000000
71
48
72
14
73
15
0
VERTEX
8
0
6
CONTINUOUS
62
252
70
128
10
0.000000
20
0.000000
30
0.000000
71
48
72
15
73
47
0
VERTEX
8
0
6
CONTINUOUS
62
252
70
128
10
0.000000
20
0.000000
30
0.000000
71
47
72
15
73
46
0
VERTEX
8
0
6
CONTINUOUS
62
252
70
128
10
0.000000
20
0.000000
30
0.000000
71
46
72
15
73
16
0
VERTEX
8
0
6
CONTINUOUS
62
252
70
128
10
0.000000
20
0.000000
30
0.000000
71
46
72
16
73
45
0
VERTEX
8
0
6
CONTINUOUS
62
252
70
128
10
0.000000
20
0.000000
30
0.000000
71
45
72
16
73
17
0
VERTEX
8
0
6
CONTINUOUS
62
252
70
128
10
0.000000
20
0.000000
30
0.000000
71
45
72
17
73
44
0
VERTEX
8
0
6
CONTINUOUS
62
252
70
128
10
0.000000
20
0.000000
30
0.000000
71
44
72
17
73
101
0
VERTEX
8
0
6
CONTINUOUS
62
252
70
128
10
0.000000
20
0.000000
30
0.000000
71
101
72
17
73
18
0
VERTEX
8
0
6
CONTINUOUS
62
252
70
128
10
0.000000
20
0.000000
30
0.000000
71
101
72
18
73
100
0
VERTEX
8
0
6
CONTINUOUS
62
252
70
128
10
0.000000
20
0.000000
30
0.000000
71
100
72
18
73
19
0
VERTEX
8
0
6
CONTINUOUS
62
252
70
128
10
0.000000
20
0.000000
30
0.000000
71
100
72
19
73
99
0
VERTEX
8
0
6
CONTINUOUS
62
252
70
128
10
0.000000
20
0.000000
30
0.000000
71
99
72
19
73
98
0
VERTEX
8
0
6
CONTINUOUS
62
252
70
128
10
0.000000
20
0.000000
30
0.000000
71
98
72
19
73
20
0
VERTEX
8
0
6
CONTINUOUS
62
252
70
128
10
0.000000
20
0.000000
30
0.000000
71
98
72
20
73
97
0
VERTEX
8
0
6
CONTINUOUS
62
252
70
128
10
0.000000
20
0.000000
30
0.000000
71
97
72
20
73
21
0
VERTEX
8
0
6
CONTINUOUS
62
252
70
128
10
0.000000
20
0.000000
30
0.000000
71
97
72
21
73
96
0
VERTEX
8
0
6
CONTINUOUS
62
252
70
128
10
0.000000
20
0.000000
30
0.000000
71
96
72
21
73
22
0
VERTEX
8
0
6
CONTINUOUS
62
252
70
128
10
0.000000
20
0.000000
30
0.000000
71
96
72
22
73
95
0
VERTEX
8
0
6
CONTINUOUS
62
252
70
128
10
0.000000
20
0.000000
30
0.000000
71
95
72
22
73
34
0
VERTEX
8
0
6
CONTINUOUS
62
252
70
128
10
0.000000
20
0.000000
30
0.000000
71
95
72
34
73
94
0
VERTEX
8
0
6
CONTINUOUS
62
252
70
128
10
0.000000
20
0.000000
30
0.000000
71
94
72
34
73
93
0
VERTEX
8
0
6
CONTINUOUS
62
252
70
128
10
0.000000
20
0.000000
30
0.000000
71
93
72
34
73
92
0
VERTEX
8
0
6
CONTINUOUS
62
252
70
128
10
0.000000
20
0.000000
30
0.000000
71
92
72
34
73
91
0
VERTEX
8
0
6
CONTINUOUS
62
252
70
128
10
0.000000
20
0.000000
30
0.000000
71
91
72
34
73
90
0
VERTEX
8
0
6
CONTINUOUS
62
252
70
128
10
0.000000
20
0.000000
30
0.000000
71
90
72
34
73
89
0
VERTEX
8
0
6
CONTINUOUS
62
252
70
128
10
0.000000
20
0.000000
30
0.000000
71
89
72
34
73
88
0
VERTEX
8
0
6
CONTINUOUS
62
252
70
128
10
0.000000
20
0.000000
30
0.000000
71
88
72
34
73
87
0
VERTEX
8
0
6
CONTINUOUS
62
252
70
128
10
0.000000
20
0.000000
30
0.000000
71
87
72
34
73
86
0
VERTEX
8
0
6
CONTINUOUS
62
252
70
128
10
0.000000
20
0.000000
30
0.000000
71
86
72
34
73
35
0
VERTEX
8
0
6
CONTINUOUS
62
252
70
128
10
0.000000
20
0.000000
30
0.000000
71
86
72
35
73
85
0
VERTEX
8
0
6
CONTINUOUS
62
252
70
128
10
0.000000
20
0.000000
30
0.000000
71
85
72
35
73
84
0
VERTEX
8
0
6
CONTINUOUS
62
252
70
128
10
0.000000
20
0.000000
30
0.000000
71
84
72
35
73
83
0
VERTEX
8
0
6
CONTINUOUS
62
252
70
128
10
0.000000
20
0.000000
30
0.000000
71
83
72
35
73
82
0
VERTEX
8
0
6
CONTINUOUS
62
252
70
128
10
0.000000
20
0.000000
30
0.000000
71
82
72
35
73
81
0
VERTEX
8
0
6
CONTINUOUS
62
252
70
128
10
0.000000
20
0.000000
30
0.000000
71
81
72
35
73
80
0
VERTEX
8
0
6
CONTINUOUS
62
252
70
128
10
0.000000
20
0.000000
30
0.000000
71
80
72
35
73
79
0
VERTEX
8
0
6
CONTINUOUS
62
252
70
128
10
0.000000
20
0.000000
30
0.000000
71
79
72
35
73
78
0
VERTEX
8
0
6
CONTINUOUS
62
252
70
128
10
0.000000
20
0.000000
30
0.000000
71
78
72
35
73
77
0
VERTEX
8
0
6
CONTINUOUS
62
252
70
128
10
0.000000
20
0.000000
30
0.000000
71
77
72
35
73
76
0
VERTEX
8
0
6
CONTINUOUS
62
252
70
128
10
0.000000
20
0.000000
30
0.000000
71
76
72
35
73
75
0
VERTEX
8
0
6
CONTINUOUS
62
252
70
128
10
0.000000
20
0.000000
30
0.000000
71
75
72
35
73
42
0
VERTEX
8
0
6
CONTINUOUS
62
252
70
128
10
0.000000
20
0.000000
30
0.000000
71
75
72
42
73
74
0
VERTEX
8
0
6
CONTINUOUS
62
252
70
128
10
0.000000
20
0.000000
30
0.000000
71
74
72
42
73
73
0
VERTEX
8
0
6
CONTINUOUS
62
252
70
128
10
0.000000
20
0.000000
30
0.000000
71
73
72
42
73
72
0
VERTEX
8
0
6
CONTINUOUS
62
252
70
128
10
0.000000
20
0.000000
30
0.000000
71
72
72
42
73
71
0
VERTEX
8
0
6
CONTINUOUS
62
252
70
128
10
0.000000
20
0.000000
30
0.000000
71
71
72
42
73
70
0
VERTEX
8
0
6
CONTINUOUS
62
252
70
128
10
0.000000
20
0.000000
30
0.000000
71
70
72
42
73
69
0
VERTEX
8
0
6
CONTINUOUS
62
252
70
128
10
0.000000
20
0.000000
30
0.000000
71
69
72
42
73
68
0
VERTEX
8
0
6
CONTINUOUS
62
252
70
128
10
0.000000
20
0.000000
30
0.000000
71
68
72
42
73
67
0
VERTEX
8
0
6
CONTINUOUS
62
252
70
128
10
0.000000
20
0.000000
30
0.000000
71
67
72
42
73
66
0
VERTEX
8
0
6
CONTINUOUS
62
252
70
128
10
0.000000
20
0.000000
30
0.000000
71
66
72
42
73
65
0
VERTEX
8
0
6
CONTINUOUS
62
252
70
128
10
0.000000
20
0.000000
30
0.000000
71
65
72
42
73
64
0
VERTEX
8
0
6
CONTINUOUS
62
252
70
128
10
0.000000
20
0.000000
30
0.000000
71
64
72
42
73
63
0
VERTEX
8
0
6
CONTINUOUS
62
252
70
128
10
0.000000
20
0.000000
30
0.000000
71
63
72
42
73
62
0
VERTEX
8
0
6
CONTINUOUS
62
252
70
128
10
0.000000
20
0.000000
30
0.000000
71
62
72
42
73
61
0
VERTEX
8
0
6
CONTINUOUS
62
252
70
128
10
0.000000
20
0.000000
30
0.000000
71
61
72
42
73
60
0
VERTEX
8
0
6
CONTINUOUS
62
252
70
128
10
0.000000
20
0.000000
30
0.000000
71
60
72
42
73
59
0
VERTEX
8
0
6
CONTINUOUS
62
252
70
128
10
0.000000
20
0.000000
30
0.000000
71
59
72
42
73
43
0
VERTEX
8
0
6
CONTINUOUS
62
252
70
128
10
0.000000
20
0.000000
30
0.000000
71
59
72
43
73
58
0
VERTEX
8
0
6
CONTINUOUS
62
252
70
128
10
0.000000
20
0.000000
30
0.000000
71
58
72
43
73
57
0
VERTEX
8
0
6
CONTINUOUS
62
252
70
128
10
0.000000
20
0.000000
30
0.000000
71
57
72
43
73
56
0
VERTEX
8
0
6
CONTINUOUS
62
252
70
128
10
0.000000
20
0.000000
30
0.000000
71
56
72
43
73
55
0
VERTEX
8
0
6
CONTINUOUS
62
252
70
128
10
0.000000
20
0.000000
30
0.000000
71
22
72
23
73
34
0
VERTEX
8
0
6
CONTINUOUS
62
252
70
128
10
0.000000
20
0.000000
30
0.000000
71
34
72
23
73
24
0
VERTEX
8
0
6
CONTINUOUS
62
252
70
128
10
0.000000
20
0.000000
30
0.000000
71
34
72
24
73
25
0
VERTEX
8
0
6
CONTINUOUS
62
252
70
128
10
0.000000
20
0.000000
30
0.000000
71
25
72
26
73
34
0
VERTEX
8
0
6
CONTINUOUS
62
252
70
128
10
0.000000
20
0.000000
30
0.000000
71
34
72
26
73
27
0
VERTEX
8
0
6
CONTINUOUS
62
252
70
128
10
0.000000
20
0.000000
30
0.000000
71
34
72
27
73
28
0
VERTEX
8
0
6
CONTINUOUS
62
252
70
128
10
0.000000
20
0.000000
30
0.000000
71
28
72
29
73
34
0
VERTEX
8
0
6
CONTINUOUS
62
252
70
128
10
0.000000
20
0.000000
30
0.000000
71
34
72
29
73
30
0
VERTEX
8
0
6
CONTINUOUS
62
252
70
128
10
0.000000
20
0.000000
30
0.000000
71
34
72
30
73
31
0
VERTEX
8
0
6
CONTINUOUS
62
252
70
128
10
0.000000
20
0.000000
30
0.000000
71
31
72
32
73
34
0
VERTEX
8
0
6
CONTINUOUS
62
252
70
128
10
0.000000
20
0.000000
30
0.000000
71
34
72
32
73
33
0
VERTEX
8
0
6
CONTINUOUS
62
252
70
128
10
0.000000
20
0.000000
30
0.000000
71
42
72
35
73
41
0
VERTEX
8
0
6
CONTINUOUS
62
252
70
128
10
0.000000
20
0.000000
30
0.000000
71
41
72
35
73
36
0
VERTEX
8
0
6
CONTINUOUS
62
252
70
128
10
0.000000
20
0.000000
30
0.000000
71
41
72
36
73
40
0
VERTEX
8
0
6
CONTINUOUS
62
252
70
128
10
0.000000
20
0.000000
30
0.000000
71
40
72
36
73
37
0
VERTEX
8
0
6
CONTINUOUS
62
252
70
128
10
0.000000
20
0.000000
30
0.000000
71
40
72
37
73
38
0
VERTEX
8
0
6
CONTINUOUS
62
252
70
128
10
0.000000
20
0.000000
30
0.000000
71
38
72
39
73
40
0
SEQEND
0
POLYLINE
66
1
8
0
6
CONTINUOUS
62
252
70
64
75
0
10
0.000000
20
0.000000
30
0.000000
0
VERTEX
8
0
6
CONTINUOUS
62
252
70
192
10
-21.824899
20
-0.750000
30
18.712250
0
VERTEX
8
0
6
CONTINUOUS
62
252
70
192
10
-21.831238
20
-0.828142
30
18.709689
0
VERTEX
8
0
6
CONTINUOUS
62
252
70
192
10
-21.850061
20
-0.903909
30
18.702084
0
VERTEX
8
0
6
CONTINUOUS
62
252
70
192
10
-21.880798
20
-0.975000
30
18.689666
0
VERTEX
8
0
6
CONTINUOUS
62
252
70
192
10
-21.922513
20
-1.039254
30
18.672811
0
VERTEX
8
0
6
CONTINUOUS
62
252
70
192
10
-21.973940
20
-1.094720
30
18.652034
0
VERTEX
8
0
6
CONTINUOUS
62
252
70
192
10
-22.033516
20
-1.139711
30
18.627964
0
VERTEX
8
0
6
CONTINUOUS
62
252
70
192
10
-22.099430
20
-1.172862
30
18.601332
0
VERTEX
8
0
6
CONTINUOUS
62
252
70
192
10
-22.169680
20
-1.193163
30
18.572949
0
VERTEX
8
0
6
CONTINUOUS
62
252
70
192
10
-22.242132
20
-1.200000
30
18.543677
0
VERTEX
8
0
6
CONTINUOUS
62
252
70
192
10
-22.314584
20
-1.193163
30
18.514405
0
VERTEX
8
0
6
CONTINUOUS
62
252
70
192
10
-22.384834
20
-1.172862
30
18.486022
0
VERTEX
8
0
6
CONTINUOUS
62
252
70
192
10
-22.450748
20
-1.139711
30
18.459391
0
VERTEX
8
0
6
CONTINUOUS
62
252
70
192
10
-22.510324
20
-1.094720
30
18.435320
0
VERTEX
8
0
6
CONTINUOUS
62
252
70
192
10
-22.561751
20
-1.039254
30
18.414543
0
VERTEX
8
0
6
CONTINUOUS
62
252
70
192
10
-22.603466
20
-0.975000
30
18.397689
0
VERTEX
8
0
6
CONTINUOUS
62
252
70
192
10
-22.634202
20
-0.903909
30
18.385270
0
VERTEX
8
0
6
CONTINUOUS
62
252
70
192
10
-22.653026
20
-0.828142
30
18.377665
0
VERTEX
8
0
6
CONTINUOUS
62
252
70
192
10
-22.659365
20
-0.750000
30
18.375104
0
VERTEX
8
0
6
CONTINUOUS
62
252
70
192
10
-22.653026
20
-0.671858
30
18.377665
0
VERTEX
8
0
6
CONTINUOUS
62
252
70
192
10
-22.634202
20
-0.596091
30
18.385270
0
VERTEX
8
0
6
CONTINUOUS
62
252
70
192
10
-22.603466
20
-0.525000
30
18.397689
0
VERTEX
8
0
6
CONTINUOUS
62
252
70
192
10
-22.561751
20
-0.460746
30
18.414543
0
VERTEX
8
0
6
CONTINUOUS
62
252
70
192
10
-22.510324
20
-0.405280
30
18.435320
0
VERTEX
8
0
6
CONTINUOUS
62
252
70
192
10
-22.450748
20
-0.360289
30
18.459391
0
VERTEX
8
0
6
CONTINUOUS
62
252
70
192
10
-22.384834
20
-0.327138
30
18.486022
0
VERTEX
8
0
6
CONTINUOUS
62
252
70
192
10
-22.314584
20
-0.306837
30
18.514405
0
VERTEX
8
0
6
CONTINUOUS
62
252
70
192
10
-22.242132
20
-0.300000
30
18.543677
0
VERTEX
8
0
6
CONTINUOUS
62
252
70
192
10
-22.169680
20
-0.306837
30
18.572949
0
VERTEX
8
0
6
CONTINUOUS
62
252
70
192
10
-22.099430
20
-0.327138
30
18.601332
0
VERTEX
8
0
6
CONTINUOUS
62
252
70
192
10
-22.033516
20
-0.360289
30
18.627964
0
VERTEX
8
0
6
CONTINUOUS
62
252
70
192
10
-21.973940
20
-0.405280
30
18.652034
0
VERTEX
8
0
6
CONTINUOUS
62
252
70
192
10
-21.922513
20
-0.460746
30
18.672811
0
VERTEX
8
0
6
CONTINUOUS
62
252
70
192
10
-21.880798
20
-0.525000
30
18.689666
0
VERTEX
8
0
6
CONTINUOUS
62
252
70
192
10
-21.850061
20
-0.596091
30
18.702084
0
VERTEX
8
0
6
CONTINUOUS
62
252
70
192
10
-21.831238
20
-0.671858
30
18.709689
0
VERTEX
8
0
6
CONTINUOUS
62
252
70
192
10
-16.992259
20
-0.750000
30
4.348525
0
VERTEX
8
0
6
CONTINUOUS
62
252
70
192
10
-16.989687
20
-0.795202
30
4.348442
0
VERTEX
8
0
6
CONTINUOUS
62
252
70
192
10
-16.981989
20
-0.840863
30
4.348190
0
VERTEX
8
0
6
CONTINUOUS
62
252
70
192
10
-16.969185
20
-0.886026
30
4.347761
0
VERTEX
8
0
6
CONTINUOUS
62
252
70
192
10
-16.951301
20
-0.929738
30
4.347149
0
VERTEX
8
0
6
CONTINUOUS
62
252
70
192
10
-16.928612
20
-0.971154
30
4.346351
0
VERTEX
8
0
6
CONTINUOUS
62
252
70
192
10
-16.901893
20
-1.009656
30
4.345378
0
VERTEX
8
0
6
CONTINUOUS
62
252
70
192
10
-16.871978
20
-1.044650
30
4.344248
0
VERTEX
8
0
6
CONTINUOUS
62
252
70
192
10
-16.839484
20
-1.075756
30
4.342968
0
VERTEX
8
0
6
CONTINUOUS
62
252
70
192
10
-16.803529
20
-1.104011
30
4.341490
0
VERTEX
8
0
6
CONTINUOUS
62
252
70
192
10
-16.764362
20
-1.129279
30
4.339807
0
VERTEX
8
0
6
CONTINUOUS
62
252
70
192
10
-16.722543
20
-1.151112
30
4.337928
0
VERTEX
8
0
6
CONTINUOUS
62
252
70
192
10
-16.678637
20
-1.169062
30
4.335861
0
VERTEX
8
0
6
CONTINUOUS
62
252
70
192
10
-16.633272
20
-1.182856
30
4.333619
0
VERTEX
8
0
6
CONTINUOUS
62
252
70
192
10
-16.587202
20
-1.192550
30
4.331239
0
VERTEX
8
0
6
CONTINUOUS
62
252
70
192
10
-16.496008
20
-1.199996
30
4.326224
0
VERTEX
8
0
6
CONTINUOUS
62
252
70
192
10
-16.404723
20
-1.191907
30
4.320776
0
VERTEX
8
0
6
CONTINUOUS
62
252
70
192
10
-16.313413
20
-1.167931
30
4.314921
0
VERTEX
8
0
6
CONTINUOUS
62
252
70
192
10
-16.269587
20
-1.149851
30
4.311958
0
VERTEX
8
0
6
CONTINUOUS
62
252
70
192
10
-16.227826
20
-1.127989
30
4.309045
0
VERTEX
8
0
6
CONTINUOUS
62
252
70
192
10
-16.188681
20
-1.102777
30
4.306237
0
VERTEX
8
0
6
CONTINUOUS
62
252
70
192
10
-16.152700
20
-1.074648
30
4.303590
0
VERTEX
8
0
6
CONTINUOUS
62
252
70
192
10
-16.120105
20
-1.043708
30
4.301134
0
VERTEX
8
0
6
CONTINUOUS
62
252
70
192
10
-16.090010
20
-1.008897
30
4.298817
0
VERTEX
8
0
6
CONTINUOUS
62
252
70
192
10
-16.063063
20
-0.970587
30
4.296706
0
VERTEX
8
0
6
CONTINUOUS
62
252
70
192
10
-16.040126
20
-0.929354
30
4.294881
0
VERTEX
8
0
6
CONTINUOUS
62
252
70
192
10
-16.022002
20
-0.885801
30
4.293421
0
VERTEX
8
0
6
CONTINUOUS
62
252
70
192
10
-16.008998
20
-0.840758
30
4.292363
0
VERTEX
8
0
6
CONTINUOUS
62
252
70
192
10
-16.001162
20
-0.795175
30
4.291720
0
VERTEX
8
0
6
CONTINUOUS
62
252
70
192
10
-15.998539
20
-0.750000
30
4.291503
0
VERTEX
8
0
6
CONTINUOUS
62
252
70
192
10
-16.001162
20
-0.704825
30
4.291720
0
VERTEX
8
0
6
CONTINUOUS
62
252
70
192
10
-16.008998
20
-0.659242
30
4.292363
0
VERTEX
8
0
6
CONTINUOUS
62
252
70
192
10
-16.022002
20
-0.614199
30
4.293421
0
VERTEX
8
0
6
CONTINUOUS
62
252
70
192
10
-16.040126
20
-0.570646
30
4.294881
0
VERTEX
8
0
6
CONTINUOUS
62
252
70
192
10
-16.063063
20
-0.529413
30
4.296706
0
VERTEX
8
0
6
CONTINUOUS
62
252
70
192
10
-16.090010
20
-0.491103
30
4.298817
0
VERTEX
8
0
6
CONTINUOUS
62
252
70
192
10
-16.120105
20
-0.456292
30
4.301134
0
VERTEX
8
0
6
CONTINUOUS
62
252
70
192
10
-16.152700
20
-0.425352
30
4.303590
0
VERTEX
8
0
6
CONTINUOUS
62
252
70
192
10
-16.188681
20
-0.397223
30
4.306237
0
VERTEX
8
0
6
CONTINUOUS
62
252
70
192
10
-16.227826
20
-0.372011
30
4.309045
0
VERTEX
8
0
6
CONTINUOUS
62
252
70
192
10
-16.269587
20
-0.350149
30
4.311958
0
VERTEX
8
0
6
CONTINUOUS
62
252
70
192
10
-16.313413
20
-0.332069
30
4.314921
0
VERTEX
8
0
6
CONTINUOUS
62
252
70
192
10
-16.404723
20
-0.308093
30
4.320776
0
VERTEX
8
0
6
CONTINUOUS
62
252
70
192
10
-16.496008
20
-0.300004
30
4.326224
0
VERTEX
8
0
6
CONTINUOUS
62
252
70
192
10
-16.587202
20
-0.307450
30
4.331239
0
VERTEX
8
0
6
CONTINUOUS
62
252
70
192
10
-16.633272
20
-0.317144
30
4.333619
0
VERTEX
8
0
6
CONTINUOUS
62
252
70
192
10
-16.678637
20
-0.330938
30
4.335861
0
VERTEX
8
0
6
CONTINUOUS
62
252
70
192
10
-16.722543
20
-0.348888
30
4.337928
0
VERTEX
8
0
6
CONTINUOUS
62
252
70
192
10
-16.764362
20
-0.370721
30
4.339807
0
VERTEX
8
0
6
CONTINUOUS
62
252
70
192
10
-16.803529
20
-0.395989
30
4.341490
0
VERTEX
8
0
6
CONTINUOUS
62
252
70
192
10
-16.839484
20
-0.424244
30
4.342968
0
VERTEX
8
0
6
CONTINUOUS
62
252
70
192
10
-16.871978
20
-0.455350
30
4.344248
0
VERTEX
8
0
6
CONTINUOUS
62
252
70
192
10
-16.901893
20
-0.490344
30
4.345378
0
VERTEX
8
0
6
CONTINUOUS
62
252
70
192
10
-16.928612
20
-0.528846
30
4.346351
0
VERTEX
8
0
6
CONTINUOUS
62
252
70
192
10
-16.951301
20
-0.570262
30
4.347149
0
VERTEX
8
0
6
CONTINUOUS
62
252
70
192
10
-16.969185
20
-0.613974
30
4.347761
0
VERTEX
8
0
6
CONTINUOUS
62
252
70
192
10
-16.981989
20
-0.659137
30
4.348190
0
VERTEX
8
0
6
CONTINUOUS
62
252
70
192
10
-16.989687
20
-0.704798
30
4.348442
0
VERTEX
8
0
6
CONTINUOUS
62
252
70
128
10
0.000000
20
0.000000
30
0.000000
71
2
72
65
73
1
0
VERTEX
8
0
6
CONTINUOUS
62
252
70
128
10
0.000000
20
0.000000
30
0.000000
71
1
72
65
73
66
0
VERTEX
8
0
6
CONTINUOUS
62
252
70
128
10
0.000000
20
0.000000
30
0.000000
71
1
72
66
73
67
0
VERTEX
8
0
6
CONTINUOUS
62
252
70
128
10
0.000000
20
0.000000
30
0.000000
71
3
72
63
73
2
0
VERTEX
8
0
6
CONTINUOUS
62
252
70
128
10
0.000000
20
0.000000
30
0.000000
71
2
72
63
73
64
0
VERTEX
8
0
6
CONTINUOUS
62
252
70
128
10
0.000000
20
0.000000
30
0.000000
71
2
72
64
73
65
0
VERTEX
8
0
6
CONTINUOUS
62
252
70
128
10
0.000000
20
0.000000
30
0.000000
71
63
72
3
73
62
0
VERTEX
8
0
6
CONTINUOUS
62
252
70
128
10
0.000000
20
0.000000
30
0.000000
71
62
72
3
73
4
0
VERTEX
8
0
6
CONTINUOUS
62
252
70
128
10
0.000000
20
0.000000
30
0.000000
71
62
72
4
73
61
0
VERTEX
8
0
6
CONTINUOUS
62
252
70
128
10
0.000000
20
0.000000
30
0.000000
71
61
72
4
73
60
0
VERTEX
8
0
6
CONTINUOUS
62
252
70
128
10
0.000000
20
0.000000
30
0.000000
71
60
72
4
73
5
0
VERTEX
8
0
6
CONTINUOUS
62
252
70
128
10
0.000000
20
0.000000
30
0.000000
71
60
72
5
73
59
0
VERTEX
8
0
6
CONTINUOUS
62
252
70
128
10
0.000000
20
0.000000
30
0.000000
71
59
72
5
73
58
0
VERTEX
8
0
6
CONTINUOUS
62
252
70
128
10
0.000000
20
0.000000
30
0.000000
71
58
72
5
73
6
0
VERTEX
8
0
6
CONTINUOUS
62
252
70
128
10
0.000000
20
0.000000
30
0.000000
71
58
72
6
73
57
0
VERTEX
8
0
6
CONTINUOUS
62
252
70
128
10
0.000000
20
0.000000
30
0.000000
71
57
72
6
73
56
0
VERTEX
8
0
6
CONTINUOUS
62
252
70
128
10
0.000000
20
0.000000
30
0.000000
71
56
72
6
73
7
0
VERTEX
8
0
6
CONTINUOUS
62
252
70
128
10
0.000000
20
0.000000
30
0.000000
71
56
72
7
73
55
0
VERTEX
8
0
6
CONTINUOUS
62
252
70
128
10
0.000000
20
0.000000
30
0.000000
71
55
72
7
73
8
0
VERTEX
8
0
6
CONTINUOUS
62
252
70
128
10
0.000000
20
0.000000
30
0.000000
71
55
72
8
73
54
0
VERTEX
8
0
6
CONTINUOUS
62
252
70
128
10
0.000000
20
0.000000
30
0.000000
71
54
72
8
73
53
0
VERTEX
8
0
6
CONTINUOUS
62
252
70
128
10
0.000000
20
0.000000
30
0.000000
71
53
72
8
73
9
0
VERTEX
8
0
6
CONTINUOUS
62
252
70
128
10
0.000000
20
0.000000
30
0.000000
71
53
72
9
73
52
0
VERTEX
8
0
6
CONTINUOUS
62
252
70
128
10
0.000000
20
0.000000
30
0.000000
71
52
72
9
73
10
0
VERTEX
8
0
6
CONTINUOUS
62
252
70
128
10
0.000000
20
0.000000
30
0.000000
71
52
72
10
73
11
0
VERTEX
8
0
6
CONTINUOUS
62
252
70
128
10
0.000000
20
0.000000
30
0.000000
71
12
72
50
73
11
0
VERTEX
8
0
6
CONTINUOUS
62
252
70
128
10
0.000000
20
0.000000
30
0.000000
71
11
72
50
73
51
0
VERTEX
8
0
6
CONTINUOUS
62
252
70
128
10
0.000000
20
0.000000
30
0.000000
71
11
72
51
73
52
0
VERTEX
8
0
6
CONTINUOUS
62
252
70
128
10
0.000000
20
0.000000
30
0.000000
71
13
72
48
73
12
0
VERTEX
8
0
6
CONTINUOUS
62
252
70
128
10
0.000000
20
0.000000
30
0.000000
71
12
72
48
73
49
0
VERTEX
8
0
6
CONTINUOUS
62
252
70
128
10
0.000000
20
0.000000
30
0.000000
71
12
72
49
73
50
0
VERTEX
8
0
6
CONTINUOUS
62
252
70
128
10
0.000000
20
0.000000
30
0.000000
71
48
72
13
73
47
0
VERTEX
8
0
6
CONTINUOUS
62
252
70
128
10
0.000000
20
0.000000
30
0.000000
71
47
72
13
73
14
0
VERTEX
8
0
6
CONTINUOUS
62
252
70
128
10
0.000000
20
0.000000
30
0.000000
71
47
72
14
73
46
0
VERTEX
8
0
6
CONTINUOUS
62
252
70
128
10
0.000000
20
0.000000
30
0.000000
71
46
72
14
73
45
0
VERTEX
8
0
6
CONTINUOUS
62
252
70
128
10
0.000000
20
0.000000
30
0.000000
71
45
72
14
73
15
0
VERTEX
8
0
6
CONTINUOUS
62
252
70
128
10
0.000000
20
0.000000
30
0.000000
71
45
72
15
73
44
0
VERTEX
8
0
6
CONTINUOUS
62
252
70
128
10
0.000000
20
0.000000
30
0.000000
71
44
72
15
73
43
0
VERTEX
8
0
6
CONTINUOUS
62
252
70
128
10
0.000000
20
0.000000
30
0.000000
71
43
72
15
73
16
0
VERTEX
8
0
6
CONTINUOUS
62
252
70
128
10
0.000000
20
0.000000
30
0.000000
71
43
72
16
73
42
0
VERTEX
8
0
6
CONTINUOUS
62
252
70
128
10
0.000000
20
0.000000
30
0.000000
71
42
72
16
73
41
0
VERTEX
8
0
6
CONTINUOUS
62
252
70
128
10
0.000000
20
0.000000
30
0.000000
71
41
72
16
73
17
0
VERTEX
8
0
6
CONTINUOUS
62
252
70
128
10
0.000000
20
0.000000
30
0.000000
71
41
72
17
73
40
0
VERTEX
8
0
6
CONTINUOUS
62
252
70
128
10
0.000000
20
0.000000
30
0.000000
71
40
72
17
73
18
0
VERTEX
8
0
6
CONTINUOUS
62
252
70
128
10
0.000000
20
0.000000
30
0.000000
71
40
72
18
73
39
0
VERTEX
8
0
6
CONTINUOUS
62
252
70
128
10
0.000000
20
0.000000
30
0.000000
71
39
72
18
73
38
0
VERTEX
8
0
6
CONTINUOUS
62
252
70
128
10
0.000000
20
0.000000
30
0.000000
71
38
72
18
73
19
0
VERTEX
8
0
6
CONTINUOUS
62
252
70
128
10
0.000000
20
0.000000
30
0.000000
71
38
72
19
73
37
0
VERTEX
8
0
6
CONTINUOUS
62
252
70
128
10
0.000000
20
0.000000
30
0.000000
71
37
72
19
73
94
0
VERTEX
8
0
6
CONTINUOUS
62
252
70
128
10
0.000000
20
0.000000
30
0.000000
71
94
72
19
73
20
0
VERTEX
8
0
6
CONTINUOUS
62
252
70
128
10
0.000000
20
0.000000
30
0.000000
71
94
72
20
73
93
0
VERTEX
8
0
6
CONTINUOUS
62
252
70
128
10
0.000000
20
0.000000
30
0.000000
71
93
72
20
73
92
0
VERTEX
8
0
6
CONTINUOUS
62
252
70
128
10
0.000000
20
0.000000
30
0.000000
71
92
72
20
73
21
0
VERTEX
8
0
6
CONTINUOUS
62
252
70
128
10
0.000000
20
0.000000
30
0.000000
71
92
72
21
73
91
0
VERTEX
8
0
6
CONTINUOUS
62
252
70
128
10
0.000000
20
0.000000
30
0.000000
71
91
72
21
73
22
0
VERTEX
8
0
6
CONTINUOUS
62
252
70
128
10
0.000000
20
0.000000
30
0.000000
71
91
72
22
73
90
0
VERTEX
8
0
6
CONTINUOUS
62
252
70
128
10
0.000000
20
0.000000
30
0.000000
71
90
72
22
73
89
0
VERTEX
8
0
6
CONTINUOUS
62
252
70
128
10
0.000000
20
0.000000
30
0.000000
71
89
72
22
73
23
0
VERTEX
8
0
6
CONTINUOUS
62
252
70
128
10
0.000000
20
0.000000
30
0.000000
71
89
72
23
73
88
0
VERTEX
8
0
6
CONTINUOUS
62
252
70
128
10
0.000000
20
0.000000
30
0.000000
71
88
72
23
73
87
0
VERTEX
8
0
6
CONTINUOUS
62
252
70
128
10
0.000000
20
0.000000
30
0.000000
71
87
72
23
73
24
0
VERTEX
8
0
6
CONTINUOUS
62
252
70
128
10
0.000000
20
0.000000
30
0.000000
71
87
72
24
73
86
0
VERTEX
8
0
6
CONTINUOUS
62
252
70
128
10
0.000000
20
0.000000
30
0.000000
71
86
72
24
73
85
0
VERTEX
8
0
6
CONTINUOUS
62
252
70
128
10
0.000000
20
0.000000
30
0.000000
71
85
72
24
73
25
0
VERTEX
8
0
6
CONTINUOUS
62
252
70
128
10
0.000000
20
0.000000
30
0.000000
71
85
72
25
73
84
0
VERTEX
8
0
6
CONTINUOUS
62
252
70
128
10
0.000000
20
0.000000
30
0.000000
71
84
72
25
73
26
0
VERTEX
8
0
6
CONTINUOUS
62
252
70
128
10
0.000000
20
0.000000
30
0.000000
71
84
72
26
73
83
0
VERTEX
8
0
6
CONTINUOUS
62
252
70
128
10
0.000000
20
0.000000
30
0.000000
71
83
72
26
73
82
0
VERTEX
8
0
6
CONTINUOUS
62
252
70
128
10
0.000000
20
0.000000
30
0.000000
71
82
72
26
73
27
0
VERTEX
8
0
6
CONTINUOUS
62
252
70
128
10
0.000000
20
0.000000
30
0.000000
71
82
72
27
73
81
0
VERTEX
8
0
6
CONTINUOUS
62
252
70
128
10
0.000000
20
0.000000
30
0.000000
71
81
72
27
73
80
0
VERTEX
8
0
6
CONTINUOUS
62
252
70
128
10
0.000000
20
0.000000
30
0.000000
71
80
72
27
73
28
0
VERTEX
8
0
6
CONTINUOUS
62
252
70
128
10
0.000000
20
0.000000
30
0.000000
71
80
72
28
73
29
0
VERTEX
8
0
6
CONTINUOUS
62
252
70
128
10
0.000000
20
0.000000
30
0.000000
71
80
72
29
73
79
0
VERTEX
8
0
6
CONTINUOUS
62
252
70
128
10
0.000000
20
0.000000
30
0.000000
71
79
72
29
73
30
0
VERTEX
8
0
6
CONTINUOUS
62
252
70
128
10
0.000000
20
0.000000
30
0.000000
71
79
72
30
73
78
0
VERTEX
8
0
6
CONTINUOUS
62
252
70
128
10
0.000000
20
0.000000
30
0.000000
71
78
72
30
73
77
0
VERTEX
8
0
6
CONTINUOUS
62
252
70
128
10
0.000000
20
0.000000
30
0.000000
71
77
72
30
73
31
0
VERTEX
8
0
6
CONTINUOUS
62
252
70
128
10
0.000000
20
0.000000
30
0.000000
71
77
72
31
73
76
0
VERTEX
8
0
6
CONTINUOUS
62
252
70
128
10
0.000000
20
0.000000
30
0.000000
71
76
72
31
73
32
0
VERTEX
8
0
6
CONTINUOUS
62
252
70
128
10
0.000000
20
0.000000
30
0.000000
71
76
72
32
73
75
0
VERTEX
8
0
6
CONTINUOUS
62
252
70
128
10
0.000000
20
0.000000
30
0.000000
71
75
72
32
73
74
0
VERTEX
8
0
6
CONTINUOUS
62
252
70
128
10
0.000000
20
0.000000
30
0.000000
71
74
72
32
73
33
0
VERTEX
8
0
6
CONTINUOUS
62
252
70
128
10
0.000000
20
0.000000
30
0.000000
71
74
72
33
73
73
0
VERTEX
8
0
6
CONTINUOUS
62
252
70
128
10
0.000000
20
0.000000
30
0.000000
71
73
72
33
73
72
0
VERTEX
8
0
6
CONTINUOUS
62
252
70
128
10
0.000000
20
0.000000
30
0.000000
71
72
72
33
73
34
0
VERTEX
8
0
6
CONTINUOUS
62
252
70
128
10
0.000000
20
0.000000
30
0.000000
71
72
72
34
73
71
0
VERTEX
8
0
6
CONTINUOUS
62
252
70
128
10
0.000000
20
0.000000
30
0.000000
71
71
72
34
73
70
0
VERTEX
8
0
6
CONTINUOUS
62
252
70
128
10
0.000000
20
0.000000
30
0.000000
71
70
72
34
73
35
0
VERTEX
8
0
6
CONTINUOUS
62
252
70
128
10
0.000000
20
0.000000
30
0.000000
71
70
72
35
73
69
0
VERTEX
8
0
6
CONTINUOUS
62
252
70
128
10
0.000000
20
0.000000
30
0.000000
71
69
72
35
73
36
0
VERTEX
8
0
6
CONTINUOUS
62
252
70
128
10
0.000000
20
0.000000
30
0.000000
71
69
72
36
73
68
0
VERTEX
8
0
6
CONTINUOUS
62
252
70
128
10
0.000000
20
0.000000
30
0.000000
71
68
72
36
73
67
0
VERTEX
8
0
6
CONTINUOUS
62
252
70
128
10
0.000000
20
0.000000
30
0.000000
71
67
72
36
73
1
0
SEQEND
0
POLYLINE
66
1
8
0
6
CONTINUOUS
62
252
70
64
75
0
10
0.000000
20
0.000000
30
0.000000
0
VERTEX
8
0
6
CONTINUOUS
62
252
70
192
10
-21.824899
20
-0.750000
30
18.712250
0
VERTEX
8
0
6
CONTINUOUS
62
252
70
192
10
-21.831238
20
-0.671858
30
18.709689
0
VERTEX
8
0
6
CONTINUOUS
62
252
70
192
10
-21.850061
20
-0.596091
30
18.702084
0
VERTEX
8
0
6
CONTINUOUS
62
252
70
192
10
-21.880798
20
-0.525000
30
18.689666
0
VERTEX
8
0
6
CONTINUOUS
62
252
70
192
10
-21.922513
20
-0.460746
30
18.672811
0
VERTEX
8
0
6
CONTINUOUS
62
252
70
192
10
-21.973940
20
-0.405280
30
18.652034
0
VERTEX
8
0
6
CONTINUOUS
62
252
70
192
10
-22.033516
20
-0.360289
30
18.627964
0
VERTEX
8
0
6
CONTINUOUS
62
252
70
192
10
-22.099430
20
-0.327138
30
18.601332
0
VERTEX
8
0
6
CONTINUOUS
62
252
70
192
10
-22.169680
20
-0.306837
30
18.572949
0
VERTEX
8
0
6
CONTINUOUS
62
252
70
192
10
-22.242132
20
-0.300000
30
18.543677
0
VERTEX
8
0
6
CONTINUOUS
62
252
70
192
10
-22.314584
20
-0.306837
30
18.514405
0
VERTEX
8
0
6
CONTINUOUS
62
252
70
192
10
-22.384834
20
-0.327138
30
18.486022
0
VERTEX
8
0
6
CONTINUOUS
62
252
70
192
10
-22.450748
20
-0.360289
30
18.459391
0
VERTEX
8
0
6
CONTINUOUS
62
252
70
192
10
-22.510324
20
-0.405280
30
18.435320
0
VERTEX
8
0
6
CONTINUOUS
62
252
70
192
10
-22.561751
20
-0.460746
30
18.414543
0
VERTEX
8
0
6
CONTINUOUS
62
252
70
192
10
-22.603466
20
-0.525000
30
18.397689
0
VERTEX
8
0
6
CONTINUOUS
62
252
70
192
10
-22.634202
20
-0.596091
30
18.385270
0
VERTEX
8
0
6
CONTINUOUS
62
252
70
192
10
-22.653026
20
-0.671858
30
18.377665
0
VERTEX
8
0
6
CONTINUOUS
62
252
70
192
10
-22.659365
20
-0.750000
30
18.375104
0
VERTEX
8
0
6
CONTINUOUS
62
252
70
192
10
-22.653026
20
-0.828142
30
18.377665
0
VERTEX
8
0
6
CONTINUOUS
62
252
70
192
10
-22.634202
20
-0.903909
30
18.385270
0
VERTEX
8
0
6
CONTINUOUS
62
252
70
192
10
-22.603466
20
-0.975000
30
18.397689
0
VERTEX
8
0
6
CONTINUOUS
62
252
70
192
10
-22.561751
20
-1.039254
30
18.414543
0
VERTEX
8
0
6
CONTINUOUS
62
252
70
192
10
-22.510324
20
-1.094720
30
18.435320
0
VERTEX
8
0
6
CONTINUOUS
62
252
70
192
10
-22.450748
20
-1.139711
30
18.459391
0
VERTEX
8
0
6
CONTINUOUS
62
252
70
192
10
-22.384834
20
-1.172862
30
18.486022
0
VERTEX
8
0
6
CONTINUOUS
62
252
70
192
10
-22.314584
20
-1.193163
30
18.514405
0
VERTEX
8
0
6
CONTINUOUS
62
252
70
192
10
-22.242132
20
-1.200000
30
18.543677
0
VERTEX
8
0
6
CONTINUOUS
62
252
70
192
10
-22.169680
20
-1.193163
30
18.572949
0
VERTEX
8
0
6
CONTINUOUS
62
252
70
192
10
-22.099430
20
-1.172862
30
18.601332
0
VERTEX
8
0
6
CONTINUOUS
62
252
70
192
10
-22.033516
20
-1.139711
30
18.627964
0
VERTEX
8
0
6
CONTINUOUS
62
252
70
192
10
-21.973940
20
-1.094720
30
18.652034
0
VERTEX
8
0
6
CONTINUOUS
62
252
70
192
10
-21.922513
20
-1.039254
30
18.672811
0
VERTEX
8
0
6
CONTINUOUS
62
252
70
192
10
-21.880798
20
-0.975000
30
18.689666
0
VERTEX
8
0
6
CONTINUOUS
62
252
70
192
10
-21.850061
20
-0.903909
30
18.702084
0
VERTEX
8
0
6
CONTINUOUS
62
252
70
192
10
-21.831238
20
-0.828142
30
18.709689
0
VERTEX
8
0
6
CONTINUOUS
62
252
70
128
10
0.000000
20
0.000000
30
0.000000
71
36
72
1
73
19
0
VERTEX
8
0
6
CONTINUOUS
62
252
70
128
10
0.000000
20
0.000000
30
0.000000
71
19
72
1
73
2
0
VERTEX
8
0
6
CONTINUOUS
62
252
70
128
10
0.000000
20
0.000000
30
0.000000
71
19
72
2
73
18
0
VERTEX
8
0
6
CONTINUOUS
62
252
70
128
10
0.000000
20
0.000000
30
0.000000
71
18
72
2
73
17
0
VERTEX
8
0
6
CONTINUOUS
62
252
70
128
10
0.000000
20
0.000000
30
0.000000
71
17
72
2
73
16
0
VERTEX
8
0
6
CONTINUOUS
62
252
70
128
10
0.000000
20
0.000000
30
0.000000
71
16
72
2
73
3
0
VERTEX
8
0
6
CONTINUOUS
62
252
70
128
10
0.000000
20
0.000000
30
0.000000
71
16
72
3
73
4
0
VERTEX
8
0
6
CONTINUOUS
62
252
70
128
10
0.000000
20
0.000000
30
0.000000
71
5
72
14
73
4
0
VERTEX
8
0
6
CONTINUOUS
62
252
70
128
10
0.000000
20
0.000000
30
0.000000
71
4
72
14
73
15
0
VERTEX
8
0
6
CONTINUOUS
62
252
70
128
10
0.000000
20
0.000000
30
0.000000
71
4
72
15
73
16
0
VERTEX
8
0
6
CONTINUOUS
62
252
70
128
10
0.000000
20
0.000000
30
0.000000
71
5
72
6
73
14
0
VERTEX
8
0
6
CONTINUOUS
62
252
70
128
10
0.000000
20
0.000000
30
0.000000
71
14
72
6
73
7
0
VERTEX
8
0
6
CONTINUOUS
62
252
70
128
10
0.000000
20
0.000000
30
0.000000
71
14
72
7
73
13
0
VERTEX
8
0
6
CONTINUOUS
62
252
70
128
10
0.000000
20
0.000000
30
0.000000
71
13
72
7
73
12
0
VERTEX
8
0
6
CONTINUOUS
62
252
70
128
10
0.000000
20
0.000000
30
0.000000
71
12
72
7
73
11
0
VERTEX
8
0
6
CONTINUOUS
62
252
70
128
10
0.000000
20
0.000000
30
0.000000
71
11
72
7
73
10
0
VERTEX
8
0
6
CONTINUOUS
62
252
70
128
10
0.000000
20
0.000000
30
0.000000
71
10
72
7
73
9
0
VERTEX
8
0
6
CONTINUOUS
62
252
70
128
10
0.000000
20
0.000000
30
0.000000
71
9
72
7
73
8
0
VERTEX
8
0
6
CONTINUOUS
62
252
70
128
10
0.000000
20
0.000000
30
0.000000
71
19
72
20
73
36
0
VERTEX
8
0
6
CONTINUOUS
62
252
70
128
10
0.000000
20
0.000000
30
0.000000
71
36
72
20
73
21
0
VERTEX
8
0
6
CONTINUOUS
62
252
70
128
10
0.000000
20
0.000000
30
0.000000
71
36
72
21
73
22
0
VERTEX
8
0
6
CONTINUOUS
62
252
70
128
10
0.000000
20
0.000000
30
0.000000
71
23
72
31
73
22
0
VERTEX
8
0
6
CONTINUOUS
62
252
70
128
10
0.000000
20
0.000000
30
0.000000
71
22
72
31
73
32
0
VERTEX
8
0
6
CONTINUOUS
62
252
70
128
10
0.000000
20
0.000000
30
0.000000
71
22
72
32
73
33
0
VERTEX
8
0
6
CONTINUOUS
62
252
70
128
10
0.000000
20
0.000000
30
0.000000
71
23
72
24
73
31
0
VERTEX
8
0
6
CONTINUOUS
62
252
70
128
10
0.000000
20
0.000000
30
0.000000
71
31
72
24
73
25
0
VERTEX
8
0
6
CONTINUOUS
62
252
70
128
10
0.000000
20
0.000000
30
0.000000
71
31
72
25
73
26
0
VERTEX
8
0
6
CONTINUOUS
62
252
70
128
10
0.000000
20
0.000000
30
0.000000
71
27
72
28
73
26
0
VERTEX
8
0
6
CONTINUOUS
62
252
70
128
10
0.000000
20
0.000000
30
0.000000
71
26
72
28
73
29
0
VERTEX
8
0
6
CONTINUOUS
62
252
70
128
10
0.000000
20
0.000000
30
0.000000
71
26
72
29
73
30
0
VERTEX
8
0
6
CONTINUOUS
62
252
70
128
10
0.000000
20
0.000000
30
0.000000
71
30
72
31
73
26
0
VERTEX
8
0
6
CONTINUOUS
62
252
70
128
10
0.000000
20
0.000000
30
0.000000
71
33
72
34
73
22
0
VERTEX
8
0
6
CONTINUOUS
62
252
70
128
10
0.000000
20
0.000000
30
0.000000
71
22
72
34
73
35
0
VERTEX
8
0
6
CONTINUOUS
62
252
70
128
10
0.000000
20
0.000000
30
0.000000
71
22
72
35
73
36
0
SEQEND
0
POLYLINE
66
1
8
0
6
CONTINUOUS
62
252
70
64
75
0
10
0.000000
20
0.000000
30
0.000000
0
VERTEX
8
0
6
CONTINUOUS
62
252
70
192
10
-2.787477
20
-15.000000
30
2.508480
0
VERTEX
8
0
6
CONTINUOUS
62
252
70
192
10
-2.309536
20
-15.000000
30
2.954411
0
VERTEX
8
0
6
CONTINUOUS
62
252
70
192
10
-1.761421
20
-15.000000
30
3.310573
0
VERTEX
8
0
6
CONTINUOUS
62
252
70
192
10
-1.159786
20
-15.000000
30
3.566146
0
VERTEX
8
0
6
CONTINUOUS
62
252
70
192
10
-0.522912
20
-15.000000
30
3.713363
0
VERTEX
8
0
6
CONTINUOUS
62
252
70
192
10
0.129851
20
-15.000000
30
3.747751
0
VERTEX
8
0
6
CONTINUOUS
62
252
70
192
10
0.778669
20
-15.000000
30
3.668266
0
VERTEX
8
0
6
CONTINUOUS
62
252
70
192
10
1.403826
20
-15.000000
30
3.477322
0
VERTEX
8
0
6
CONTINUOUS
62
252
70
192
10
1.986330
20
-15.000000
30
3.180722
0
VERTEX
8
0
6
CONTINUOUS
62
252
70
192
10
2.508480
20
-15.000000
30
2.787477
0
VERTEX
8
0
6
CONTINUOUS
62
252
70
192
10
2.954411
20
-15.000000
30
2.309536
0
VERTEX
8
0
6
CONTINUOUS
62
252
70
192
10
3.310573
20
-15.000000
30
1.761421
0
VERTEX
8
0
6
CONTINUOUS
62
252
70
192
10
3.566146
20
-15.000000
30
1.159786
0
VERTEX
8
0
6
CONTINUOUS
62
252
70
192
10
3.713363
20
-15.000000
30
0.522912
0
VERTEX
8
0
6
CONTINUOUS
62
252
70
192
10
3.747751
20
-15.000000
30
-0.129851
0
VERTEX
8
0
6
CONTINUOUS
62
252
70
192
10
3.668266
20
-15.000000
30
-0.778669
0
VERTEX
8
0
6
CONTINUOUS
62
252
70
192
10
3.477322
20
-15.000000
30
-1.403826
0
VERTEX
8
0
6
CONTINUOUS
62
252
70
192
10
3.180722
20
-15.000000
30
-1.986330
0
VERTEX
8
0
6
CONTINUOUS
62
252
70
192
10
2.787477
20
-15.000000
30
-2.508480
0
VERTEX
8
0
6
CONTINUOUS
62
252
70
192
10
2.787477
20
-0.000000
30
-2.508480
0
VERTEX
8
0
6
CONTINUOUS
62
252
70
192
10
3.180722
20
-0.000000
30
-1.986330
0
VERTEX
8
0
6
CONTINUOUS
62
252
70
192
10
3.477322
20
-0.000000
30
-1.403826
0
VERTEX
8
0
6
CONTINUOUS
62
252
70
192
10
3.668266
20
-0.000000
30
-0.778669
0
VERTEX
8
0
6
CONTINUOUS
62
252
70
192
10
3.747751
20
-0.000000
30
-0.129851
0
VERTEX
8
0
6
CONTINUOUS
62
252
70
192
10
3.713363
20
0.000000
30
0.522912
0
VERTEX
8
0
6
CONTINUOUS
62
252
70
192
10
3.566146
20
0.000000
30
1.159786
0
VERTEX
8
0
6
CONTINUOUS
62
252
70
192
10
3.310573
20
0.000000
30
1.761421
0
VERTEX
8
0
6
CONTINUOUS
62
252
70
192
10
2.954411
20
0.000000
30
2.309536
0
VERTEX
8
0
6
CONTINUOUS
62
252
70
192
10
2.508480
20
0.000000
30
2.787477
0
VERTEX
8
0
6
CONTINUOUS
62
252
70
192
10
1.986330
20
0.000000
30
3.180722
0
VERTEX
8
0
6
CONTINUOUS
62
252
70
192
10
1.403826
20
0.000000
30
3.477322
0
VERTEX
8
0
6
CONTINUOUS
62
252
70
192
10
0.778669
20
0.000000
30
3.668266
0
VERTEX
8
0
6
CONTINUOUS
62
252
70
192
10
0.129851
20
0.000000
30
3.747751
0
VERTEX
8
0
6
CONTINUOUS
62
252
70
192
10
-0.522912
20
0.000000
30
3.713363
0
VERTEX
8
0
6
CONTINUOUS
62
252
70
192
10
-1.159786
20
0.000000
30
3.566146
0
VERTEX
8
0
6
CONTINUOUS
62
252
70
192
10
-1.761421
20
0.000000
30
3.310573
0
VERTEX
8
0
6
CONTINUOUS
62
252
70
192
10
-2.309536
20
0.000000
30
2.954411
0
VERTEX
8
0
6
CONTINUOUS
62
252
70
192
10
-2.787477
20
0.000000
30
2.508480
0
VERTEX
8
0
6
CONTINUOUS
62
252
70
128
10
0.000000
20
0.000000
30
0.000000
71
38
72
1
73
37
0
VERTEX
8
0
6
CONTINUOUS
62
252
70
128
10
0.000000
20
0.000000
30
0.000000
71
37
72
1
73
2
0
VERTEX
8
0
6
CONTINUOUS
62
252
70
128
10
0.000000
20
0.000000
30
0.000000
71
37
72
2
73
36
0
VERTEX
8
0
6
CONTINUOUS
62
252
70
128
10
0.000000
20
0.000000
30
0.000000
71
36
72
2
73
3
0
VERTEX
8
0
6
CONTINUOUS
62
252
70
128
10
0.000000
20
0.000000
30
0.000000
71
36
72
3
73
35
0
VERTEX
8
0
6
CONTINUOUS
62
252
70
128
10
0.000000
20
0.000000
30
0.000000
71
35
72
3
73
4
0
VERTEX
8
0
6
CONTINUOUS
62
252
70
128
10
0.000000
20
0.000000
30
0.000000
71
35
72
4
73
34
0
VERTEX
8
0
6
CONTINUOUS
62
252
70
128
10
0.000000
20
0.000000
30
0.000000
71
34
72
4
73
5
0
VERTEX
8
0
6
CONTINUOUS
62
252
70
128
10
0.000000
20
0.000000
30
0.000000
71
34
72
5
73
33
0
VERTEX
8
0
6
CONTINUOUS
62
252
70
128
10
0.000000
20
0.000000
30
0.000000
71
33
72
5
73
6
0
VERTEX
8
0
6
CONTINUOUS
62
252
70
128
10
0.000000
20
0.000000
30
0.000000
71
33
72
6
73
32
0
VERTEX
8
0
6
CONTINUOUS
62
252
70
128
10
0.000000
20
0.000000
30
0.000000
71
32
72
6
73
7
0
VERTEX
8
0
6
CONTINUOUS
62
252
70
128
10
0.000000
20
0.000000
30
0.000000
71
32
72
7
73
31
0
VERTEX
8
0
6
CONTINUOUS
62
252
70
128
10
0.000000
20
0.000000
30
0.000000
71
31
72
7
73
8
0
VERTEX
8
0
6
CONTINUOUS
62
252
70
128
10
0.000000
20
0.000000
30
0.000000
71
31
72
8
73
30
0
VERTEX
8
0
6
CONTINUOUS
62
252
70
128
10
0.000000
20
0.000000
30
0.000000
71
30
72
8
73
9
0
VERTEX
8
0
6
CONTINUOUS
62
252
70
128
10
0.000000
20
0.000000
30
0.000000
71
30
72
9
73
29
0
VERTEX
8
0
6
CONTINUOUS
62
252
70
128
10
0.000000
20
0.000000
30
0.000000
71
29
72
9
73
10
0
VERTEX
8
0
6
CONTINUOUS
62
252
70
128
10
0.000000
20
0.000000
30
0.000000
71
29
72
10
73
28
0
VERTEX
8
0
6
CONTINUOUS
62
252
70
128
10
0.000000
20
0.000000
30
0.000000
71
28
72
10
73
11
0
VERTEX
8
0
6
CONTINUOUS
62
252
70
128
10
0.000000
20
0.000000
30
0.000000
71
28
72
11
73
27
0
VERTEX
8
0
6
CONTINUOUS
62
252
70
128
10
0.000000
20
0.000000
30
0.000000
71
27
72
11
73
12
0
VERTEX
8
0
6
CONTINUOUS
62
252
70
128
10
0.000000
20
0.000000
30
0.000000
71
27
72
12
73
26
0
VERTEX
8
0
6
CONTINUOUS
62
252
70
128
10
0.000000
20
0.000000
30
0.000000
71
26
72
12
73
13
0
VERTEX
8
0
6
CONTINUOUS
62
252
70
128
10
0.000000
20
0.000000
30
0.000000
71
26
72
13
73
25
0
VERTEX
8
0
6
CONTINUOUS
62
252
70
128
10
0.000000
20
0.000000
30
0.000000
71
25
72
13
73
14
0
VERTEX
8
0
6
CONTINUOUS
62
252
70
128
10
0.000000
20
0.000000
30
0.000000
71
25
72
14
73
24
0
VERTEX
8
0
6
CONTINUOUS
62
252
70
128
10
0.000000
20
0.000000
30
0.000000
71
24
72
14
73
15
0
VERTEX
8
0
6
CONTINUOUS
62
252
70
128
10
0.000000
20
0.000000
30
0.000000
71
24
72
15
73
23
0
VERTEX
8
0
6
CONTINUOUS
62
252
70
128
10
0.000000
20
0.000000
30
0.000000
71
23
72
15
73
16
0
VERTEX
8
0
6
CONTINUOUS
62
252
70
128
10
0.000000
20
0.000000
30
0.000000
71
23
72
16
73
22
0
VERTEX
8
0
6
CONTINUOUS
62
252
70
128
10
0.000000
20
0.000000
30
0.000000
71
22
72
16
73
17
0
VERTEX
8
0
6
CONTINUOUS
62
252
70
128
10
0.000000
20
0.000000
30
0.000000
71
22
72
17
73
21
0
VERTEX
8
0
6
CONTINUOUS
62
252
70
128
10
0.000000
20
0.000000
30
0.000000
71
21
72
17
73
18
0
VERTEX
8
0
6
CONTINUOUS
62
252
70
128
10
0.000000
20
0.000000
30
0.000000
71
21
72
18
73
20
0
VERTEX
8
0
6
CONTINUOUS
62
252
70
128
10
0.000000
20
0.000000
30
0.000000
71
20
72
18
73
19
0
SEQEND
0
POLYLINE
66
1
8
0
6
CONTINUOUS
62
252
70
64
75
0
10
0.000000
20
0.000000
30
0.000000
0
VERTEX
8
0
6
CONTINUOUS
62
252
70
192
10
2.787477
20
-15.000000
30
-2.508480
0
VERTEX
8
0
6
CONTINUOUS
62
252
70
192
10
0.825256
20
-15.000000
30
-4.747795
0
VERTEX
8
0
6
CONTINUOUS
62
252
70
192
10
0.825256
20
-0.000000
30
-4.747795
0
VERTEX
8
0
6
CONTINUOUS
62
252
70
192
10
2.787477
20
-0.000000
30
-2.508480
0
VERTEX
8
0
6
CONTINUOUS
62
252
70
128
10
0.000000
20
0.000000
30
0.000000
71
2
72
3
73
1
0
VERTEX
8
0
6
CONTINUOUS
62
252
70
128
10
0.000000
20
0.000000
30
0.000000
71
1
72
3
73
4
0
SEQEND
0
POLYLINE
66
1
8
0
6
CONTINUOUS
62
252
70
64
75
0
10
0.000000
20
0.000000
30
0.000000
0
VERTEX
8
0
6
CONTINUOUS
62
252
70
192
10
0.825256
20
-15.000000
30
-4.747795
0
VERTEX
8
0
6
CONTINUOUS
62
252
70
192
10
0.720177
20
-15.000000
30
-4.897470
0
VERTEX
8
0
6
CONTINUOUS
62
252
70
192
10
0.641524
20
-15.000000
30
-5.062570
0
VERTEX
8
0
6
CONTINUOUS
62
252
70
192
10
0.591498
20
-15.000000
30
-5.238473
0
VERTEX
8
0
6
CONTINUOUS
62
252
70
192
10
0.571500
20
-15.000000
30
-5.420254
0
VERTEX
8
0
6
CONTINUOUS
62
252
70
192
10
0.582090
20
-15.000000
30
-5.602824
0
VERTEX
8
0
6
CONTINUOUS
62
252
70
192
10
0.622972
20
-15.000000
30
-5.781074
0
VERTEX
8
0
6
CONTINUOUS
62
252
70
192
10
0.693000
20
-15.000000
30
-5.950013
0
VERTEX
8
0
6
CONTINUOUS
62
252
70
192
10
0.693000
20
-0.000000
30
-5.950013
0
VERTEX
8
0
6
CONTINUOUS
62
252
70
192
10
0.622972
20
-0.000000
30
-5.781074
0
VERTEX
8
0
6
CONTINUOUS
62
252
70
192
10
0.582090
20
-0.000000
30
-5.602824
0
VERTEX
8
0
6
CONTINUOUS
62
252
70
192
10
0.571500
20
-0.000000
30
-5.420254
0
VERTEX
8
0
6
CONTINUOUS
62
252
70
192
10
0.591498
20
-0.000000
30
-5.238473
0
VERTEX
8
0
6
CONTINUOUS
62
252
70
192
10
0.641524
20
-0.000000
30
-5.062570
0
VERTEX
8
0
6
CONTINUOUS
62
252
70
192
10
0.720177
20
-0.000000
30
-4.897470
0
VERTEX
8
0
6
CONTINUOUS
62
252
70
192
10
0.825256
20
-0.000000
30
-4.747795
0
VERTEX
8
0
6
CONTINUOUS
62
252
70
128
10
0.000000
20
0.000000
30
0.000000
71
16
72
1
73
15
0
VERTEX
8
0
6
CONTINUOUS
62
252
70
128
10
0.000000
20
0.000000
30
0.000000
71
15
72
1
73
2
0
VERTEX
8
0
6
CONTINUOUS
62
252
70
128
10
0.000000
20
0.000000
30
0.000000
71
15
72
2
73
14
0
VERTEX
8
0
6
CONTINUOUS
62
252
70
128
10
0.000000
20
0.000000
30
0.000000
71
14
72
2
73
3
0
VERTEX
8
0
6
CONTINUOUS
62
252
70
128
10
0.000000
20
0.000000
30
0.000000
71
14
72
3
73
4
0
VERTEX
8
0
6
CONTINUOUS
62
252
70
128
10
0.000000
20
0.000000
30
0.000000
71
5
72
12
73
4
0
VERTEX
8
0
6
CONTINUOUS
62
252
70
128
10
0.000000
20
0.000000
30
0.000000
71
4
72
12
73
13
0
VERTEX
8
0
6
CONTINUOUS
62
252
70
128
10
0.000000
20
0.000000
30
0.000000
71
4
72
13
73
14
0
VERTEX
8
0
6
CONTINUOUS
62
252
70
128
10
0.000000
20
0.000000
30
0.000000
71
12
72
5
73
11
0
VERTEX
8
0
6
CONTINUOUS
62
252
70
128
10
0.000000
20
0.000000
30
0.000000
71
11
72
5
73
6
0
VERTEX
8
0
6
CONTINUOUS
62
252
70
128
10
0.000000
20
0.000000
30
0.000000
71
11
72
6
73
7
0
VERTEX
8
0
6
CONTINUOUS
62
252
70
128
10
0.000000
20
0.000000
30
0.000000
71
8
72
9
73
7
0
VERTEX
8
0
6
CONTINUOUS
62
252
70
128
10
0.000000
20
0.000000
30
0.000000
71
7
72
9
73
10
0
VERTEX
8
0
6
CONTINUOUS
62
252
70
128
10
0.000000
20
0.000000
30
0.000000
71
7
72
10
73
11
0
SEQEND
0
POLYLINE
66
1
8
0
6
CONTINUOUS
62
252
70
64
75
0
10
0.000000
20
0.000000
30
0.000000
0
VERTEX
8
0
6
CONTINUOUS
62
252
70
192
10
4.102299
20
-6.200000
30
-23.961621
0
VERTEX
8
0
6
CONTINUOUS
62
252
70
192
10
4.102299
20
-9.200000
30
-23.961621
0
VERTEX
8
0
6
CONTINUOUS
62
252
70
192
10
4.529537
20
-9.200000
30
-21.345861
0
VERTEX
8
0
6
CONTINUOUS
62
252
70
192
10
4.655664
20
-9.200000
30
-18.698442
0
VERTEX
8
0
6
CONTINUOUS
62
252
70
192
10
4.479033
20
-9.200000
30
-16.053913
0
VERTEX
8
0
6
CONTINUOUS
62
252
70
192
10
4.479033
20
-6.200000
30
-16.053913
0
VERTEX
8
0
6
CONTINUOUS
62
252
70
192
10
4.655664
20
-6.200000
30
-18.698442
0
VERTEX
8
0
6
CONTINUOUS
62
252
70
192
10
4.529537
20
-6.200000
30
-21.345861
0
VERTEX
8
0
6
CONTINUOUS
62
252
70
192
10
0.693000
20
-15.000000
30
-5.950013
0
VERTEX
8
0
6
CONTINUOUS
62
252
70
192
10
2.582539
20
-15.000000
30
-9.331024
0
VERTEX
8
0
6
CONTINUOUS
62
252
70
192
10
3.883301
20
-15.000000
30
-12.979258
0
VERTEX
8
0
6
CONTINUOUS
62
252
70
192
10
4.559036
20
-15.000000
30
-16.793045
0
VERTEX
8
0
6
CONTINUOUS
62
252
70
192
10
4.590912
20
-15.000000
30
-20.666103
0
VERTEX
8
0
6
CONTINUOUS
62
252
70
192
10
3.978042
20
-15.000000
30
-24.490496
0
VERTEX
8
0
6
CONTINUOUS
62
252
70
192
10
3.978042
20
-0.000000
30
-24.490496
0
VERTEX
8
0
6
CONTINUOUS
62
252
70
192
10
4.590912
20
-0.000000
30
-20.666103
0
VERTEX
8
0
6
CONTINUOUS
62
252
70
192
10
4.559036
20
-0.000000
30
-16.793045
0
VERTEX
8
0
6
CONTINUOUS
62
252
70
192
10
3.883301
20
-0.000000
30
-12.979258
0
VERTEX
8
0
6
CONTINUOUS
62
252
70
192
10
2.582539
20
-0.000000
30
-9.331024
0
VERTEX
8
0
6
CONTINUOUS
62
252
70
192
10
0.693000
20
-0.000000
30
-5.950013
0
VERTEX
8
0
6
CONTINUOUS
62
252
70
128
10
0.000000
20
0.000000
30
0.000000
71
2
72
14
73
1
0
VERTEX
8
0
6
CONTINUOUS
62
252
70
128
10
0.000000
20
0.000000
30
0.000000
71
1
72
14
73
15
0
VERTEX
8
0
6
CONTINUOUS
62
252
70
128
10
0.000000
20
0.000000
30
0.000000
71
1
72
15
73
8
0
VERTEX
8
0
6
CONTINUOUS
62
252
70
128
10
0.000000
20
0.000000
30
0.000000
71
8
72
15
73
16
0
VERTEX
8
0
6
CONTINUOUS
62
252
70
128
10
0.000000
20
0.000000
30
0.000000
71
8
72
16
73
7
0
VERTEX
8
0
6
CONTINUOUS
62
252
70
128
10
0.000000
20
0.000000
30
0.000000
71
7
72
16
73
17
0
VERTEX
8
0
6
CONTINUOUS
62
252
70
128
10
0.000000
20
0.000000
30
0.000000
71
7
72
17
73
6
0
VERTEX
8
0
6
CONTINUOUS
62
252
70
128
10
0.000000
20
0.000000
30
0.000000
71
6
72
17
73
18
0
VERTEX
8
0
6
CONTINUOUS
62
252
70
128
10
0.000000
20
0.000000
30
0.000000
71
6
72
18
73
11
0
VERTEX
8
0
6
CONTINUOUS
62
252
70
128
10
0.000000
20
0.000000
30
0.000000
71
11
72
18
73
19
0
VERTEX
8
0
6
CONTINUOUS
62
252
70
128
10
0.000000
20
0.000000
30
0.000000
71
11
72
19
73
10
0
VERTEX
8
0
6
CONTINUOUS
62
252
70
128
10
0.000000
20
0.000000
30
0.000000
71
10
72
19
73
20
0
VERTEX
8
0
6
CONTINUOUS
62
252
70
128
10
0.000000
20
0.000000
30
0.000000
71
10
72
20
73
9
0
VERTEX
8
0
6
CONTINUOUS
62
252
70
128
10
0.000000
20
0.000000
30
0.000000
71
2
72
3
73
14
0
VERTEX
8
0
6
CONTINUOUS
62
252
70
128
10
0.000000
20
0.000000
30
0.000000
71
14
72
3
73
13
0
VERTEX
8
0
6
CONTINUOUS
62
252
70
128
10
0.000000
20
0.000000
30
0.000000
71
13
72
3
73
4
0
VERTEX
8
0
6
CONTINUOUS
62
252
70
128
10
0.000000
20
0.000000
30
0.000000
71
13
72
4
73
12
0
VERTEX
8
0
6
CONTINUOUS
62
252
70
128
10
0.000000
20
0.000000
30
0.000000
71
12
72
4
73
5
0
VERTEX
8
0
6
CONTINUOUS
62
252
70
128
10
0.000000
20
0.000000
30
0.000000
71
12
72
5
73
11
0
VERTEX
8
0
6
CONTINUOUS
62
252
70
128
10
0.000000
20
0.000000
30
0.000000
71
11
72
5
73
6
0
SEQEND
0
POLYLINE
66
1
8
0
6
CONTINUOUS
62
252
70
64
75
0
10
0.000000
20
0.000000
30
0.000000
0
VERTEX
8
0
6
CONTINUOUS
62
252
70
192
10
3.978042
20
-15.000000
30
-24.490496
0
VERTEX
8
0
6
CONTINUOUS
62
252
70
192
10
3.788691
20
-15.000000
30
-25.178004
0
VERTEX
8
0
6
CONTINUOUS
62
252
70
192
10
3.577133
20
-15.000000
30
-25.859005
0
VERTEX
8
0
6
CONTINUOUS
62
252
70
192
10
3.343590
20
-15.000000
30
-26.532784
0
VERTEX
8
0
6
CONTINUOUS
62
252
70
192
10
3.343590
20
-0.000000
30
-26.532784
0
VERTEX
8
0
6
CONTINUOUS
62
252
70
192
10
3.577133
20
-0.000000
30
-25.859005
0
VERTEX
8
0
6
CONTINUOUS
62
252
70
192
10
3.788691
20
-0.000000
30
-25.178004
0
VERTEX
8
0
6
CONTINUOUS
62
252
70
192
10
3.978042
20
-0.000000
30
-24.490496
0
VERTEX
8
0
6
CONTINUOUS
62
252
70
128
10
0.000000
20
0.000000
30
0.000000
71
8
72
1
73
7
0
VERTEX
8
0
6
CONTINUOUS
62
252
70
128
10
0.000000
20
0.000000
30
0.000000
71
7
72
1
73
2
0
VERTEX
8
0
6
CONTINUOUS
62
252
70
128
10
0.000000
20
0.000000
30
0.000000
71
7
72
2
73
6
0
VERTEX
8
0
6
CONTINUOUS
62
252
70
128
10
0.000000
20
0.000000
30
0.000000
71
6
72
2
73
3
0
VERTEX
8
0
6
CONTINUOUS
62
252
70
128
10
0.000000
20
0.000000
30
0.000000
71
6
72
3
73
5
0
VERTEX
8
0
6
CONTINUOUS
62
252
70
128
10
0.000000
20
0.000000
30
0.000000
71
5
72
3
73
4
0
SEQEND
0
POLYLINE
66
1
8
0
6
CONTINUOUS
62
252
70
64
75
0
10
0.000000
20
0.000000
30
0.000000
0
VERTEX
8
0
6
CONTINUOUS
62
252
70
192
10
3.343590
20
-15.000000
30
-26.532784
0
VERTEX
8
0
6
CONTINUOUS
62
252
70
192
10
3.297143
20
-15.000000
30
-26.753175
0
VERTEX
8
0
6
CONTINUOUS
62
252
70
192
10
3.287864
20
-15.000000
30
-26.978216
0
VERTEX
8
0
6
CONTINUOUS
62
252
70
192
10
3.316009
20
-15.000000
30
-27.201683
0
VERTEX
8
0
6
CONTINUOUS
62
252
70
192
10
3.380801
20
-15.000000
30
-27.417395
0
VERTEX
8
0
6
CONTINUOUS
62
252
70
192
10
3.480446
20
-15.000000
30
-27.619386
0
VERTEX
8
0
6
CONTINUOUS
62
252
70
192
10
3.612189
20
-15.000000
30
-27.802069
0
VERTEX
8
0
6
CONTINUOUS
62
252
70
192
10
3.772387
20
-15.000000
30
-27.960393
0
VERTEX
8
0
6
CONTINUOUS
62
252
70
192
10
3.956608
20
-15.000000
30
-28.089977
0
VERTEX
8
0
6
CONTINUOUS
62
252
70
192
10
4.159758
20
-15.000000
30
-28.187238
0
VERTEX
8
0
6
CONTINUOUS
62
252
70
192
10
4.376217
20
-15.000000
30
-28.249486
0
VERTEX
8
0
6
CONTINUOUS
62
252
70
192
10
4.600000
20
-15.000000
30
-28.275000
0
VERTEX
8
0
6
CONTINUOUS
62
252
70
192
10
4.600000
20
-0.000000
30
-28.275000
0
VERTEX
8
0
6
CONTINUOUS
62
252
70
192
10
4.376217
20
-0.000000
30
-28.249486
0
VERTEX
8
0
6
CONTINUOUS
62
252
70
192
10
4.159758
20
-0.000000
30
-28.187238
0
VERTEX
8
0
6
CONTINUOUS
62
252
70
192
10
3.956608
20
-0.000000
30
-28.089977
0
VERTEX
8
0
6
CONTINUOUS
62
252
70
192
10
3.772387
20
-0.000000
30
-27.960393
0
VERTEX
8
0
6
CONTINUOUS
62
252
70
192
10
3.612189
20
-0.000000
30
-27.802069
0
VERTEX
8
0
6
CONTINUOUS
62
252
70
192
10
3.480446
20
-0.000000
30
-27.619386
0
VERTEX
8
0
6
CONTINUOUS
62
252
70
192
10
3.380801
20
-0.000000
30
-27.417395
0
VERTEX
8
0
6
CONTINUOUS
62
252
70
192
10
3.316009
20
-0.000000
30
-27.201683
0
VERTEX
8
0
6
CONTINUOUS
62
252
70
192
10
3.287864
20
-0.000000
30
-26.978216
0
VERTEX
8
0
6
CONTINUOUS
62
252
70
192
10
3.297143
20
-0.000000
30
-26.753175
0
VERTEX
8
0
6
CONTINUOUS
62
252
70
192
10
3.343590
20
-0.000000
30
-26.532784
0
VERTEX
8
0
6
CONTINUOUS
62
252
70
128
10
0.000000
20
0.000000
30
0.000000
71
24
72
1
73
23
0
VERTEX
8
0
6
CONTINUOUS
62
252
70
128
10
0.000000
20
0.000000
30
0.000000
71
23
72
1
73
2
0
VERTEX
8
0
6
CONTINUOUS
62
252
70
128
10
0.000000
20
0.000000
30
0.000000
71
23
72
2
73
22
0
VERTEX
8
0
6
CONTINUOUS
62
252
70
128
10
0.000000
20
0.000000
30
0.000000
71
22
72
2
73
3
0
VERTEX
8
0
6
CONTINUOUS
62
252
70
128
10
0.000000
20
0.000000
30
0.000000
71
22
72
3
73
4
0
VERTEX
8
0
6
CONTINUOUS
62
252
70
128
10
0.000000
20
0.000000
30
0.000000
71
22
72
4
73
21
0
VERTEX
8
0
6
CONTINUOUS
62
252
70
128
10
0.000000
20
0.000000
30
0.000000
71
21
72
4
73
5
0
VERTEX
8
0
6
CONTINUOUS
62
252
70
128
10
0.000000
20
0.000000
30
0.000000
71
21
72
5
73
20
0
VERTEX
8
0
6
CONTINUOUS
62
252
70
128
10
0.000000
20
0.000000
30
0.000000
71
20
72
5
73
19
0
VERTEX
8
0
6
CONTINUOUS
62
252
70
128
10
0.000000
20
0.000000
30
0.000000
71
19
72
5
73
6
0
VERTEX
8
0
6
CONTINUOUS
62
252
70
128
10
0.000000
20
0.000000
30
0.000000
71
19
72
6
73
18
0
VERTEX
8
0
6
CONTINUOUS
62
252
70
128
10
0.000000
20
0.000000
30
0.000000
71
18
72
6
73
7
0
VERTEX
8
0
6
CONTINUOUS
62
252
70
128
10
0.000000
20
0.000000
30
0.000000
71
18
72
7
73
17
0
VERTEX
8
0
6
CONTINUOUS
62
252
70
128
10
0.000000
20
0.000000
30
0.000000
71
17
72
7
73
8
0
VERTEX
8
0
6
CONTINUOUS
62
252
70
128
10
0.000000
20
0.000000
30
0.000000
71
17
72
8
73
16
0
VERTEX
8
0
6
CONTINUOUS
62
252
70
128
10
0.000000
20
0.000000
30
0.000000
71
16
72
8
73
9
0
VERTEX
8
0
6
CONTINUOUS
62
252
70
128
10
0.000000
20
0.000000
30
0.000000
71
16
72
9
73
10
0
VERTEX
8
0
6
CONTINUOUS
62
252
70
128
10
0.000000
20
0.000000
30
0.000000
71
16
72
10
73
15
0
VERTEX
8
0
6
CONTINUOUS
62
252
70
128
10
0.000000
20
0.000000
30
0.000000
71
15
72
10
73
11
0
VERTEX
8
0
6
CONTINUOUS
62
252
70
128
10
0.000000
20
0.000000
30
0.000000
71
15
72
11
73
14
0
VERTEX
8
0
6
CONTINUOUS
62
252
70
128
10
0.000000
20
0.000000
30
0.000000
71
14
72
11
73
12
0
VERTEX
8
0
6
CONTINUOUS
62
252
70
128
10
0.000000
20
0.000000
30
0.000000
71
14
72
12
73
13
0
SEQEND
0
POLYLINE
66
1
8
0
6
CONTINUOUS
62
252
70
64
75
0
10
0.000000
20
0.000000
30
0.000000
0
VERTEX
8
0
6
CONTINUOUS
62
252
70
192
10
4.600000
20
-15.000000
30
-28.275000
0
VERTEX
8
0
6
CONTINUOUS
62
252
70
192
10
6.725000
20
-15.000000
30
-28.300000
0
VERTEX
8
0
6
CONTINUOUS
62
252
70
192
10
6.725000
20
-0.000000
30
-28.300000
0
VERTEX
8
0
6
CONTINUOUS
62
252
70
192
10
4.600000
20
-0.000000
30
-28.275000
0
VERTEX
8
0
6
CONTINUOUS
62
252
70
128
10
0.000000
20
0.000000
30
0.000000
71
2
72
3
73
1
0
VERTEX
8
0
6
CONTINUOUS
62
252
70
128
10
0.000000
20
0.000000
30
0.000000
71
1
72
3
73
4
0
SEQEND
0
POLYLINE
66
1
8
0
6
CONTINUOUS
62
252
70
64
75
0
10
0.000000
20
0.000000
30
0.000000
0
VERTEX
8
0
6
CONTINUOUS
62
252
70
192
10
6.725000
20
-2.000000
30
-47.000000
0
VERTEX
8
0
6
CONTINUOUS
62
252
70
192
10
6.725000
20
-13.800000
30
-47.000000
0
VERTEX
8
0
6
CONTINUOUS
62
252
70
192
10
6.725000
20
-13.800000
30
-29.500000
0
VERTEX
8
0
6
CONTINUOUS
62
252
70
192
10
6.725000
20
-2.000000
30
-29.500000
0
VERTEX
8
0
6
CONTINUOUS
62
252
70
192
10
6.725000
20
-15.000000
30
-28.300000
0
VERTEX
8
0
6
CONTINUOUS
62
252
70
192
10
6.725000
20
-15.000000
30
-48.200000
0
VERTEX
8
0
6
CONTINUOUS
62
252
70
192
10
6.725000
20
-0.000000
30
-48.200000
0
VERTEX
8
0
6
CONTINUOUS
62
252
70
192
10
6.725000
20
-0.000000
30
-28.300000
0
VERTEX
8
0
6
CONTINUOUS
62
252
70
128
10
0.000000
20
0.000000
30
0.000000
71
2
72
6
73
1
0
VERTEX
8
0
6
CONTINUOUS
62
252
70
128
10
0.000000
20
0.000000
30
0.000000
71
1
72
6
73
7
0
VERTEX
8
0
6
CONTINUOUS
62
252
70
128
10
0.000000
20
0.000000
30
0.000000
71
1
72
7
73
8
0
VERTEX
8
0
6
CONTINUOUS
62
252
70
128
10
0.000000
20
0.000000
30
0.000000
71
6
72
2
73
5
0
VERTEX
8
0
6
CONTINUOUS
62
252
70
128
10
0.000000
20
0.000000
30
0.000000
71
5
72
2
73
3
0
VERTEX
8
0
6
CONTINUOUS
62
252
70
128
10
0.000000
20
0.000000
30
0.000000
71
5
72
3
73
4
0
VERTEX
8
0
6
CONTINUOUS
62
252
70
128
10
0.000000
20
0.000000
30
0.000000
71
5
72
4
73
8
0
VERTEX
8
0
6
CONTINUOUS
62
252
70
128
10
0.000000
20
0.000000
30
0.000000
71
8
72
4
73
1
0
SEQEND
0
POLYLINE
66
1
8
0
6
CONTINUOUS
62
252
70
64
75
0
10
0.000000
20
0.000000
30
0.000000
0
VERTEX
8
0
6
CONTINUOUS
62
252
70
192
10
-7.300000
20
-6.200000
30
-48.192712
0
VERTEX
8
0
6
CONTINUOUS
62
252
70
192
10
-7.300000
20
-9.200000
30
-48.192712
0
VERTEX
8
0
6
CONTINUOUS
62
252
70
192
10
0.700000
20
-9.200000
30
-48.196869
0
VERTEX
8
0
6
CONTINUOUS
62
252
70
192
10
0.700000
20
-6.200000
30
-48.196869
0
VERTEX
8
0
6
CONTINUOUS
62
252
70
192
10
6.725000
20
-15.000000
30
-48.200000
0
VERTEX
8
0
6
CONTINUOUS
62
252
70
192
10
-18.034981
20
-15.000000
30
-48.187134
0
VERTEX
8
0
6
CONTINUOUS
62
252
70
192
10
-18.034981
20
-0.000000
30
-48.187134
0
VERTEX
8
0
6
CONTINUOUS
62
252
70
192
10
6.725000
20
-0.000000
30
-48.200000
0
VERTEX
8
0
6
CONTINUOUS
62
252
70
128
10
0.000000
20
0.000000
30
0.000000
71
2
72
6
73
1
0
VERTEX
8
0
6
CONTINUOUS
62
252
70
128
10
0.000000
20
0.000000
30
0.000000
71
1
72
6
73
7
0
VERTEX
8
0
6
CONTINUOUS
62
252
70
128
10
0.000000
20
0.000000
30
0.000000
71
1
72
7
73
8
0
VERTEX
8
0
6
CONTINUOUS
62
252
70
128
10
0.000000
20
0.000000
30
0.000000
71
6
72
2
73
5
0
VERTEX
8
0
6
CONTINUOUS
62
252
70
128
10
0.000000
20
0.000000
30
0.000000
71
5
72
2
73
3
0
VERTEX
8
0
6
CONTINUOUS
62
252
70
128
10
0.000000
20
0.000000
30
0.000000
71
5
72
3
73
4
0
VERTEX
8
0
6
CONTINUOUS
62
252
70
128
10
0.000000
20
0.000000
30
0.000000
71
5
72
4
73
8
0
VERTEX
8
0
6
CONTINUOUS
62
252
70
128
10
0.000000
20
0.000000
30
0.000000
71
8
72
4
73
1
0
SEQEND
0
POLYLINE
66
1
8
0
6
CONTINUOUS
62
252
70
64
75
0
10
0.000000
20
0.000000
30
0.000000
0
VERTEX
8
0
6
CONTINUOUS
62
252
70
192
10
-18.034981
20
-15.000000
30
-48.187134
0
VERTEX
8
0
6
CONTINUOUS
62
252
70
192
10
-21.820142
20
-15.000000
30
-47.801495
0
VERTEX
8
0
6
CONTINUOUS
62
252
70
192
10
-25.514093
20
-15.000000
30
-46.889962
0
VERTEX
8
0
6
CONTINUOUS
62
252
70
192
10
-29.044138
20
-15.000000
30
-45.470473
0
VERTEX
8
0
6
CONTINUOUS
62
252
70
192
10
-32.340807
20
-15.000000
30
-43.570962
0
VERTEX
8
0
6
CONTINUOUS
62
252
70
192
10
-32.340807
20
-0.000000
30
-43.570962
0
VERTEX
8
0
6
CONTINUOUS
62
252
70
192
10
-29.044138
20
-0.000000
30
-45.470473
0
VERTEX
8
0
6
CONTINUOUS
62
252
70
192
10
-25.514093
20
-0.000000
30
-46.889962
0
VERTEX
8
0
6
CONTINUOUS
62
252
70
192
10
-21.820142
20
-0.000000
30
-47.801495
0
VERTEX
8
0
6
CONTINUOUS
62
252
70
192
10
-18.034981
20
-0.000000
30
-48.187134
0
VERTEX
8
0
6
CONTINUOUS
62
252
70
128
10
0.000000
20
0.000000
30
0.000000
71
10
72
1
73
9
0
VERTEX
8
0
6
CONTINUOUS
62
252
70
128
10
0.000000
20
0.000000
30
0.000000
71
9
72
1
73
2
0
VERTEX
8
0
6
CONTINUOUS
62
252
70
128
10
0.000000
20
0.000000
30
0.000000
71
9
72
2
73
8
0
VERTEX
8
0
6
CONTINUOUS
62
252
70
128
10
0.000000
20
0.000000
30
0.000000
71
8
72
2
73
3
0
VERTEX
8
0
6
CONTINUOUS
62
252
70
128
10
0.000000
20
0.000000
30
0.000000
71
8
72
3
73
7
0
VERTEX
8
0
6
CONTINUOUS
62
252
70
128
10
0.000000
20
0.000000
30
0.000000
71
7
72
3
73
4
0
VERTEX
8
0
6
CONTINUOUS
62
252
70
128
10
0.000000
20
0.000000
30
0.000000
71
7
72
4
73
5
0
VERTEX
8
0
6
CONTINUOUS
62
252
70
128
10
0.000000
20
0.000000
30
0.000000
71
5
72
6
73
7
0
SEQEND
0
POLYLINE
66
1
8
0
6
CONTINUOUS
62
252
70
64
75
0
10
0.000000
20
0.000000
30
0.000000
0
VERTEX
8
0
6
CONTINUOUS
62
252
70
192
10
-32.340807
20
-15.000000
30
-43.570962
0
VERTEX
8
0
6
CONTINUOUS
62
252
70
192
10
-32.480762
20
-15.000000
30
-43.492123
0
VERTEX
8
0
6
CONTINUOUS
62
252
70
192
10
-32.631535
20
-15.000000
30
-43.436710
0
VERTEX
8
0
6
CONTINUOUS
62
252
70
192
10
-32.789236
20
-15.000000
30
-43.406153
0
VERTEX
8
0
6
CONTINUOUS
62
252
70
192
10
-32.949794
20
-15.000000
30
-43.401240
0
VERTEX
8
0
6
CONTINUOUS
62
252
70
192
10
-33.109067
20
-15.000000
30
-43.422099
0
VERTEX
8
0
6
CONTINUOUS
62
252
70
192
10
-33.262946
20
-15.000000
30
-43.468190
0
VERTEX
8
0
6
CONTINUOUS
62
252
70
192
10
-33.407460
20
-15.000000
30
-43.538325
0
VERTEX
8
0
6
CONTINUOUS
62
252
70
192
10
-33.538880
20
-15.000000
30
-43.630693
0
VERTEX
8
0
6
CONTINUOUS
62
252
70
192
10
-33.653814
20
-15.000000
30
-43.742913
0
VERTEX
8
0
6
CONTINUOUS
62
252
70
192
10
-33.653814
20
-0.000000
30
-43.742913
0
VERTEX
8
0
6
CONTINUOUS
62
252
70
192
10
-33.538880
20
-0.000000
30
-43.630693
0
VERTEX
8
0
6
CONTINUOUS
62
252
70
192
10
-33.407460
20
-0.000000
30
-43.538325
0
VERTEX
8
0
6
CONTINUOUS
62
252
70
192
10
-33.262946
20
-0.000000
30
-43.468190
0
VERTEX
8
0
6
CONTINUOUS
62
252
70
192
10
-33.109067
20
-0.000000
30
-43.422099
0
VERTEX
8
0
6
CONTINUOUS
62
252
70
192
10
-32.949794
20
-0.000000
30
-43.401240
0
VERTEX
8
0
6
CONTINUOUS
62
252
70
192
10
-32.789236
20
-0.000000
30
-43.406153
0
VERTEX
8
0
6
CONTINUOUS
62
252
70
192
10
-32.631535
20
-0.000000
30
-43.436710
0
VERTEX
8
0
6
CONTINUOUS
62
252
70
192
10
-32.480762
20
-0.000000
30
-43.492123
0
VERTEX
8
0
6
CONTINUOUS
62
252
70
192
10
-32.340807
20
-0.000000
30
-43.570962
0
VERTEX
8
0
6
CONTINUOUS
62
252
70
128
10
0.000000
20
0.000000
30
0.000000
71
1
72
2
73
20
0
VERTEX
8
0
6
CONTINUOUS
62
252
70
128
10
0.000000
20
0.000000
30
0.000000
71
20
72
2
73
19
0
VERTEX
8
0
6
CONTINUOUS
62
252
70
128
10
0.000000
20
0.000000
30
0.000000
71
19
72
2
73
3
0
VERTEX
8
0
6
CONTINUOUS
62
252
70
128
10
0.000000
20
0.000000
30
0.000000
71
19
72
3
73
18
0
VERTEX
8
0
6
CONTINUOUS
62
252
70
128
10
0.000000
20
0.000000
30
0.000000
71
18
72
3
73
4
0
VERTEX
8
0
6
CONTINUOUS
62
252
70
128
10
0.000000
20
0.000000
30
0.000000
71
18
72
4
73
17
0
VERTEX
8
0
6
CONTINUOUS
62
252
70
128
10
0.000000
20
0.000000
30
0.000000
71
17
72
4
73
5
0
VERTEX
8
0
6
CONTINUOUS
62
252
70
128
10
0.000000
20
0.000000
30
0.000000
71
17
72
5
73
16
0
VERTEX
8
0
6
CONTINUOUS
62
252
70
128
10
0.000000
20
0.000000
30
0.000000
71
16
72
5
73
15
0
VERTEX
8
0
6
CONTINUOUS
62
252
70
128
10
0.000000
20
0.000000
30
0.000000
71
15
72
5
73
6
0
VERTEX
8
0
6
CONTINUOUS
62
252
70
128
10
0.000000
20
0.000000
30
0.000000
71
15
72
6
73
14
0
VERTEX
8
0
6
CONTINUOUS
62
252
70
128
10
0.000000
20
0.000000
30
0.000000
71
14
72
6
73
7
0
VERTEX
8
0
6
CONTINUOUS
62
252
70
128
10
0.000000
20
0.000000
30
0.000000
71
14
72
7
73
13
0
VERTEX
8
0
6
CONTINUOUS
62
252
70
128
10
0.000000
20
0.000000
30
0.000000
71
13
72
7
73
8
0
VERTEX
8
0
6
CONTINUOUS
62
252
70
128
10
0.000000
20
0.000000
30
0.000000
71
13
72
8
73
12
0
VERTEX
8
0
6
CONTINUOUS
62
252
70
128
10
0.000000
20
0.000000
30
0.000000
71
12
72
8
73
9
0
VERTEX
8
0
6
CONTINUOUS
62
252
70
128
10
0.000000
20
0.000000
30
0.000000
71
12
72
9
73
11
0
VERTEX
8
0
6
CONTINUOUS
62
252
70
128
10
0.000000
20
0.000000
30
0.000000
71
11
72
9
73
10
0
SEQEND
0
POLYLINE
66
1
8
0
6
CONTINUOUS
62
252
70
64
75
0
10
0.000000
20
0.000000
30
0.000000
0
VERTEX
8
0
6
CONTINUOUS
62
252
70
192
10
-33.653814
20
-15.000000
30
-43.742913
0
VERTEX
8
0
6
CONTINUOUS
62
252
70
192
10
-35.306742
20
-15.000000
30
-45.609379
0
VERTEX
8
0
6
CONTINUOUS
62
252
70
192
10
-35.306742
20
-0.000000
30
-45.609379
0
VERTEX
8
0
6
CONTINUOUS
62
252
70
192
10
-33.653814
20
-0.000000
30
-43.742913
0
VERTEX
8
0
6
CONTINUOUS
62
252
70
128
10
0.000000
20
0.000000
30
0.000000
71
2
72
3
73
1
0
VERTEX
8
0
6
CONTINUOUS
62
252
70
128
10
0.000000
20
0.000000
30
0.000000
71
1
72
3
73
4
0
SEQEND
0
POLYLINE
66
1
8
0
6
CONTINUOUS
62
252
70
64
75
0
10
0.000000
20
0.000000
30
0.000000
0
VERTEX
8
0
6
CONTINUOUS
62
252
70
192
10
-35.306742
20
-15.000000
30
-45.609379
0
VERTEX
8
0
6
CONTINUOUS
62
252
70
192
10
-35.791671
20
-15.000000
30
-46.030805
0
VERTEX
8
0
6
CONTINUOUS
62
252
70
192
10
-36.341417
20
-15.000000
30
-46.363273
0
VERTEX
8
0
6
CONTINUOUS
62
252
70
192
10
-36.939846
20
-15.000000
30
-46.597023
0
VERTEX
8
0
6
CONTINUOUS
62
252
70
192
10
-37.569392
20
-15.000000
30
-46.725195
0
VERTEX
8
0
6
CONTINUOUS
62
252
70
192
10
-38.211577
20
-15.000000
30
-46.744027
0
VERTEX
8
0
6
CONTINUOUS
62
252
70
192
10
-38.847552
20
-15.000000
30
-46.652965
0
VERTEX
8
0
6
CONTINUOUS
62
252
70
192
10
-39.458650
20
-15.000000
30
-46.454684
0
VERTEX
8
0
6
CONTINUOUS
62
252
70
192
10
-40.026934
20
-15.000000
30
-46.155002
0
VERTEX
8
0
6
CONTINUOUS
62
252
70
192
10
-40.535724
20
-15.000000
30
-45.762716
0
VERTEX
8
0
6
CONTINUOUS
62
252
70
192
10
-40.970088
20
-15.000000
30
-45.289341
0
VERTEX
8
0
6
CONTINUOUS
62
252
70
192
10
-41.317274
20
-15.000000
30
-44.748769
0
VERTEX
8
0
6
CONTINUOUS
62
252
70
192
10
-41.567093
20
-15.000000
30
-44.156868
0
VERTEX
8
0
6
CONTINUOUS
62
252
70
192
10
-41.712213
20
-15.000000
30
-43.531012
0
VERTEX
8
0
6
CONTINUOUS
62
252
70
192
10
-41.748374
20
-15.000000
30
-42.889569
0
VERTEX
8
0
6
CONTINUOUS
62
252
70
192
10
-41.674514
20
-15.000000
30
-42.251368
0
VERTEX
8
0
6
CONTINUOUS
62
252
70
192
10
-41.492801
20
-15.000000
30
-41.635140
0
VERTEX
8
0
6
CONTINUOUS
62
252
70
192
10
-41.208569
20
-15.000000
30
-41.058973
0
VERTEX
8
0
6
CONTINUOUS
62
252
70
192
10
-40.830161
20
-15.000000
30
-40.539779
0
VERTEX
8
0
6
CONTINUOUS
62
252
70
192
10
-40.830161
20
-0.000000
30
-40.539779
0
VERTEX
8
0
6
CONTINUOUS
62
252
70
192
10
-41.208569
20
-0.000000
30
-41.058973
0
VERTEX
8
0
6
CONTINUOUS
62
252
70
192
10
-41.492801
20
-0.000000
30
-41.635140
0
VERTEX
8
0
6
CONTINUOUS
62
252
70
192
10
-41.674514
20
-0.000000
30
-42.251368
0
VERTEX
8
0
6
CONTINUOUS
62
252
70
192
10
-41.748374
20
-0.000000
30
-42.889569
0
VERTEX
8
0
6
CONTINUOUS
62
252
70
192
10
-41.712213
20
-0.000000
30
-43.531012
0
VERTEX
8
0
6
CONTINUOUS
62
252
70
192
10
-41.567093
20
-0.000000
30
-44.156868
0
VERTEX
8
0
6
CONTINUOUS
62
252
70
192
10
-41.317274
20
-0.000000
30
-44.748769
0
VERTEX
8
0
6
CONTINUOUS
62
252
70
192
10
-40.970088
20
-0.000000
30
-45.289341
0
VERTEX
8
0
6
CONTINUOUS
62
252
70
192
10
-40.535724
20
-0.000000
30
-45.762716
0
VERTEX
8
0
6
CONTINUOUS
62
252
70
192
10
-40.026934
20
-0.000000
30
-46.155002
0
VERTEX
8
0
6
CONTINUOUS
62
252
70
192
10
-39.458650
20
-0.000000
30
-46.454684
0
VERTEX
8
0
6
CONTINUOUS
62
252
70
192
10
-38.847552
20
-0.000000
30
-46.652965
0
VERTEX
8
0
6
CONTINUOUS
62
252
70
192
10
-38.211577
20
-0.000000
30
-46.744027
0
VERTEX
8
0
6
CONTINUOUS
62
252
70
192
10
-37.569392
20
-0.000000
30
-46.725195
0
VERTEX
8
0
6
CONTINUOUS
62
252
70
192
10
-36.939846
20
-0.000000
30
-46.597023
0
VERTEX
8
0
6
CONTINUOUS
62
252
70
192
10
-36.341417
20
-0.000000
30
-46.363273
0
VERTEX
8
0
6
CONTINUOUS
62
252
70
192
10
-35.791671
20
-0.000000
30
-46.030805
0
VERTEX
8
0
6
CONTINUOUS
62
252
70
192
10
-35.306742
20
-0.000000
30
-45.609379
0
VERTEX
8
0
6
CONTINUOUS
62
252
70
128
10
0.000000
20
0.000000
30
0.000000
71
1
72
2
73
38
0
VERTEX
8
0
6
CONTINUOUS
62
252
70
128
10
0.000000
20
0.000000
30
0.000000
71
38
72
2
73
37
0
VERTEX
8
0
6
CONTINUOUS
62
252
70
128
10
0.000000
20
0.000000
30
0.000000
71
37
72
2
73
3
0
VERTEX
8
0
6
CONTINUOUS
62
252
70
128
10
0.000000
20
0.000000
30
0.000000
71
37
72
3
73
36
0
VERTEX
8
0
6
CONTINUOUS
62
252
70
128
10
0.000000
20
0.000000
30
0.000000
71
36
72
3
73
4
0
VERTEX
8
0
6
CONTINUOUS
62
252
70
128
10
0.000000
20
0.000000
30
0.000000
71
36
72
4
73
35
0
VERTEX
8
0
6
CONTINUOUS
62
252
70
128
10
0.000000
20
0.000000
30
0.000000
71
35
72
4
73
5
0
VERTEX
8
0
6
CONTINUOUS
62
252
70
128
10
0.000000
20
0.000000
30
0.000000
71
35
72
5
73
34
0
VERTEX
8
0
6
CONTINUOUS
62
252
70
128
10
0.000000
20
0.000000
30
0.000000
71
34
72
5
73
6
0
VERTEX
8
0
6
CONTINUOUS
62
252
70
128
10
0.000000
20
0.000000
30
0.000000
71
34
72
6
73
33
0
VERTEX
8
0
6
CONTINUOUS
62
252
70
128
10
0.000000
20
0.000000
30
0.000000
71
33
72
6
73
7
0
VERTEX
8
0
6
CONTINUOUS
62
252
70
128
10
0.000000
20
0.000000
30
0.000000
71
33
72
7
73
32
0
VERTEX
8
0
6
CONTINUOUS
62
252
70
128
10
0.000000
20
0.000000
30
0.000000
71
32
72
7
73
8
0
VERTEX
8
0
6
CONTINUOUS
62
252
70
128
10
0.000000
20
0.000000
30
0.000000
71
32
72
8
73
31
0
VERTEX
8
0
6
CONTINUOUS
62
252
70
128
10
0.000000
20
0.000000
30
0.000000
71
31
72
8
73
9
0
VERTEX
8
0
6
CONTINUOUS
62
252
70
128
10
0.000000
20
0.000000
30
0.000000
71
31
72
9
73
30
0
VERTEX
8
0
6
CONTINUOUS
62
252
70
128
10
0.000000
20
0.000000
30
0.000000
71
30
72
9
73
10
0
VERTEX
8
0
6
CONTINUOUS
62
252
70
128
10
0.000000
20
0.000000
30
0.000000
71
30
72
10
73
29
0
VERTEX
8
0
6
CONTINUOUS
62
252
70
128
10
0.000000
20
0.000000
30
0.000000
71
29
72
10
73
11
0
VERTEX
8
0
6
CONTINUOUS
62
252
70
128
10
0.000000
20
0.000000
30
0.000000
71
29
72
11
73
28
0
VERTEX
8
0
6
CONTINUOUS
62
252
70
128
10
0.000000
20
0.000000
30
0.000000
71
28
72
11
73
12
0
VERTEX
8
0
6
CONTINUOUS
62
252
70
128
10
0.000000
20
0.000000
30
0.000000
71
28
72
12
73
27
0
VERTEX
8
0
6
CONTINUOUS
62
252
70
128
10
0.000000
20
0.000000
30
0.000000
71
27
72
12
73
13
0
VERTEX
8
0
6
CONTINUOUS
62
252
70
128
10
0.000000
20
0.000000
30
0.000000
71
27
72
13
73
26
0
VERTEX
8
0
6
CONTINUOUS
62
252
70
128
10
0.000000
20
0.000000
30
0.000000
71
26
72
13
73
14
0
VERTEX
8
0
6
CONTINUOUS
62
252
70
128
10
0.000000
20
0.000000
30
0.000000
71
26
72
14
73
25
0
VERTEX
8
0
6
CONTINUOUS
62
252
70
128
10
0.000000
20
0.000000
30
0.000000
71
25
72
14
73
15
0
VERTEX
8
0
6
CONTINUOUS
62
252
70
128
10
0.000000
20
0.000000
30
0.000000
71
25
72
15
73
24
0
VERTEX
8
0
6
CONTINUOUS
62
252
70
128
10
0.000000
20
0.000000
30
0.000000
71
24
72
15
73
16
0
VERTEX
8
0
6
CONTINUOUS
62
252
70
128
10
0.000000
20
0.000000
30
0.000000
71
24
72
16
73
23
0
VERTEX
8
0
6
CONTINUOUS
62
252
70
128
10
0.000000
20
0.000000
30
0.000000
71
23
72
16
73
17
0
VERTEX
8
0
6
CONTINUOUS
62
252
70
128
10
0.000000
20
0.000000
30
0.000000
71
23
72
17
73
22
0
VERTEX
8
0
6
CONTINUOUS
62
252
70
128
10
0.000000
20
0.000000
30
0.000000
71
22
72
17
73
18
0
VERTEX
8
0
6
CONTINUOUS
62
252
70
128
10
0.000000
20
0.000000
30
0.000000
71
22
72
18
73
21
0
VERTEX
8
0
6
CONTINUOUS
62
252
70
128
10
0.000000
20
0.000000
30
0.000000
71
21
72
18
73
19
0
VERTEX
8
0
6
CONTINUOUS
62
252
70
128
10
0.000000
20
0.000000
30
0.000000
71
21
72
19
73
20
0
SEQEND
0
POLYLINE
66
1
8
0
6
CONTINUOUS
62
252
70
64
75
0
10
0.000000
20
0.000000
30
0.000000
0
VERTEX
8
0
6
CONTINUOUS
62
252
70
192
10
-40.830161
20
-15.000000
30
-40.539779
0
VERTEX
8
0
6
CONTINUOUS
62
252
70
192
10
-39.020290
20
-15.000000
30
-38.481059
0
VERTEX
8
0
6
CONTINUOUS
62
252
70
192
10
-39.020290
20
-0.000000
30
-38.481059
0
VERTEX
8
0
6
CONTINUOUS
62
252
70
192
10
-40.830161
20
-0.000000
30
-40.539779
0
VERTEX
8
0
6
CONTINUOUS
62
252
70
128
10
0.000000
20
0.000000
30
0.000000
71
1
72
2
73
4
0
VERTEX
8
0
6
CONTINUOUS
62
252
70
128
10
0.000000
20
0.000000
30
0.000000
71
4
72
2
73
3
0
SEQEND
0
POLYLINE
66
1
8
0
6
CONTINUOUS
62
252
70
64
75
0
10
0.000000
20
0.000000
30
0.000000
0
VERTEX
8
0
6
CONTINUOUS
62
252
70
192
10
-39.020290
20
-15.000000
30
-38.481059
0
VERTEX
8
0
6
CONTINUOUS
62
252
70
192
10
-38.920637
20
-15.000000
30
-38.344676
0
VERTEX
8
0
6
CONTINUOUS
62
252
70
192
10
-38.845359
20
-15.000000
30
-38.193467
0
VERTEX
8
0
6
CONTINUOUS
62
252
70
192
10
-38.796605
20
-15.000000
30
-38.031745
0
VERTEX
8
0
6
CONTINUOUS
62
252
70
192
10
-38.775766
20
-15.000000
30
-37.864124
0
VERTEX
8
0
6
CONTINUOUS
62
252
70
192
10
-38.783435
20
-15.000000
30
-37.695386
0
VERTEX
8
0
6
CONTINUOUS
62
252
70
192
10
-38.819396
20
-15.000000
30
-37.530347
0
VERTEX
8
0
6
CONTINUOUS
62
252
70
192
10
-38.882620
20
-15.000000
30
-37.373715
0
VERTEX
8
0
6
CONTINUOUS
62
252
70
192
10
-38.971305
20
-15.000000
30
-37.229958
0
VERTEX
8
0
6
CONTINUOUS
62
252
70
192
10
-38.971305
20
-0.000000
30
-37.229958
0
VERTEX
8
0
6
CONTINUOUS
62
252
70
192
10
-38.882620
20
-0.000000
30
-37.373715
0
VERTEX
8
0
6
CONTINUOUS
62
252
70
192
10
-38.819396
20
-0.000000
30
-37.530347
0
VERTEX
8
0
6
CONTINUOUS
62
252
70
192
10
-38.783435
20
-0.000000
30
-37.695386
0
VERTEX
8
0
6
CONTINUOUS
62
252
70
192
10
-38.775766
20
-0.000000
30
-37.864124
0
VERTEX
8
0
6
CONTINUOUS
62
252
70
192
10
-38.796605
20
-0.000000
30
-38.031745
0
VERTEX
8
0
6
CONTINUOUS
62
252
70
192
10
-38.845359
20
-0.000000
30
-38.193467
0
VERTEX
8
0
6
CONTINUOUS
62
252
70
192
10
-38.920637
20
-0.000000
30
-38.344676
0
VERTEX
8
0
6
CONTINUOUS
62
252
70
192
10
-39.020290
20
-0.000000
30
-38.481059
0
VERTEX
8
0
6
CONTINUOUS
62
252
70
128
10
0.000000
20
0.000000
30
0.000000
71
1
72
2
73
18
0
VERTEX
8
0
6
CONTINUOUS
62
252
70
128
10
0.000000
20
0.000000
30
0.000000
71
18
72
2
73
17
0
VERTEX
8
0
6
CONTINUOUS
62
252
70
128
10
0.000000
20
0.000000
30
0.000000
71
17
72
2
73
3
0
VERTEX
8
0
6
CONTINUOUS
62
252
70
128
10
0.000000
20
0.000000
30
0.000000
71
17
72
3
73
16
0
VERTEX
8
0
6
CONTINUOUS
62
252
70
128
10
0.000000
20
0.000000
30
0.000000
71
16
72
3
73
4
0
VERTEX
8
0
6
CONTINUOUS
62
252
70
128
10
0.000000
20
0.000000
30
0.000000
71
16
72
4
73
15
0
VERTEX
8
0
6
CONTINUOUS
62
252
70
128
10
0.000000
20
0.000000
30
0.000000
71
15
72
4
73
5
0
VERTEX
8
0
6
CONTINUOUS
62
252
70
128
10
0.000000
20
0.000000
30
0.000000
71
15
72
5
73
14
0
VERTEX
8
0
6
CONTINUOUS
62
252
70
128
10
0.000000
20
0.000000
30
0.000000
71
14
72
5
73
6
0
VERTEX
8
0
6
CONTINUOUS
62
252
70
128
10
0.000000
20
0.000000
30
0.000000
71
14
72
6
73
13
0
VERTEX
8
0
6
CONTINUOUS
62
252
70
128
10
0.000000
20
0.000000
30
0.000000
71
13
72
6
73
7
0
VERTEX
8
0
6
CONTINUOUS
62
252
70
128
10
0.000000
20
0.000000
30
0.000000
71
13
72
7
73
12
0
VERTEX
8
0
6
CONTINUOUS
62
252
70
128
10
0.000000
20
0.000000
30
0.000000
71
12
72
7
73
8
0
VERTEX
8
0
6
CONTINUOUS
62
252
70
128
10
0.000000
20
0.000000
30
0.000000
71
12
72
8
73
11
0
VERTEX
8
0
6
CONTINUOUS
62
252
70
128
10
0.000000
20
0.000000
30
0.000000
71
11
72
8
73
9
0
VERTEX
8
0
6
CONTINUOUS
62
252
70
128
10
0.000000
20
0.000000
30
0.000000
71
11
72
9
73
10
0
SEQEND
0
POLYLINE
66
1
8
0
6
CONTINUOUS
62
252
70
64
75
0
10
0.000000
20
0.000000
30
0.000000
0
VERTEX
8
0
6
CONTINUOUS
62
252
70
192
10
-38.971305
20
-15.000000
30
-37.229958
0
VERTEX
8
0
6
CONTINUOUS
62
252
70
192
10
-41.387297
20
-15.000000
30
-33.329036
0
VERTEX
8
0
6
CONTINUOUS
62
252
70
192
10
-43.106673
20
-15.000000
30
-29.074868
0
VERTEX
8
0
6
CONTINUOUS
62
252
70
192
10
-44.079615
20
-15.000000
30
-24.590719
0
VERTEX
8
0
6
CONTINUOUS
62
252
70
192
10
-44.277930
20
-15.000000
30
-20.006521
0
VERTEX
8
0
6
CONTINUOUS
62
252
70
192
10
-44.277930
20
-0.000000
30
-20.006521
0
VERTEX
8
0
6
CONTINUOUS
62
252
70
192
10
-44.079615
20
-0.000000
30
-24.590719
0
VERTEX
8
0
6
CONTINUOUS
62
252
70
192
10
-43.106673
20
-0.000000
30
-29.074868
0
VERTEX
8
0
6
CONTINUOUS
62
252
70
192
10
-41.387297
20
-0.000000
30
-33.329036
0
VERTEX
8
0
6
CONTINUOUS
62
252
70
192
10
-38.971305
20
-0.000000
30
-37.229958
0
VERTEX
8
0
6
CONTINUOUS
62
252
70
128
10
0.000000
20
0.000000
30
0.000000
71
10
72
1
73
9
0
VERTEX
8
0
6
CONTINUOUS
62
252
70
128
10
0.000000
20
0.000000
30
0.000000
71
9
72
1
73
2
0
VERTEX
8
0
6
CONTINUOUS
62
252
70
128
10
0.000000
20
0.000000
30
0.000000
71
9
72
2
73
3
0
VERTEX
8
0
6
CONTINUOUS
62
252
70
128
10
0.000000
20
0.000000
30
0.000000
71
9
72
3
73
8
0
VERTEX
8
0
6
CONTINUOUS
62
252
70
128
10
0.000000
20
0.000000
30
0.000000
71
8
72
3
73
4
0
VERTEX
8
0
6
CONTINUOUS
62
252
70
128
10
0.000000
20
0.000000
30
0.000000
71
8
72
4
73
7
0
VERTEX
8
0
6
CONTINUOUS
62
252
70
128
10
0.000000
20
0.000000
30
0.000000
71
7
72
4
73
5
0
VERTEX
8
0
6
CONTINUOUS
62
252
70
128
10
0.000000
20
0.000000
30
0.000000
71
7
72
5
73
6
0
SEQEND
0
POLYLINE
66
1
8
0
6
CONTINUOUS
62
252
70
64
75
0
10
0.000000
20
0.000000
30
0.000000
0
VERTEX
8
0
6
CONTINUOUS
62
252
70
192
10
-39.463750
20
-6.200000
30
-6.036250
0
VERTEX
8
0
6
CONTINUOUS
62
252
70
192
10
-37.778856
20
-6.200000
30
-3.964224
0
VERTEX
8
0
6
CONTINUOUS
62
252
70
192
10
-35.883985
20
-6.200000
30
-2.082303
0
VERTEX
8
0
6
CONTINUOUS
62
252
70
192
10
-33.800454
20
-6.200000
30
-0.411657
0
VERTEX
8
0
6
CONTINUOUS
62
252
70
192
10
-33.800454
20
-0.000000
30
-0.411657
0
VERTEX
8
0
6
CONTINUOUS
62
252
70
192
10
-36.733699
20
-0.000000
30
-2.877105
0
VERTEX
8
0
6
CONTINUOUS
62
252
70
192
10
-39.258887
20
-0.000000
30
-5.759080
0
VERTEX
8
0
6
CONTINUOUS
62
252
70
192
10
-41.317540
20
-0.000000
30
-8.990844
0
VERTEX
8
0
6
CONTINUOUS
62
252
70
192
10
-42.861986
20
-0.000000
30
-12.497558
0
VERTEX
8
0
6
CONTINUOUS
62
252
70
192
10
-43.856459
20
-0.000000
30
-16.198015
0
VERTEX
8
0
6
CONTINUOUS
62
252
70
192
10
-44.277930
20
-0.000000
30
-20.006521
0
VERTEX
8
0
6
CONTINUOUS
62
252
70
192
10
-44.277930
20
-15.000000
30
-20.006521
0
VERTEX
8
0
6
CONTINUOUS
62
252
70
192
10
-43.856459
20
-15.000000
30
-16.198015
0
VERTEX
8
0
6
CONTINUOUS
62
252
70
192
10
-42.861986
20
-15.000000
30
-12.497558
0
VERTEX
8
0
6
CONTINUOUS
62
252
70
192
10
-41.317540
20
-15.000000
30
-8.990844
0
VERTEX
8
0
6
CONTINUOUS
62
252
70
192
10
-39.258887
20
-15.000000
30
-5.759080
0
VERTEX
8
0
6
CONTINUOUS
62
252
70
192
10
-36.733699
20
-15.000000
30
-2.877105
0
VERTEX
8
0
6
CONTINUOUS
62
252
70
192
10
-33.800454
20
-15.000000
30
-0.411657
0
VERTEX
8
0
6
CONTINUOUS
62
252
70
192
10
-33.800454
20
-9.200000
30
-0.411657
0
VERTEX
8
0
6
CONTINUOUS
62
252
70
192
10
-35.883985
20
-9.200000
30
-2.082303
0
VERTEX
8
0
6
CONTINUOUS
62
252
70
192
10
-37.778856
20
-9.200000
30
-3.964224
0
VERTEX
8
0
6
CONTINUOUS
62
252
70
192
10
-39.463750
20
-9.200000
30
-6.036250
0
VERTEX
8
0
6
CONTINUOUS
62
252
70
128
10
0.000000
20
0.000000
30
0.000000
71
2
72
7
73
1
0
VERTEX
8
0
6
CONTINUOUS
62
252
70
128
10
0.000000
20
0.000000
30
0.000000
71
1
72
7
73
8
0
VERTEX
8
0
6
CONTINUOUS
62
252
70
128
10
0.000000
20
0.000000
30
0.000000
71
1
72
8
73
15
0
VERTEX
8
0
6
CONTINUOUS
62
252
70
128
10
0.000000
20
0.000000
30
0.000000
71
15
72
8
73
9
0
VERTEX
8
0
6
CONTINUOUS
62
252
70
128
10
0.000000
20
0.000000
30
0.000000
71
15
72
9
73
14
0
VERTEX
8
0
6
CONTINUOUS
62
252
70
128
10
0.000000
20
0.000000
30
0.000000
71
14
72
9
73
10
0
VERTEX
8
0
6
CONTINUOUS
62
252
70
128
10
0.000000
20
0.000000
30
0.000000
71
14
72
10
73
13
0
VERTEX
8
0
6
CONTINUOUS
62
252
70
128
10
0.000000
20
0.000000
30
0.000000
71
13
72
10
73
11
0
VERTEX
8
0
6
CONTINUOUS
62
252
70
128
10
0.000000
20
0.000000
30
0.000000
71
13
72
11
73
12
0
VERTEX
8
0
6
CONTINUOUS
62
252
70
128
10
0.000000
20
0.000000
30
0.000000
71
7
72
2
73
6
0
VERTEX
8
0
6
CONTINUOUS
62
252
70
128
10
0.000000
20
0.000000
30
0.000000
71
6
72
2
73
3
0
VERTEX
8
0
6
CONTINUOUS
62
252
70
128
10
0.000000
20
0.000000
30
0.000000
71
6
72
3
73
5
0
VERTEX
8
0
6
CONTINUOUS
62
252
70
128
10
0.000000
20
0.000000
30
0.000000
71
5
72
3
73
4
0
VERTEX
8
0
6
CONTINUOUS
62
252
70
128
10
0.000000
20
0.000000
30
0.000000
71
1
72
15
73
22
0
VERTEX
8
0
6
CONTINUOUS
62
252
70
128
10
0.000000
20
0.000000
30
0.000000
71
22
72
15
73
16
0
VERTEX
8
0
6
CONTINUOUS
62
252
70
128
10
0.000000
20
0.000000
30
0.000000
71
22
72
16
73
21
0
VERTEX
8
0
6
CONTINUOUS
62
252
70
128
10
0.000000
20
0.000000
30
0.000000
71
21
72
16
73
17
0
VERTEX
8
0
6
CONTINUOUS
62
252
70
128
10
0.000000
20
0.000000
30
0.000000
71
21
72
17
73
20
0
VERTEX
8
0
6
CONTINUOUS
62
252
70
128
10
0.000000
20
0.000000
30
0.000000
71
20
72
17
73
18
0
VERTEX
8
0
6
CONTINUOUS
62
252
70
128
10
0.000000
20
0.000000
30
0.000000
71
20
72
18
73
19
0
SEQEND
0
POLYLINE
66
1
8
0
6
CONTINUOUS
62
252
70
64
75
0
10
0.000000
20
0.000000
30
0.000000
0
VERTEX
8
0
6
CONTINUOUS
62
252
70
192
10
-5.766596
20
-15.000000
30
0.470945
0
VERTEX
8
0
6
CONTINUOUS
62
252
70
192
10
-5.606081
20
-15.000000
30
0.392702
0
VERTEX
8
0
6
CONTINUOUS
62
252
70
192
10
-5.434656
20
-15.000000
30
0.342693
0
VERTEX
8
0
6
CONTINUOUS
62
252
70
192
10
-5.257248
20
-15.000000
30
0.322353
0
VERTEX
8
0
6
CONTINUOUS
62
252
70
192
10
-5.078954
20
-15.000000
30
0.332267
0
VERTEX
8
0
6
CONTINUOUS
62
252
70
192
10
-4.904895
20
-15.000000
30
0.372150
0
VERTEX
8
0
6
CONTINUOUS
62
252
70
192
10
-4.740072
20
-15.000000
30
0.440856
0
VERTEX
8
0
6
CONTINUOUS
62
252
70
192
10
-4.589220
20
-15.000000
30
0.536412
0
VERTEX
8
0
6
CONTINUOUS
62
252
70
192
10
-4.456673
20
-15.000000
30
0.656072
0
VERTEX
8
0
6
CONTINUOUS
62
252
70
192
10
-4.456673
20
0.000000
30
0.656072
0
VERTEX
8
0
6
CONTINUOUS
62
252
70
192
10
-4.589220
20
0.000000
30
0.536412
0
VERTEX
8
0
6
CONTINUOUS
62
252
70
192
10
-4.740072
20
0.000000
30
0.440856
0
VERTEX
8
0
6
CONTINUOUS
62
252
70
192
10
-4.904895
20
0.000000
30
0.372150
0
VERTEX
8
0
6
CONTINUOUS
62
252
70
192
10
-5.078954
20
0.000000
30
0.332267
0
VERTEX
8
0
6
CONTINUOUS
62
252
70
192
10
-5.257248
20
0.000000
30
0.322353
0
VERTEX
8
0
6
CONTINUOUS
62
252
70
192
10
-5.434656
20
0.000000
30
0.342693
0
VERTEX
8
0
6
CONTINUOUS
62
252
70
192
10
-5.606081
20
0.000000
30
0.392702
0
VERTEX
8
0
6
CONTINUOUS
62
252
70
192
10
-5.766596
20
0.000000
30
0.470945
0
VERTEX
8
0
6
CONTINUOUS
62
252
70
128
10
0.000000
20
0.000000
30
0.000000
71
1
72
2
73
18
0
VERTEX
8
0
6
CONTINUOUS
62
252
70
128
10
0.000000
20
0.000000
30
0.000000
71
18
72
2
73
17
0
VERTEX
8
0
6
CONTINUOUS
62
252
70
128
10
0.000000
20
0.000000
30
0.000000
71
17
72
2
73
3
0
VERTEX
8
0
6
CONTINUOUS
62
252
70
128
10
0.000000
20
0.000000
30
0.000000
71
17
72
3
73
16
0
VERTEX
8
0
6
CONTINUOUS
62
252
70
128
10
0.000000
20
0.000000
30
0.000000
71
16
72
3
73
4
0
VERTEX
8
0
6
CONTINUOUS
62
252
70
128
10
0.000000
20
0.000000
30
0.000000
71
16
72
4
73
15
0
VERTEX
8
0
6
CONTINUOUS
62
252
70
128
10
0.000000
20
0.000000
30
0.000000
71
15
72
4
73
5
0
VERTEX
8
0
6
CONTINUOUS
62
252
70
128
10
0.000000
20
0.000000
30
0.000000
71
15
72
5
73
14
0
VERTEX
8
0
6
CONTINUOUS
62
252
70
128
10
0.000000
20
0.000000
30
0.000000
71
14
72
5
73
6
0
VERTEX
8
0
6
CONTINUOUS
62
252
70
128
10
0.000000
20
0.000000
30
0.000000
71
14
72
6
73
13
0
VERTEX
8
0
6
CONTINUOUS
62
252
70
128
10
0.000000
20
0.000000
30
0.000000
71
13
72
6
73
7
0
VERTEX
8
0
6
CONTINUOUS
62
252
70
128
10
0.000000
20
0.000000
30
0.000000
71
13
72
7
73
12
0
VERTEX
8
0
6
CONTINUOUS
62
252
70
128
10
0.000000
20
0.000000
30
0.000000
71
12
72
7
73
8
0
VERTEX
8
0
6
CONTINUOUS
62
252
70
128
10
0.000000
20
0.000000
30
0.000000
71
12
72
8
73
11
0
VERTEX
8
0
6
CONTINUOUS
62
252
70
128
10
0.000000
20
0.000000
30
0.000000
71
11
72
8
73
10
0
VERTEX
8
0
6
CONTINUOUS
62
252
70
128
10
0.000000
20
0.000000
30
0.000000
71
10
72
8
73
9
0
SEQEND
0
POLYLINE
66
1
8
0
6
CONTINUOUS
62
252
70
64
75
0
10
0.000000
20
0.000000
30
0.000000
0
VERTEX
8
0
6
CONTINUOUS
62
252
70
192
10
-4.456673
20
-15.000000
30
0.656072
0
VERTEX
8
0
6
CONTINUOUS
62
252
70
192
10
-2.787477
20
-15.000000
30
2.508480
0
VERTEX
8
0
6
CONTINUOUS
62
252
70
192
10
-2.787477
20
0.000000
30
2.508480
0
VERTEX
8
0
6
CONTINUOUS
62
252
70
192
10
-4.456673
20
0.000000
30
0.656072
0
VERTEX
8
0
6
CONTINUOUS
62
252
70
128
10
0.000000
20
0.000000
30
0.000000
71
2
72
3
73
1
0
VERTEX
8
0
6
CONTINUOUS
62
252
70
128
10
0.000000
20
0.000000
30
0.000000
71
1
72
3
73
4
0
SEQEND
0
POLYLINE
66
1
8
0
6
CONTINUOUS
62
252
70
64
75
0
10
0.000000
20
0.000000
30
0.000000
0
VERTEX
8
0
6
CONTINUOUS
62
252
70
192
10
-35.750000
20
0.000000
30
-43.000000
0
VERTEX
8
0
6
CONTINUOUS
62
252
70
192
10
-35.784183
20
-0.000000
30
-42.609292
0
VERTEX
8
0
6
CONTINUOUS
62
252
70
192
10
-35.885692
20
-0.000000
30
-42.230455
0
VERTEX
8
0
6
CONTINUOUS
62
252
70
192
10
-36.051443
20
-0.000000
30
-41.875000
0
VERTEX
8
0
6
CONTINUOUS
62
252
70
192
10
-36.276400
20
-0.000000
30
-41.553728
0
VERTEX
8
0
6
CONTINUOUS
62
252
70
192
10
-36.553728
20
-0.000000
30
-41.276400
0
VERTEX
8
0
6
CONTINUOUS
62
252
70
192
10
-36.875000
20
-0.000000
30
-41.051443
0
VERTEX
8
0
6
CONTINUOUS
62
252
70
192
10
-37.230455
20
-0.000000
30
-40.885692
0
VERTEX
8
0
6
CONTINUOUS
62
252
70
192
10
-37.609292
20
-0.000000
30
-40.784183
0
VERTEX
8
0
6
CONTINUOUS
62
252
70
192
10
-38.000000
20
-0.000000
30
-40.750000
0
VERTEX
8
0
6
CONTINUOUS
62
252
70
192
10
-38.390708
20
-0.000000
30
-40.784183
0
VERTEX
8
0
6
CONTINUOUS
62
252
70
192
10
-38.769545
20
-0.000000
30
-40.885692
0
VERTEX
8
0
6
CONTINUOUS
62
252
70
192
10
-39.125000
20
-0.000000
30
-41.051443
0
VERTEX
8
0
6
CONTINUOUS
62
252
70
192
10
-39.446272
20
-0.000000
30
-41.276400
0
VERTEX
8
0
6
CONTINUOUS
62
252
70
192
10
-39.723600
20
-0.000000
30
-41.553728
0
VERTEX
8
0
6
CONTINUOUS
62
252
70
192
10
-39.948557
20
-0.000000
30
-41.875000
0
VERTEX
8
0
6
CONTINUOUS
62
252
70
192
10
-40.114308
20
-0.000000
30
-42.230455
0
VERTEX
8
0
6
CONTINUOUS
62
252
70
192
10
-40.215817
20
-0.000000
30
-42.609292
0
VERTEX
8
0
6
CONTINUOUS
62
252
70
192
10
-40.250000
20
-0.000000
30
-43.000000
0
VERTEX
8
0
6
CONTINUOUS
62
252
70
192
10
-40.215817
20
-0.000000
30
-43.390708
0
VERTEX
8
0
6
CONTINUOUS
62
252
70
192
10
-40.114308
20
-0.000000
30
-43.769545
0
VERTEX
8
0
6
CONTINUOUS
62
252
70
192
10
-39.948557
20
-0.000000
30
-44.125000
0
VERTEX
8
0
6
CONTINUOUS
62
252
70
192
10
-39.723600
20
-0.000000
30
-44.446272
0
VERTEX
8
0
6
CONTINUOUS
62
252
70
192
10
-39.446272
20
-0.000000
30
-44.723600
0
VERTEX
8
0
6
CONTINUOUS
62
252
70
192
10
-39.125000
20
-0.000000
30
-44.948557
0
VERTEX
8
0
6
CONTINUOUS
62
252
70
192
10
-38.769545
20
-0.000000
30
-45.114308
0
VERTEX
8
0
6
CONTINUOUS
62
252
70
192
10
-38.390708
20
-0.000000
30
-45.215817
0
VERTEX
8
0
6
CONTINUOUS
62
252
70
192
10
-38.000000
20
-0.000000
30
-45.250000
0
VERTEX
8
0
6
CONTINUOUS
62
252
70
192
10
-37.609292
20
-0.000000
30
-45.215817
0
VERTEX
8
0
6
CONTINUOUS
62
252
70
192
10
-37.230455
20
-0.000000
30
-45.114308
0
VERTEX
8
0
6
CONTINUOUS
62
252
70
192
10
-36.875000
20
-0.000000
30
-44.948557
0
VERTEX
8
0
6
CONTINUOUS
62
252
70
192
10
-36.553728
20
-0.000000
30
-44.723600
0
VERTEX
8
0
6
CONTINUOUS
62
252
70
192
10
-36.276400
20
-0.000000
30
-44.446272
0
VERTEX
8
0
6
CONTINUOUS
62
252
70
192
10
-36.051443
20
-0.000000
30
-44.125000
0
VERTEX
8
0
6
CONTINUOUS
62
252
70
192
10
-35.885692
20
-0.000000
30
-43.769545
0
VERTEX
8
0
6
CONTINUOUS
62
252
70
192
10
-35.784183
20
-0.000000
30
-43.390708
0
VERTEX
8
0
6
CONTINUOUS
62
252
70
192
10
-0.000000
20
-0.000000
30
-2.250000
0
VERTEX
8
0
6
CONTINUOUS
62
252
70
192
10
0.390708
20
-0.000000
30
-2.215817
0
VERTEX
8
0
6
CONTINUOUS
62
252
70
192
10
0.769545
20
-0.000000
30
-2.114308
0
VERTEX
8
0
6
CONTINUOUS
62
252
70
192
10
1.125000
20
-0.000000
30
-1.948557
0
VERTEX
8
0
6
CONTINUOUS
62
252
70
192
10
1.446272
20
-0.000000
30
-1.723600
0
VERTEX
8
0
6
CONTINUOUS
62
252
70
192
10
1.723600
20
-0.000000
30
-1.446272
0
VERTEX
8
0
6
CONTINUOUS
62
252
70
192
10
1.948557
20
-0.000000
30
-1.125000
0
VERTEX
8
0
6
CONTINUOUS
62
252
70
192
10
2.114308
20
-0.000000
30
-0.769545
0
VERTEX
8
0
6
CONTINUOUS
62
252
70
192
10
2.215817
20
-0.000000
30
-0.390708
0
VERTEX
8
0
6
CONTINUOUS
62
252
70
192
10
2.250000
20
-0.000000
30
-0.000000
0
VERTEX
8
0
6
CONTINUOUS
62
252
70
192
10
2.215817
20
-0.000000
30
0.390708
0
VERTEX
8
0
6
CONTINUOUS
62
252
70
192
10
2.114308
20
-0.000000
30
0.769545
0
VERTEX
8
0
6
CONTINUOUS
62
252
70
192
10
1.948557
20
-0.000000
30
1.125000
0
VERTEX
8
0
6
CONTINUOUS
62
252
70
192
10
1.723600
20
-0.000000
30
1.446272
0
VERTEX
8
0
6
CONTINUOUS
62
252
70
192
10
1.446272
20
-0.000000
30
1.723600
0
VERTEX
8
0
6
CONTINUOUS
62
252
70
192
10
1.125000
20
-0.000000
30
1.948557
0
VERTEX
8
0
6
CONTINUOUS
62
252
70
192
10
0.769545
20
-0.000000
30
2.114308
0
VERTEX
8
0
6
CONTINUOUS
62
252
70
192
10
0.390708
20
-0.000000
30
2.215817
0
VERTEX
8
0
6
CONTINUOUS
62
252
70
192
10
0.000000
20
-0.000000
30
2.250000
0
VERTEX
8
0
6
CONTINUOUS
62
252
70
192
10
-0.390708
20
-0.000000
30
2.215817
0
VERTEX
8
0
6
CONTINUOUS
62
252
70
192
10
-0.769545
20
-0.000000
30
2.114308
0
VERTEX
8
0
6
CONTINUOUS
62
252
70
192
10
-1.125000
20
-0.000000
30
1.948557
0
VERTEX
8
0
6
CONTINUOUS
62
252
70
192
10
-1.446272
20
-0.000000
30
1.723600
0
VERTEX
8
0
6
CONTINUOUS
62
252
70
192
10
-1.723600
20
-0.000000
30
1.446272
0
VERTEX
8
0
6
CONTINUOUS
62
252
70
192
10
-1.948557
20
-0.000000
30
1.125000
0
VERTEX
8
0
6
CONTINUOUS
62
252
70
192
10
-2.114308
20
-0.000000
30
0.769545
0
VERTEX
8
0
6
CONTINUOUS
62
252
70
192
10
-2.215817
20
-0.000000
30
0.390708
0
VERTEX
8
0
6
CONTINUOUS
62
252
70
192
10
-2.250000
20
-0.000000
30
0.000000
0
VERTEX
8
0
6
CONTINUOUS
62
252
70
192
10
-2.215817
20
-0.000000
30
-0.390708
0
VERTEX
8
0
6
CONTINUOUS
62
252
70
192
10
-2.114308
20
-0.000000
30
-0.769545
0
VERTEX
8
0
6
CONTINUOUS
62
252
70
192
10
-1.948557
20
-0.000000
30
-1.125000
0
VERTEX
8
0
6
CONTINUOUS
62
252
70
192
10
-1.723600
20
-0.000000
30
-1.446272
0
VERTEX
8
0
6
CONTINUOUS
62
252
70
192
10
-1.446272
20
-0.000000
30
-1.723600
0
VERTEX
8
0
6
CONTINUOUS
62
252
70
192
10
-1.125000
20
-0.000000
30
-1.948557
0
VERTEX
8
0
6
CONTINUOUS
62
252
70
192
10
-0.769545
20
-0.000000
30
-2.114308
0
VERTEX
8
0
6
CONTINUOUS
62
252
70
192
10
-0.390708
20
-0.000000
30
-2.215817
0
VERTEX
8
0
6
CONTINUOUS
62
252
70
192
10
-4.456673
20
0.000000
30
0.656072
0
VERTEX
8
0
6
CONTINUOUS
62
252
70
192
10
-2.787477
20
0.000000
30
2.508480
0
VERTEX
8
0
6
CONTINUOUS
62
252
70
192
10
-2.309536
20
0.000000
30
2.954411
0
VERTEX
8
0
6
CONTINUOUS
62
252
70
192
10
-1.761421
20
0.000000
30
3.310573
0
VERTEX
8
0
6
CONTINUOUS
62
252
70
192
10
-1.159786
20
0.000000
30
3.566146
0
VERTEX
8
0
6
CONTINUOUS
62
252
70
192
10
-0.522912
20
0.000000
30
3.713363
0
VERTEX
8
0
6
CONTINUOUS
62
252
70
192
10
0.129851
20
0.000000
30
3.747751
0
VERTEX
8
0
6
CONTINUOUS
62
252
70
192
10
0.778669
20
0.000000
30
3.668266
0
VERTEX
8
0
6
CONTINUOUS
62
252
70
192
10
1.403826
20
0.000000
30
3.477322
0
VERTEX
8
0
6
CONTINUOUS
62
252
70
192
10
1.986330
20
0.000000
30
3.180722
0
VERTEX
8
0
6
CONTINUOUS
62
252
70
192
10
2.508480
20
0.000000
30
2.787477
0
VERTEX
8
0
6
CONTINUOUS
62
252
70
192
10
2.954411
20
0.000000
30
2.309536
0
VERTEX
8
0
6
CONTINUOUS
62
252
70
192
10
3.310573
20
0.000000
30
1.761421
0
VERTEX
8
0
6
CONTINUOUS
62
252
70
192
10
3.566146
20
0.000000
30
1.159786
0
VERTEX
8
0
6
CONTINUOUS
62
252
70
192
10
3.713363
20
0.000000
30
0.522912
0
VERTEX
8
0
6
CONTINUOUS
62
252
70
192
10
3.747751
20
-0.000000
30
-0.129851
0
VERTEX
8
0
6
CONTINUOUS
62
252
70
192
10
3.668266
20
-0.000000
30
-0.778669
0
VERTEX
8
0
6
CONTINUOUS
62
252
70
192
10
3.477322
20
-0.000000
30
-1.403826
0
VERTEX
8
0
6
CONTINUOUS
62
252
70
192
10
3.180722
20
-0.000000
30
-1.986330
0
VERTEX
8
0
6
CONTINUOUS
62
252
70
192
10
2.787477
20
-0.000000
30
-2.508480
0
VERTEX
8
0
6
CONTINUOUS
62
252
70
192
10
0.825256
20
-0.000000
30
-4.747795
0
VERTEX
8
0
6
CONTINUOUS
62
252
70
192
10
0.720177
20
-0.000000
30
-4.897470
0
VERTEX
8
0
6
CONTINUOUS
62
252
70
192
10
0.641524
20
-0.000000
30
-5.062570
0
VERTEX
8
0
6
CONTINUOUS
62
252
70
192
10
0.591498
20
-0.000000
30
-5.238473
0
VERTEX
8
0
6
CONTINUOUS
62
252
70
192
10
0.571500
20
-0.000000
30
-5.420254
0
VERTEX
8
0
6
CONTINUOUS
62
252
70
192
10
0.582090
20
-0.000000
30
-5.602824
0
VERTEX
8
0
6
CONTINUOUS
62
252
70
192
10
0.622972
20
-0.000000
30
-5.781074
0
VERTEX
8
0
6
CONTINUOUS
62
252
70
192
10
0.693000
20
-0.000000
30
-5.950013
0
VERTEX
8
0
6
CONTINUOUS
62
252
70
192
10
2.582539
20
-0.000000
30
-9.331024
0
VERTEX
8
0
6
CONTINUOUS
62
252
70
192
10
3.883301
20
-0.000000
30
-12.979258
0
VERTEX
8
0
6
CONTINUOUS
62
252
70
192
10
4.559036
20
-0.000000
30
-16.793045
0
VERTEX
8
0
6
CONTINUOUS
62
252
70
192
10
4.590912
20
-0.000000
30
-20.666103
0
VERTEX
8
0
6
CONTINUOUS
62
252
70
192
10
3.978042
20
-0.000000
30
-24.490496
0
VERTEX
8
0
6
CONTINUOUS
62
252
70
192
10
3.788691
20
-0.000000
30
-25.178004
0
VERTEX
8
0
6
CONTINUOUS
62
252
70
192
10
3.577133
20
-0.000000
30
-25.859005
0
VERTEX
8
0
6
CONTINUOUS
62
252
70
192
10
3.343590
20
-0.000000
30
-26.532784
0
VERTEX
8
0
6
CONTINUOUS
62
252
70
192
10
3.297143
20
-0.000000
30
-26.753175
0
VERTEX
8
0
6
CONTINUOUS
62
252
70
192
10
3.287864
20
-0.000000
30
-26.978216
0
VERTEX
8
0
6
CONTINUOUS
62
252
70
192
10
3.316009
20
-0.000000
30
-27.201683
0
VERTEX
8
0
6
CONTINUOUS
62
252
70
192
10
3.380801
20
-0.000000
30
-27.417395
0
VERTEX
8
0
6
CONTINUOUS
62
252
70
192
10
3.480446
20
-0.000000
30
-27.619386
0
VERTEX
8
0
6
CONTINUOUS
62
252
70
192
10
3.612189
20
-0.000000
30
-27.802069
0
VERTEX
8
0
6
CONTINUOUS
62
252
70
192
10
3.772387
20
-0.000000
30
-27.960393
0
VERTEX
8
0
6
CONTINUOUS
62
252
70
192
10
3.956608
20
-0.000000
30
-28.089977
0
VERTEX
8
0
6
CONTINUOUS
62
252
70
192
10
4.159758
20
-0.000000
30
-28.187238
0
VERTEX
8
0
6
CONTINUOUS
62
252
70
192
10
4.376217
20
-0.000000
30
-28.249486
0
VERTEX
8
0
6
CONTINUOUS
62
252
70
192
10
4.600000
20
-0.000000
30
-28.275000
0
VERTEX
8
0
6
CONTINUOUS
62
252
70
192
10
6.725000
20
-0.000000
30
-28.300000
0
VERTEX
8
0
6
CONTINUOUS
62
252
70
192
10
6.725000
20
-0.000000
30
-48.200000
0
VERTEX
8
0
6
CONTINUOUS
62
252
70
192
10
-18.034981
20
-0.000000
30
-48.187134
0
VERTEX
8
0
6
CONTINUOUS
62
252
70
192
10
-21.820142
20
-0.000000
30
-47.801495
0
VERTEX
8
0
6
CONTINUOUS
62
252
70
192
10
-25.514093
20
-0.000000
30
-46.889962
0
VERTEX
8
0
6
CONTINUOUS
62
252
70
192
10
-29.044138
20
-0.000000
30
-45.470473
0
VERTEX
8
0
6
CONTINUOUS
62
252
70
192
10
-32.340807
20
-0.000000
30
-43.570962
0
VERTEX
8
0
6
CONTINUOUS
62
252
70
192
10
-32.480762
20
-0.000000
30
-43.492123
0
VERTEX
8
0
6
CONTINUOUS
62
252
70
192
10
-32.631535
20
-0.000000
30
-43.436710
0
VERTEX
8
0
6
CONTINUOUS
62
252
70
192
10
-32.789236
20
-0.000000
30
-43.406153
0
VERTEX
8
0
6
CONTINUOUS
62
252
70
192
10
-32.949794
20
-0.000000
30
-43.401240
0
VERTEX
8
0
6
CONTINUOUS
62
252
70
192
10
-33.109067
20
-0.000000
30
-43.422099
0
VERTEX
8
0
6
CONTINUOUS
62
252
70
192
10
-33.262946
20
-0.000000
30
-43.468190
0
VERTEX
8
0
6
CONTINUOUS
62
252
70
192
10
-33.407460
20
-0.000000
30
-43.538325
0
VERTEX
8
0
6
CONTINUOUS
62
252
70
192
10
-33.538880
20
-0.000000
30
-43.630693
0
VERTEX
8
0
6
CONTINUOUS
62
252
70
192
10
-33.653814
20
-0.000000
30
-43.742913
0
VERTEX
8
0
6
CONTINUOUS
62
252
70
192
10
-35.306742
20
-0.000000
30
-45.609379
0
VERTEX
8
0
6
CONTINUOUS
62
252
70
192
10
-35.791671
20
-0.000000
30
-46.030805
0
VERTEX
8
0
6
CONTINUOUS
62
252
70
192
10
-36.341417
20
-0.000000
30
-46.363273
0
VERTEX
8
0
6
CONTINUOUS
62
252
70
192
10
-36.939846
20
-0.000000
30
-46.597023
0
VERTEX
8
0
6
CONTINUOUS
62
252
70
192
10
-37.569392
20
-0.000000
30
-46.725195
0
VERTEX
8
0
6
CONTINUOUS
62
252
70
192
10
-38.211577
20
-0.000000
30
-46.744027
0
VERTEX
8
0
6
CONTINUOUS
62
252
70
192
10
-38.847552
20
-0.000000
30
-46.652965
0
VERTEX
8
0
6
CONTINUOUS
62
252
70
192
10
-39.458650
20
-0.000000
30
-46.454684
0
VERTEX
8
0
6
CONTINUOUS
62
252
70
192
10
-40.026934
20
-0.000000
30
-46.155002
0
VERTEX
8
0
6
CONTINUOUS
62
252
70
192
10
-40.535724
20
-0.000000
30
-45.762716
0
VERTEX
8
0
6
CONTINUOUS
62
252
70
192
10
-40.970088
20
-0.000000
30
-45.289341
0
VERTEX
8
0
6
CONTINUOUS
62
252
70
192
10
-41.317274
20
-0.000000
30
-44.748769
0
VERTEX
8
0
6
CONTINUOUS
62
252
70
192
10
-41.567093
20
-0.000000
30
-44.156868
0
VERTEX
8
0
6
CONTINUOUS
62
252
70
192
10
-41.712213
20
-0.000000
30
-43.531012
0
VERTEX
8
0
6
CONTINUOUS
62
252
70
192
10
-41.748374
20
-0.000000
30
-42.889569
0
VERTEX
8
0
6
CONTINUOUS
62
252
70
192
10
-41.674514
20
-0.000000
30
-42.251368
0
VERTEX
8
0
6
CONTINUOUS
62
252
70
192
10
-41.492801
20
-0.000000
30
-41.635140
0
VERTEX
8
0
6
CONTINUOUS
62
252
70
192
10
-41.208569
20
-0.000000
30
-41.058973
0
VERTEX
8
0
6
CONTINUOUS
62
252
70
192
10
-40.830161
20
-0.000000
30
-40.539779
0
VERTEX
8
0
6
CONTINUOUS
62
252
70
192
10
-39.020290
20
-0.000000
30
-38.481059
0
VERTEX
8
0
6
CONTINUOUS
62
252
70
192
10
-38.920637
20
-0.000000
30
-38.344676
0
VERTEX
8
0
6
CONTINUOUS
62
252
70
192
10
-38.845359
20
-0.000000
30
-38.193467
0
VERTEX
8
0
6
CONTINUOUS
62
252
70
192
10
-38.796605
20
-0.000000
30
-38.031745
0
VERTEX
8
0
6
CONTINUOUS
62
252
70
192
10
-38.775766
20
-0.000000
30
-37.864124
0
VERTEX
8
0
6
CONTINUOUS
62
252
70
192
10
-38.783435
20
-0.000000
30
-37.695386
0
VERTEX
8
0
6
CONTINUOUS
62
252
70
192
10
-38.819396
20
-0.000000
30
-37.530347
0
VERTEX
8
0
6
CONTINUOUS
62
252
70
192
10
-38.882620
20
-0.000000
30
-37.373715
0
VERTEX
8
0
6
CONTINUOUS
62
252
70
192
10
-38.971305
20
-0.000000
30
-37.229958
0
VERTEX
8
0
6
CONTINUOUS
62
252
70
192
10
-41.387297
20
-0.000000
30
-33.329036
0
VERTEX
8
0
6
CONTINUOUS
62
252
70
192
10
-43.106673
20
-0.000000
30
-29.074868
0
VERTEX
8
0
6
CONTINUOUS
62
252
70
192
10
-44.079615
20
-0.000000
30
-24.590719
0
VERTEX
8
0
6
CONTINUOUS
62
252
70
192
10
-44.277930
20
-0.000000
30
-20.006521
0
VERTEX
8
0
6
CONTINUOUS
62
252
70
192
10
-43.856459
20
-0.000000
30
-16.198015
0
VERTEX
8
0
6
CONTINUOUS
62
252
70
192
10
-42.861986
20
-0.000000
30
-12.497558
0
VERTEX
8
0
6
CONTINUOUS
62
252
70
192
10
-41.317540
20
-0.000000
30
-8.990844
0
VERTEX
8
0
6
CONTINUOUS
62
252
70
192
10
-39.258887
20
-0.000000
30
-5.759080
0
VERTEX
8
0
6
CONTINUOUS
62
252
70
192
10
-36.733699
20
-0.000000
30
-2.877105
0
VERTEX
8
0
6
CONTINUOUS
62
252
70
192
10
-33.800454
20
-0.000000
30
-0.411657
0
VERTEX
8
0
6
CONTINUOUS
62
252
70
192
10
-30.208201
20
0.000000
30
1.753959
0
VERTEX
8
0
6
CONTINUOUS
62
252
70
192
10
-26.307258
20
0.000000
30
3.295653
0
VERTEX
8
0
6
CONTINUOUS
62
252
70
192
10
-22.205063
20
0.000000
30
4.170963
0
VERTEX
8
0
6
CONTINUOUS
62
252
70
192
10
-18.014596
20
0.000000
30
4.355784
0
VERTEX
8
0
6
CONTINUOUS
62
252
70
192
10
-14.754924
20
0.000000
30
4.150064
0
VERTEX
8
0
6
CONTINUOUS
62
252
70
192
10
-11.571657
20
0.000000
30
3.418907
0
VERTEX
8
0
6
CONTINUOUS
62
252
70
192
10
-8.548920
20
0.000000
30
2.181634
0
VERTEX
8
0
6
CONTINUOUS
62
252
70
192
10
-5.766596
20
0.000000
30
0.470945
0
VERTEX
8
0
6
CONTINUOUS
62
252
70
192
10
-5.606081
20
0.000000
30
0.392702
0
VERTEX
8
0
6
CONTINUOUS
62
252
70
192
10
-5.434656
20
0.000000
30
0.342693
0
VERTEX
8
0
6
CONTINUOUS
62
252
70
192
10
-5.257248
20
0.000000
30
0.322353
0
VERTEX
8
0
6
CONTINUOUS
62
252
70
192
10
-5.078954
20
0.000000
30
0.332267
0
VERTEX
8
0
6
CONTINUOUS
62
252
70
192
10
-4.904895
20
0.000000
30
0.372150
0
VERTEX
8
0
6
CONTINUOUS
62
252
70
192
10
-4.740072
20
0.000000
30
0.440856
0
VERTEX
8
0
6
CONTINUOUS
62
252
70
192
10
-4.589220
20
0.000000
30
0.536412
0
VERTEX
8
0
6
CONTINUOUS
62
252
70
128
10
0.000000
20
0.000000
30
0.000000
71
2
72
134
73
1
0
VERTEX
8
0
6
CONTINUOUS
62
252
70
128
10
0.000000
20
0.000000
30
0.000000
71
1
72
134
73
135
0
VERTEX
8
0
6
CONTINUOUS
62
252
70
128
10
0.000000
20
0.000000
30
0.000000
71
1
72
135
73
36
0
VERTEX
8
0
6
CONTINUOUS
62
252
70
128
10
0.000000
20
0.000000
30
0.000000
71
36
72
135
73
35
0
VERTEX
8
0
6
CONTINUOUS
62
252
70
128
10
0.000000
20
0.000000
30
0.000000
71
35
72
135
73
136
0
VERTEX
8
0
6
CONTINUOUS
62
252
70
128
10
0.000000
20
0.000000
30
0.000000
71
35
72
136
73
34
0
VERTEX
8
0
6
CONTINUOUS
62
252
70
128
10
0.000000
20
0.000000
30
0.000000
71
34
72
136
73
33
0
VERTEX
8
0
6
CONTINUOUS
62
252
70
128
10
0.000000
20
0.000000
30
0.000000
71
33
72
136
73
32
0
VERTEX
8
0
6
CONTINUOUS
62
252
70
128
10
0.000000
20
0.000000
30
0.000000
71
32
72
136
73
137
0
VERTEX
8
0
6
CONTINUOUS
62
252
70
128
10
0.000000
20
0.000000
30
0.000000
71
32
72
137
73
31
0
VERTEX
8
0
6
CONTINUOUS
62
252
70
128
10
0.000000
20
0.000000
30
0.000000
71
31
72
137
73
138
0
VERTEX
8
0
6
CONTINUOUS
62
252
70
128
10
0.000000
20
0.000000
30
0.000000
71
31
72
138
73
30
0
VERTEX
8
0
6
CONTINUOUS
62
252
70
128
10
0.000000
20
0.000000
30
0.000000
71
30
72
138
73
139
0
VERTEX
8
0
6
CONTINUOUS
62
252
70
128
10
0.000000
20
0.000000
30
0.000000
71
30
72
139
73
29
0
VERTEX
8
0
6
CONTINUOUS
62
252
70
128
10
0.000000
20
0.000000
30
0.000000
71
29
72
139
73
140
0
VERTEX
8
0
6
CONTINUOUS
62
252
70
128
10
0.000000
20
0.000000
30
0.000000
71
29
72
140
73
28
0
VERTEX
8
0
6
CONTINUOUS
62
252
70
128
10
0.000000
20
0.000000
30
0.000000
71
28
72
140
73
141
0
VERTEX
8
0
6
CONTINUOUS
62
252
70
128
10
0.000000
20
0.000000
30
0.000000
71
28
72
141
73
27
0
VERTEX
8
0
6
CONTINUOUS
62
252
70
128
10
0.000000
20
0.000000
30
0.000000
71
27
72
141
73
142
0
VERTEX
8
0
6
CONTINUOUS
62
252
70
128
10
0.000000
20
0.000000
30
0.000000
71
27
72
142
73
26
0
VERTEX
8
0
6
CONTINUOUS
62
252
70
128
10
0.000000
20
0.000000
30
0.000000
71
26
72
142
73
143
0
VERTEX
8
0
6
CONTINUOUS
62
252
70
128
10
0.000000
20
0.000000
30
0.000000
71
26
72
143
73
25
0
VERTEX
8
0
6
CONTINUOUS
62
252
70
128
10
0.000000
20
0.000000
30
0.000000
71
25
72
143
73
144
0
VERTEX
8
0
6
CONTINUOUS
62
252
70
128
10
0.000000
20
0.000000
30
0.000000
71
25
72
144
73
24
0
VERTEX
8
0
6
CONTINUOUS
62
252
70
128
10
0.000000
20
0.000000
30
0.000000
71
24
72
144
73
145
0
VERTEX
8
0
6
CONTINUOUS
62
252
70
128
10
0.000000
20
0.000000
30
0.000000
71
24
72
145
73
23
0
VERTEX
8
0
6
CONTINUOUS
62
252
70
128
10
0.000000
20
0.000000
30
0.000000
71
23
72
145
73
146
0
VERTEX
8
0
6
CONTINUOUS
62
252
70
128
10
0.000000
20
0.000000
30
0.000000
71
23
72
146
73
22
0
VERTEX
8
0
6
CONTINUOUS
62
252
70
128
10
0.000000
20
0.000000
30
0.000000
71
22
72
146
73
147
0
VERTEX
8
0
6
CONTINUOUS
62
252
70
128
10
0.000000
20
0.000000
30
0.000000
71
22
72
147
73
21
0
VERTEX
8
0
6
CONTINUOUS
62
252
70
128
10
0.000000
20
0.000000
30
0.000000
71
21
72
147
73
148
0
VERTEX
8
0
6
CONTINUOUS
62
252
70
128
10
0.000000
20
0.000000
30
0.000000
71
21
72
148
73
20
0
VERTEX
8
0
6
CONTINUOUS
62
252
70
128
10
0.000000
20
0.000000
30
0.000000
71
20
72
148
73
149
0
VERTEX
8
0
6
CONTINUOUS
62
252
70
128
10
0.000000
20
0.000000
30
0.000000
71
20
72
149
73
19
0
VERTEX
8
0
6
CONTINUOUS
62
252
70
128
10
0.000000
20
0.000000
30
0.000000
71
19
72
149
73
150
0
VERTEX
8
0
6
CONTINUOUS
62
252
70
128
10
0.000000
20
0.000000
30
0.000000
71
19
72
150
73
18
0
VERTEX
8
0
6
CONTINUOUS
62
252
70
128
10
0.000000
20
0.000000
30
0.000000
71
18
72
150
73
151
0
VERTEX
8
0
6
CONTINUOUS
62
252
70
128
10
0.000000
20
0.000000
30
0.000000
71
18
72
151
73
17
0
VERTEX
8
0
6
CONTINUOUS
62
252
70
128
10
0.000000
20
0.000000
30
0.000000
71
17
72
151
73
152
0
VERTEX
8
0
6
CONTINUOUS
62
252
70
128
10
0.000000
20
0.000000
30
0.000000
71
17
72
152
73
16
0
VERTEX
8
0
6
CONTINUOUS
62
252
70
128
10
0.000000
20
0.000000
30
0.000000
71
16
72
152
73
153
0
VERTEX
8
0
6
CONTINUOUS
62
252
70
128
10
0.000000
20
0.000000
30
0.000000
71
16
72
153
73
15
0
VERTEX
8
0
6
CONTINUOUS
62
252
70
128
10
0.000000
20
0.000000
30
0.000000
71
15
72
153
73
154
0
VERTEX
8
0
6
CONTINUOUS
62
252
70
128
10
0.000000
20
0.000000
30
0.000000
71
15
72
154
73
14
0
VERTEX
8
0
6
CONTINUOUS
62
252
70
128
10
0.000000
20
0.000000
30
0.000000
71
14
72
154
73
13
0
VERTEX
8
0
6
CONTINUOUS
62
252
70
128
10
0.000000
20
0.000000
30
0.000000
71
13
72
154
73
155
0
VERTEX
8
0
6
CONTINUOUS
62
252
70
128
10
0.000000
20
0.000000
30
0.000000
71
13
72
155
73
12
0
VERTEX
8
0
6
CONTINUOUS
62
252
70
128
10
0.000000
20
0.000000
30
0.000000
71
12
72
155
73
11
0
VERTEX
8
0
6
CONTINUOUS
62
252
70
128
10
0.000000
20
0.000000
30
0.000000
71
11
72
155
73
10
0
VERTEX
8
0
6
CONTINUOUS
62
252
70
128
10
0.000000
20
0.000000
30
0.000000
71
10
72
155
73
156
0
VERTEX
8
0
6
CONTINUOUS
62
252
70
128
10
0.000000
20
0.000000
30
0.000000
71
10
72
156
73
9
0
VERTEX
8
0
6
CONTINUOUS
62
252
70
128
10
0.000000
20
0.000000
30
0.000000
71
9
72
156
73
157
0
VERTEX
8
0
6
CONTINUOUS
62
252
70
128
10
0.000000
20
0.000000
30
0.000000
71
9
72
157
73
8
0
VERTEX
8
0
6
CONTINUOUS
62
252
70
128
10
0.000000
20
0.000000
30
0.000000
71
8
72
157
73
158
0
VERTEX
8
0
6
CONTINUOUS
62
252
70
128
10
0.000000
20
0.000000
30
0.000000
71
8
72
158
73
159
0
VERTEX
8
0
6
CONTINUOUS
62
252
70
128
10
0.000000
20
0.000000
30
0.000000
71
134
72
2
73
133
0
VERTEX
8
0
6
CONTINUOUS
62
252
70
128
10
0.000000
20
0.000000
30
0.000000
71
133
72
2
73
3
0
VERTEX
8
0
6
CONTINUOUS
62
252
70
128
10
0.000000
20
0.000000
30
0.000000
71
133
72
3
73
132
0
VERTEX
8
0
6
CONTINUOUS
62
252
70
128
10
0.000000
20
0.000000
30
0.000000
71
132
72
3
73
131
0
VERTEX
8
0
6
CONTINUOUS
62
252
70
128
10
0.000000
20
0.000000
30
0.000000
71
131
72
3
73
4
0
VERTEX
8
0
6
CONTINUOUS
62
252
70
128
10
0.000000
20
0.000000
30
0.000000
71
131
72
4
73
130
0
VERTEX
8
0
6
CONTINUOUS
62
252
70
128
10
0.000000
20
0.000000
30
0.000000
71
130
72
4
73
5
0
VERTEX
8
0
6
CONTINUOUS
62
252
70
128
10
0.000000
20
0.000000
30
0.000000
71
130
72
5
73
129
0
VERTEX
8
0
6
CONTINUOUS
62
252
70
128
10
0.000000
20
0.000000
30
0.000000
71
129
72
5
73
128
0
VERTEX
8
0
6
CONTINUOUS
62
252
70
128
10
0.000000
20
0.000000
30
0.000000
71
128
72
5
73
6
0
VERTEX
8
0
6
CONTINUOUS
62
252
70
128
10
0.000000
20
0.000000
30
0.000000
71
128
72
6
73
161
0
VERTEX
8
0
6
CONTINUOUS
62
252
70
128
10
0.000000
20
0.000000
30
0.000000
71
161
72
6
73
160
0
VERTEX
8
0
6
CONTINUOUS
62
252
70
128
10
0.000000
20
0.000000
30
0.000000
71
160
72
6
73
7
0
VERTEX
8
0
6
CONTINUOUS
62
252
70
128
10
0.000000
20
0.000000
30
0.000000
71
160
72
7
73
159
0
VERTEX
8
0
6
CONTINUOUS
62
252
70
128
10
0.000000
20
0.000000
30
0.000000
71
159
72
7
73
8
0
VERTEX
8
0
6
CONTINUOUS
62
252
70
128
10
0.000000
20
0.000000
30
0.000000
71
72
72
37
73
93
0
VERTEX
8
0
6
CONTINUOUS
62
252
70
128
10
0.000000
20
0.000000
30
0.000000
71
93
72
37
73
38
0
VERTEX
8
0
6
CONTINUOUS
62
252
70
128
10
0.000000
20
0.000000
30
0.000000
71
93
72
38
73
39
0
VERTEX
8
0
6
CONTINUOUS
62
252
70
128
10
0.000000
20
0.000000
30
0.000000
71
39
72
40
73
93
0
VERTEX
8
0
6
CONTINUOUS
62
252
70
128
10
0.000000
20
0.000000
30
0.000000
71
93
72
40
73
92
0
VERTEX
8
0
6
CONTINUOUS
62
252
70
128
10
0.000000
20
0.000000
30
0.000000
71
92
72
40
73
41
0
VERTEX
8
0
6
CONTINUOUS
62
252
70
128
10
0.000000
20
0.000000
30
0.000000
71
92
72
41
73
42
0
VERTEX
8
0
6
CONTINUOUS
62
252
70
128
10
0.000000
20
0.000000
30
0.000000
71
92
72
42
73
91
0
VERTEX
8
0
6
CONTINUOUS
62
252
70
128
10
0.000000
20
0.000000
30
0.000000
71
91
72
42
73
43
0
VERTEX
8
0
6
CONTINUOUS
62
252
70
128
10
0.000000
20
0.000000
30
0.000000
71
91
72
43
73
90
0
VERTEX
8
0
6
CONTINUOUS
62
252
70
128
10
0.000000
20
0.000000
30
0.000000
71
90
72
43
73
44
0
VERTEX
8
0
6
CONTINUOUS
62
252
70
128
10
0.000000
20
0.000000
30
0.000000
71
90
72
44
73
89
0
VERTEX
8
0
6
CONTINUOUS
62
252
70
128
10
0.000000
20
0.000000
30
0.000000
71
89
72
44
73
45
0
VERTEX
8
0
6
CONTINUOUS
62
252
70
128
10
0.000000
20
0.000000
30
0.000000
71
89
72
45
73
88
0
VERTEX
8
0
6
CONTINUOUS
62
252
70
128
10
0.000000
20
0.000000
30
0.000000
71
88
72
45
73
46
0
VERTEX
8
0
6
CONTINUOUS
62
252
70
128
10
0.000000
20
0.000000
30
0.000000
71
88
72
46
73
87
0
VERTEX
8
0
6
CONTINUOUS
62
252
70
128
10
0.000000
20
0.000000
30
0.000000
71
87
72
46
73
47
0
VERTEX
8
0
6
CONTINUOUS
62
252
70
128
10
0.000000
20
0.000000
30
0.000000
71
87
72
47
73
86
0
VERTEX
8
0
6
CONTINUOUS
62
252
70
128
10
0.000000
20
0.000000
30
0.000000
71
86
72
47
73
48
0
VERTEX
8
0
6
CONTINUOUS
62
252
70
128
10
0.000000
20
0.000000
30
0.000000
71
86
72
48
73
85
0
VERTEX
8
0
6
CONTINUOUS
62
252
70
128
10
0.000000
20
0.000000
30
0.000000
71
85
72
48
73
49
0
VERTEX
8
0
6
CONTINUOUS
62
252
70
128
10
0.000000
20
0.000000
30
0.000000
71
85
72
49
73
84
0
VERTEX
8
0
6
CONTINUOUS
62
252
70
128
10
0.000000
20
0.000000
30
0.000000
71
84
72
49
73
50
0
VERTEX
8
0
6
CONTINUOUS
62
252
70
128
10
0.000000
20
0.000000
30
0.000000
71
84
72
50
73
83
0
VERTEX
8
0
6
CONTINUOUS
62
252
70
128
10
0.000000
20
0.000000
30
0.000000
71
83
72
50
73
51
0
VERTEX
8
0
6
CONTINUOUS
62
252
70
128
10
0.000000
20
0.000000
30
0.000000
71
83
72
51
73
82
0
VERTEX
8
0
6
CONTINUOUS
62
252
70
128
10
0.000000
20
0.000000
30
0.000000
71
82
72
51
73
52
0
VERTEX
8
0
6
CONTINUOUS
62
252
70
128
10
0.000000
20
0.000000
30
0.000000
71
82
72
52
73
81
0
VERTEX
8
0
6
CONTINUOUS
62
252
70
128
10
0.000000
20
0.000000
30
0.000000
71
81
72
52
73
53
0
VERTEX
8
0
6
CONTINUOUS
62
252
70
128
10
0.000000
20
0.000000
30
0.000000
71
81
72
53
73
80
0
VERTEX
8
0
6
CONTINUOUS
62
252
70
128
10
0.000000
20
0.000000
30
0.000000
71
80
72
53
73
54
0
VERTEX
8
0
6
CONTINUOUS
62
252
70
128
10
0.000000
20
0.000000
30
0.000000
71
80
72
54
73
79
0
VERTEX
8
0
6
CONTINUOUS
62
252
70
128
10
0.000000
20
0.000000
30
0.000000
71
79
72
54
73
55
0
VERTEX
8
0
6
CONTINUOUS
62
252
70
128
10
0.000000
20
0.000000
30
0.000000
71
79
72
55
73
78
0
VERTEX
8
0
6
CONTINUOUS
62
252
70
128
10
0.000000
20
0.000000
30
0.000000
71
78
72
55
73
56
0
VERTEX
8
0
6
CONTINUOUS
62
252
70
128
10
0.000000
20
0.000000
30
0.000000
71
78
72
56
73
77
0
VERTEX
8
0
6
CONTINUOUS
62
252
70
128
10
0.000000
20
0.000000
30
0.000000
71
77
72
56
73
57
0
VERTEX
8
0
6
CONTINUOUS
62
252
70
128
10
0.000000
20
0.000000
30
0.000000
71
77
72
57
73
76
0
VERTEX
8
0
6
CONTINUOUS
62
252
70
128
10
0.000000
20
0.000000
30
0.000000
71
76
72
57
73
58
0
VERTEX
8
0
6
CONTINUOUS
62
252
70
128
10
0.000000
20
0.000000
30
0.000000
71
76
72
58
73
75
0
VERTEX
8
0
6
CONTINUOUS
62
252
70
128
10
0.000000
20
0.000000
30
0.000000
71
75
72
58
73
59
0
VERTEX
8
0
6
CONTINUOUS
62
252
70
128
10
0.000000
20
0.000000
30
0.000000
71
75
72
59
73
74
0
VERTEX
8
0
6
CONTINUOUS
62
252
70
128
10
0.000000
20
0.000000
30
0.000000
71
74
72
59
73
60
0
VERTEX
8
0
6
CONTINUOUS
62
252
70
128
10
0.000000
20
0.000000
30
0.000000
71
74
72
60
73
61
0
VERTEX
8
0
6
CONTINUOUS
62
252
70
128
10
0.000000
20
0.000000
30
0.000000
71
61
72
62
73
74
0
VERTEX
8
0
6
CONTINUOUS
62
252
70
128
10
0.000000
20
0.000000
30
0.000000
71
74
72
62
73
73
0
VERTEX
8
0
6
CONTINUOUS
62
252
70
128
10
0.000000
20
0.000000
30
0.000000
71
73
72
62
73
63
0
VERTEX
8
0
6
CONTINUOUS
62
252
70
128
10
0.000000
20
0.000000
30
0.000000
71
73
72
63
73
64
0
VERTEX
8
0
6
CONTINUOUS
62
252
70
128
10
0.000000
20
0.000000
30
0.000000
71
64
72
65
73
73
0
VERTEX
8
0
6
CONTINUOUS
62
252
70
128
10
0.000000
20
0.000000
30
0.000000
71
73
72
65
73
188
0
VERTEX
8
0
6
CONTINUOUS
62
252
70
128
10
0.000000
20
0.000000
30
0.000000
71
188
72
65
73
187
0
VERTEX
8
0
6
CONTINUOUS
62
252
70
128
10
0.000000
20
0.000000
30
0.000000
71
187
72
65
73
66
0
VERTEX
8
0
6
CONTINUOUS
62
252
70
128
10
0.000000
20
0.000000
30
0.000000
71
187
72
66
73
186
0
VERTEX
8
0
6
CONTINUOUS
62
252
70
128
10
0.000000
20
0.000000
30
0.000000
71
186
72
66
73
67
0
VERTEX
8
0
6
CONTINUOUS
62
252
70
128
10
0.000000
20
0.000000
30
0.000000
71
186
72
67
73
185
0
VERTEX
8
0
6
CONTINUOUS
62
252
70
128
10
0.000000
20
0.000000
30
0.000000
71
185
72
67
73
68
0
VERTEX
8
0
6
CONTINUOUS
62
252
70
128
10
0.000000
20
0.000000
30
0.000000
71
185
72
68
73
184
0
VERTEX
8
0
6
CONTINUOUS
62
252
70
128
10
0.000000
20
0.000000
30
0.000000
71
184
72
68
73
183
0
VERTEX
8
0
6
CONTINUOUS
62
252
70
128
10
0.000000
20
0.000000
30
0.000000
71
183
72
68
73
69
0
VERTEX
8
0
6
CONTINUOUS
62
252
70
128
10
0.000000
20
0.000000
30
0.000000
71
183
72
69
73
98
0
VERTEX
8
0
6
CONTINUOUS
62
252
70
128
10
0.000000
20
0.000000
30
0.000000
71
98
72
69
73
97
0
VERTEX
8
0
6
CONTINUOUS
62
252
70
128
10
0.000000
20
0.000000
30
0.000000
71
97
72
69
73
70
0
VERTEX
8
0
6
CONTINUOUS
62
252
70
128
10
0.000000
20
0.000000
30
0.000000
71
97
72
70
73
96
0
VERTEX
8
0
6
CONTINUOUS
62
252
70
128
10
0.000000
20
0.000000
30
0.000000
71
96
72
70
73
71
0
VERTEX
8
0
6
CONTINUOUS
62
252
70
128
10
0.000000
20
0.000000
30
0.000000
71
96
72
71
73
95
0
VERTEX
8
0
6
CONTINUOUS
62
252
70
128
10
0.000000
20
0.000000
30
0.000000
71
95
72
71
73
94
0
VERTEX
8
0
6
CONTINUOUS
62
252
70
128
10
0.000000
20
0.000000
30
0.000000
71
94
72
71
73
72
0
VERTEX
8
0
6
CONTINUOUS
62
252
70
128
10
0.000000
20
0.000000
30
0.000000
71
94
72
72
73
93
0
VERTEX
8
0
6
CONTINUOUS
62
252
70
128
10
0.000000
20
0.000000
30
0.000000
71
98
72
99
73
183
0
VERTEX
8
0
6
CONTINUOUS
62
252
70
128
10
0.000000
20
0.000000
30
0.000000
71
183
72
99
73
182
0
VERTEX
8
0
6
CONTINUOUS
62
252
70
128
10
0.000000
20
0.000000
30
0.000000
71
182
72
99
73
100
0
VERTEX
8
0
6
CONTINUOUS
62
252
70
128
10
0.000000
20
0.000000
30
0.000000
71
182
72
100
73
181
0
VERTEX
8
0
6
CONTINUOUS
62
252
70
128
10
0.000000
20
0.000000
30
0.000000
71
181
72
100
73
177
0
VERTEX
8
0
6
CONTINUOUS
62
252
70
128
10
0.000000
20
0.000000
30
0.000000
71
181
72
177
73
178
0
VERTEX
8
0
6
CONTINUOUS
62
252
70
128
10
0.000000
20
0.000000
30
0.000000
71
100
72
101
73
177
0
VERTEX
8
0
6
CONTINUOUS
62
252
70
128
10
0.000000
20
0.000000
30
0.000000
71
177
72
101
73
102
0
VERTEX
8
0
6
CONTINUOUS
62
252
70
128
10
0.000000
20
0.000000
30
0.000000
71
177
72
102
73
103
0
VERTEX
8
0
6
CONTINUOUS
62
252
70
128
10
0.000000
20
0.000000
30
0.000000
71
103
72
104
73
177
0
VERTEX
8
0
6
CONTINUOUS
62
252
70
128
10
0.000000
20
0.000000
30
0.000000
71
177
72
104
73
108
0
VERTEX
8
0
6
CONTINUOUS
62
252
70
128
10
0.000000
20
0.000000
30
0.000000
71
177
72
108
73
176
0
VERTEX
8
0
6
CONTINUOUS
62
252
70
128
10
0.000000
20
0.000000
30
0.000000
71
176
72
108
73
175
0
VERTEX
8
0
6
CONTINUOUS
62
252
70
128
10
0.000000
20
0.000000
30
0.000000
71
175
72
108
73
174
0
VERTEX
8
0
6
CONTINUOUS
62
252
70
128
10
0.000000
20
0.000000
30
0.000000
71
174
72
108
73
173
0
VERTEX
8
0
6
CONTINUOUS
62
252
70
128
10
0.000000
20
0.000000
30
0.000000
71
173
72
108
73
172
0
VERTEX
8
0
6
CONTINUOUS
62
252
70
128
10
0.000000
20
0.000000
30
0.000000
71
172
72
108
73
171
0
VERTEX
8
0
6
CONTINUOUS
62
252
70
128
10
0.000000
20
0.000000
30
0.000000
71
171
72
108
73
170
0
VERTEX
8
0
6
CONTINUOUS
62
252
70
128
10
0.000000
20
0.000000
30
0.000000
71
170
72
108
73
169
0
VERTEX
8
0
6
CONTINUOUS
62
252
70
128
10
0.000000
20
0.000000
30
0.000000
71
169
72
108
73
168
0
VERTEX
8
0
6
CONTINUOUS
62
252
70
128
10
0.000000
20
0.000000
30
0.000000
71
168
72
108
73
167
0
VERTEX
8
0
6
CONTINUOUS
62
252
70
128
10
0.000000
20
0.000000
30
0.000000
71
167
72
108
73
166
0
VERTEX
8
0
6
CONTINUOUS
62
252
70
128
10
0.000000
20
0.000000
30
0.000000
71
166
72
108
73
109
0
VERTEX
8
0
6
CONTINUOUS
62
252
70
128
10
0.000000
20
0.000000
30
0.000000
71
166
72
109
73
165
0
VERTEX
8
0
6
CONTINUOUS
62
252
70
128
10
0.000000
20
0.000000
30
0.000000
71
165
72
109
73
164
0
VERTEX
8
0
6
CONTINUOUS
62
252
70
128
10
0.000000
20
0.000000
30
0.000000
71
164
72
109
73
163
0
VERTEX
8
0
6
CONTINUOUS
62
252
70
128
10
0.000000
20
0.000000
30
0.000000
71
163
72
109
73
126
0
VERTEX
8
0
6
CONTINUOUS
62
252
70
128
10
0.000000
20
0.000000
30
0.000000
71
163
72
126
73
127
0
VERTEX
8
0
6
CONTINUOUS
62
252
70
128
10
0.000000
20
0.000000
30
0.000000
71
105
72
106
73
104
0
VERTEX
8
0
6
CONTINUOUS
62
252
70
128
10
0.000000
20
0.000000
30
0.000000
71
104
72
106
73
107
0
VERTEX
8
0
6
CONTINUOUS
62
252
70
128
10
0.000000
20
0.000000
30
0.000000
71
104
72
107
73
108
0
VERTEX
8
0
6
CONTINUOUS
62
252
70
128
10
0.000000
20
0.000000
30
0.000000
71
110
72
123
73
109
0
VERTEX
8
0
6
CONTINUOUS
62
252
70
128
10
0.000000
20
0.000000
30
0.000000
71
109
72
123
73
124
0
VERTEX
8
0
6
CONTINUOUS
62
252
70
128
10
0.000000
20
0.000000
30
0.000000
71
109
72
124
73
125
0
VERTEX
8
0
6
CONTINUOUS
62
252
70
128
10
0.000000
20
0.000000
30
0.000000
71
123
72
110
73
122
0
VERTEX
8
0
6
CONTINUOUS
62
252
70
128
10
0.000000
20
0.000000
30
0.000000
71
122
72
110
73
111
0
VERTEX
8
0
6
CONTINUOUS
62
252
70
128
10
0.000000
20
0.000000
30
0.000000
71
122
72
111
73
112
0
VERTEX
8
0
6
CONTINUOUS
62
252
70
128
10
0.000000
20
0.000000
30
0.000000
71
112
72
113
73
122
0
VERTEX
8
0
6
CONTINUOUS
62
252
70
128
10
0.000000
20
0.000000
30
0.000000
71
122
72
113
73
114
0
VERTEX
8
0
6
CONTINUOUS
62
252
70
128
10
0.000000
20
0.000000
30
0.000000
71
122
72
114
73
115
0
VERTEX
8
0
6
CONTINUOUS
62
252
70
128
10
0.000000
20
0.000000
30
0.000000
71
122
72
115
73
121
0
VERTEX
8
0
6
CONTINUOUS
62
252
70
128
10
0.000000
20
0.000000
30
0.000000
71
121
72
115
73
116
0
VERTEX
8
0
6
CONTINUOUS
62
252
70
128
10
0.000000
20
0.000000
30
0.000000
71
121
72
116
73
117
0
VERTEX
8
0
6
CONTINUOUS
62
252
70
128
10
0.000000
20
0.000000
30
0.000000
71
117
72
118
73
121
0
VERTEX
8
0
6
CONTINUOUS
62
252
70
128
10
0.000000
20
0.000000
30
0.000000
71
121
72
118
73
119
0
VERTEX
8
0
6
CONTINUOUS
62
252
70
128
10
0.000000
20
0.000000
30
0.000000
71
121
72
119
73
120
0
VERTEX
8
0
6
CONTINUOUS
62
252
70
128
10
0.000000
20
0.000000
30
0.000000
71
125
72
126
73
109
0
VERTEX
8
0
6
CONTINUOUS
62
252
70
128
10
0.000000
20
0.000000
30
0.000000
71
163
72
127
73
162
0
VERTEX
8
0
6
CONTINUOUS
62
252
70
128
10
0.000000
20
0.000000
30
0.000000
71
162
72
127
73
128
0
VERTEX
8
0
6
CONTINUOUS
62
252
70
128
10
0.000000
20
0.000000
30
0.000000
71
162
72
128
73
161
0
VERTEX
8
0
6
CONTINUOUS
62
252
70
128
10
0.000000
20
0.000000
30
0.000000
71
178
72
179
73
181
0
VERTEX
8
0
6
CONTINUOUS
62
252
70
128
10
0.000000
20
0.000000
30
0.000000
71
181
72
179
73
180
0
SEQEND
0
POLYLINE
66
1
8
0
6
CONTINUOUS
62
252
70
64
75
0
10
0.000000
20
0.000000
30
0.000000
0
VERTEX
8
0
6
CONTINUOUS
62
252
70
192
10
0.000000
20
-15.000000
30
-20.000000
0
VERTEX
8
0
6
CONTINUOUS
62
252
70
192
10
-0.273460
20
-15.000000
30
-23.125667
0
VERTEX
8
0
6
CONTINUOUS
62
252
70
192
10
-1.085533
20
-15.000000
30
-26.156363
0
VERTEX
8
0
6
CONTINUOUS
62
252
70
192
10
-2.411543
20
-15.000000
30
-29.000000
0
VERTEX
8
0
6
CONTINUOUS
62
252
70
192
10
-4.211200
20
-15.000000
30
-31.570177
0
VERTEX
8
0
6
CONTINUOUS
62
252
70
192
10
-6.429823
20
-15.000000
30
-33.788800
0
VERTEX
8
0
6
CONTINUOUS
62
252
70
192
10
-9.000000
20
-15.000000
30
-35.588457
0
VERTEX
8
0
6
CONTINUOUS
62
252
70
192
10
-11.843637
20
-15.000000
30
-36.914467
0
VERTEX
8
0
6
CONTINUOUS
62
252
70
192
10
-14.874333
20
-15.000000
30
-37.726540
0
VERTEX
8
0
6
CONTINUOUS
62
252
70
192
10
-18.000000
20
-15.000000
30
-38.000000
0
VERTEX
8
0
6
CONTINUOUS
62
252
70
192
10
-21.125667
20
-15.000000
30
-37.726540
0
VERTEX
8
0
6
CONTINUOUS
62
252
70
192
10
-24.156363
20
-15.000000
30
-36.914467
0
VERTEX
8
0
6
CONTINUOUS
62
252
70
192
10
-27.000000
20
-15.000000
30
-35.588457
0
VERTEX
8
0
6
CONTINUOUS
62
252
70
192
10
-29.570177
20
-15.000000
30
-33.788800
0
VERTEX
8
0
6
CONTINUOUS
62
252
70
192
10
-31.788800
20
-15.000000
30
-31.570177
0
VERTEX
8
0
6
CONTINUOUS
62
252
70
192
10
-33.588457
20
-15.000000
30
-29.000000
0
VERTEX
8
0
6
CONTINUOUS
62
252
70
192
10
-34.914467
20
-15.000000
30
-26.156363
0
VERTEX
8
0
6
CONTINUOUS
62
252
70
192
10
-35.726540
20
-15.000000
30
-23.125667
0
VERTEX
8
0
6
CONTINUOUS
62
252
70
192
10
-36.000000
20
-15.000000
30
-20.000000
0
VERTEX
8
0
6
CONTINUOUS
62
252
70
192
10
-35.726540
20
-15.000000
30
-16.874333
0
VERTEX
8
0
6
CONTINUOUS
62
252
70
192
10
-34.914467
20
-15.000000
30
-13.843637
0
VERTEX
8
0
6
CONTINUOUS
62
252
70
192
10
-33.588457
20
-15.000000
30
-11.000000
0
VERTEX
8
0
6
CONTINUOUS
62
252
70
192
10
-31.788800
20
-15.000000
30
-8.429823
0
VERTEX
8
0
6
CONTINUOUS
62
252
70
192
10
-29.570177
20
-15.000000
30
-6.211200
0
VERTEX
8
0
6
CONTINUOUS
62
252
70
192
10
-27.000000
20
-15.000000
30
-4.411543
0
VERTEX
8
0
6
CONTINUOUS
62
252
70
192
10
-24.156363
20
-15.000000
30
-3.085533
0
VERTEX
8
0
6
CONTINUOUS
62
252
70
192
10
-21.125667
20
-15.000000
30
-2.273460
0
VERTEX
8
0
6
CONTINUOUS
62
252
70
192
10
-18.000000
20
-15.000000
30
-2.000000
0
VERTEX
8
0
6
CONTINUOUS
62
252
70
192
10
-14.874333
20
-15.000000
30
-2.273460
0
VERTEX
8
0
6
CONTINUOUS
62
252
70
192
10
-11.843637
20
-15.000000
30
-3.085533
0
VERTEX
8
0
6
CONTINUOUS
62
252
70
192
10
-9.000000
20
-15.000000
30
-4.411543
0
VERTEX
8
0
6
CONTINUOUS
62
252
70
192
10
-6.429823
20
-15.000000
30
-6.211200
0
VERTEX
8
0
6
CONTINUOUS
62
252
70
192
10
-4.211200
20
-15.000000
30
-8.429823
0
VERTEX
8
0
6
CONTINUOUS
62
252
70
192
10
-2.411543
20
-15.000000
30
-11.000000
0
VERTEX
8
0
6
CONTINUOUS
62
252
70
192
10
-1.085533
20
-15.000000
30
-13.843637
0
VERTEX
8
0
6
CONTINUOUS
62
252
70
192
10
-0.273460
20
-15.000000
30
-16.874333
0
VERTEX
8
0
6
CONTINUOUS
62
252
70
192
10
-35.750000
20
-15.000000
30
-43.000000
0
VERTEX
8
0
6
CONTINUOUS
62
252
70
192
10
-35.784183
20
-15.000000
30
-43.390708
0
VERTEX
8
0
6
CONTINUOUS
62
252
70
192
10
-35.885692
20
-15.000000
30
-43.769545
0
VERTEX
8
0
6
CONTINUOUS
62
252
70
192
10
-36.051443
20
-15.000000
30
-44.125000
0
VERTEX
8
0
6
CONTINUOUS
62
252
70
192
10
-36.276400
20
-15.000000
30
-44.446272
0
VERTEX
8
0
6
CONTINUOUS
62
252
70
192
10
-36.553728
20
-15.000000
30
-44.723600
0
VERTEX
8
0
6
CONTINUOUS
62
252
70
192
10
-36.875000
20
-15.000000
30
-44.948557
0
VERTEX
8
0
6
CONTINUOUS
62
252
70
192
10
-37.230455
20
-15.000000
30
-45.114308
0
VERTEX
8
0
6
CONTINUOUS
62
252
70
192
10
-37.609292
20
-15.000000
30
-45.215817
0
VERTEX
8
0
6
CONTINUOUS
62
252
70
192
10
-38.000000
20
-15.000000
30
-45.250000
0
VERTEX
8
0
6
CONTINUOUS
62
252
70
192
10
-38.390708
20
-15.000000
30
-45.215817
0
VERTEX
8
0
6
CONTINUOUS
62
252
70
192
10
-38.769545
20
-15.000000
30
-45.114308
0
VERTEX
8
0
6
CONTINUOUS
62
252
70
192
10
-39.125000
20
-15.000000
30
-44.948557
0
VERTEX
8
0
6
CONTINUOUS
62
252
70
192
10
-39.446272
20
-15.000000
30
-44.723600
0
VERTEX
8
0
6
CONTINUOUS
62
252
70
192
10
-39.723600
20
-15.000000
30
-44.446272
0
VERTEX
8
0
6
CONTINUOUS
62
252
70
192
10
-39.948557
20
-15.000000
30
-44.125000
0
VERTEX
8
0
6
CONTINUOUS
62
252
70
192
10
-40.114308
20
-15.000000
30
-43.769545
0
VERTEX
8
0
6
CONTINUOUS
62
252
70
192
10
-40.215817
20
-15.000000
30
-43.390708
0
VERTEX
8
0
6
CONTINUOUS
62
252
70
192
10
-40.250000
20
-15.000000
30
-43.000000
0
VERTEX
8
0
6
CONTINUOUS
62
252
70
192
10
-40.215817
20
-15.000000
30
-42.609292
0
VERTEX
8
0
6
CONTINUOUS
62
252
70
192
10
-40.114308
20
-15.000000
30
-42.230455
0
VERTEX
8
0
6
CONTINUOUS
62
252
70
192
10
-39.948557
20
-15.000000
30
-41.875000
0
VERTEX
8
0
6
CONTINUOUS
62
252
70
192
10
-39.723600
20
-15.000000
30
-41.553728
0
VERTEX
8
0
6
CONTINUOUS
62
252
70
192
10
-39.446272
20
-15.000000
30
-41.276400
0
VERTEX
8
0
6
CONTINUOUS
62
252
70
192
10
-39.125000
20
-15.000000
30
-41.051443
0
VERTEX
8
0
6
CONTINUOUS
62
252
70
192
10
-38.769545
20
-15.000000
30
-40.885692
0
VERTEX
8
0
6
CONTINUOUS
62
252
70
192
10
-38.390708
20
-15.000000
30
-40.784183
0
VERTEX
8
0
6
CONTINUOUS
62
252
70
192
10
-38.000000
20
-15.000000
30
-40.750000
0
VERTEX
8
0
6
CONTINUOUS
62
252
70
192
10
-37.609292
20
-15.000000
30
-40.784183
0
VERTEX
8
0
6
CONTINUOUS
62
252
70
192
10
-37.230455
20
-15.000000
30
-40.885692
0
VERTEX
8
0
6
CONTINUOUS
62
252
70
192
10
-36.875000
20
-15.000000
30
-41.051443
0
VERTEX
8
0
6
CONTINUOUS
62
252
70
192
10
-36.553728
20
-15.000000
30
-41.276400
0
VERTEX
8
0
6
CONTINUOUS
62
252
70
192
10
-36.276400
20
-15.000000
30
-41.553728
0
VERTEX
8
0
6
CONTINUOUS
62
252
70
192
10
-36.051443
20
-15.000000
30
-41.875000
0
VERTEX
8
0
6
CONTINUOUS
62
252
70
192
10
-35.885692
20
-15.000000
30
-42.230455
0
VERTEX
8
0
6
CONTINUOUS
62
252
70
192
10
-35.784183
20
-15.000000
30
-42.609292
0
VERTEX
8
0
6
CONTINUOUS
62
252
70
192
10
-0.000000
20
-15.000000
30
-2.250000
0
VERTEX
8
0
6
CONTINUOUS
62
252
70
192
10
-0.390708
20
-15.000000
30
-2.215817
0
VERTEX
8
0
6
CONTINUOUS
62
252
70
192
10
-0.769545
20
-15.000000
30
-2.114308
0
VERTEX
8
0
6
CONTINUOUS
62
252
70
192
10
-1.125000
20
-15.000000
30
-1.948557
0
VERTEX
8
0
6
CONTINUOUS
62
252
70
192
10
-1.446272
20
-15.000000
30
-1.723600
0
VERTEX
8
0
6
CONTINUOUS
62
252
70
192
10
-1.723600
20
-15.000000
30
-1.446272
0
VERTEX
8
0
6
CONTINUOUS
62
252
70
192
10
-1.948557
20
-15.000000
30
-1.125000
0
VERTEX
8
0
6
CONTINUOUS
62
252
70
192
10
-2.114308
20
-15.000000
30
-0.769545
0
VERTEX
8
0
6
CONTINUOUS
62
252
70
192
10
-2.215817
20
-15.000000
30
-0.390708
0
VERTEX
8
0
6
CONTINUOUS
62
252
70
192
10
-2.250000
20
-15.000000
30
0.000000
0
VERTEX
8
0
6
CONTINUOUS
62
252
70
192
10
-2.215817
20
-15.000000
30
0.390708
0
VERTEX
8
0
6
CONTINUOUS
62
252
70
192
10
-2.114308
20
-15.000000
30
0.769545
0
VERTEX
8
0
6
CONTINUOUS
62
252
70
192
10
-1.948557
20
-15.000000
30
1.125000
0
VERTEX
8
0
6
CONTINUOUS
62
252
70
192
10
-1.723600
20
-15.000000
30
1.446272
0
VERTEX
8
0
6
CONTINUOUS
62
252
70
192
10
-1.446272
20
-15.000000
30
1.723600
0
VERTEX
8
0
6
CONTINUOUS
62
252
70
192
10
-1.125000
20
-15.000000
30
1.948557
0
VERTEX
8
0
6
CONTINUOUS
62
252
70
192
10
-0.769545
20
-15.000000
30
2.114308
0
VERTEX
8
0
6
CONTINUOUS
62
252
70
192
10
-0.390708
20
-15.000000
30
2.215817
0
VERTEX
8
0
6
CONTINUOUS
62
252
70
192
10
-0.000000
20
-15.000000
30
2.250000
0
VERTEX
8
0
6
CONTINUOUS
62
252
70
192
10
0.390708
20
-15.000000
30
2.215817
0
VERTEX
8
0
6
CONTINUOUS
62
252
70
192
10
0.769545
20
-15.000000
30
2.114308
0
VERTEX
8
0
6
CONTINUOUS
62
252
70
192
10
1.125000
20
-15.000000
30
1.948557
0
VERTEX
8
0
6
CONTINUOUS
62
252
70
192
10
1.446272
20
-15.000000
30
1.723600
0
VERTEX
8
0
6
CONTINUOUS
62
252
70
192
10
1.723600
20
-15.000000
30
1.446272
0
VERTEX
8
0
6
CONTINUOUS
62
252
70
192
10
1.948557
20
-15.000000
30
1.125000
0
VERTEX
8
0
6
CONTINUOUS
62
252
70
192
10
2.114308
20
-15.000000
30
0.769545
0
VERTEX
8
0
6
CONTINUOUS
62
252
70
192
10
2.215817
20
-15.000000
30
0.390708
0
VERTEX
8
0
6
CONTINUOUS
62
252
70
192
10
2.250000
20
-15.000000
30
0.000000
0
VERTEX
8
0
6
CONTINUOUS
62
252
70
192
10
2.215817
20
-15.000000
30
-0.390708
0
VERTEX
8
0
6
CONTINUOUS
62
252
70
192
10
2.114308
20
-15.000000
30
-0.769545
0
VERTEX
8
0
6
CONTINUOUS
62
252
70
192
10
1.948557
20
-15.000000
30
-1.125000
0
VERTEX
8
0
6
CONTINUOUS
62
252
70
192
10
1.723600
20
-15.000000
30
-1.446272
0
VERTEX
8
0
6
CONTINUOUS
62
252
70
192
10
1.446272
20
-15.000000
30
-1.723600
0
VERTEX
8
0
6
CONTINUOUS
62
252
70
192
10
1.125000
20
-15.000000
30
-1.948557
0
VERTEX
8
0
6
CONTINUOUS
62
252
70
192
10
0.769545
20
-15.000000
30
-2.114308
0
VERTEX
8
0
6
CONTINUOUS
62
252
70
192
10
0.390708
20
-15.000000
30
-2.215817
0
VERTEX
8
0
6
CONTINUOUS
62
252
70
192
10
2.787477
20
-15.000000
30
-2.508480
0
VERTEX
8
0
6
CONTINUOUS
62
252
70
192
10
3.180722
20
-15.000000
30
-1.986330
0
VERTEX
8
0
6
CONTINUOUS
62
252
70
192
10
3.477322
20
-15.000000
30
-1.403826
0
VERTEX
8
0
6
CONTINUOUS
62
252
70
192
10
3.668266
20
-15.000000
30
-0.778669
0
VERTEX
8
0
6
CONTINUOUS
62
252
70
192
10
3.747751
20
-15.000000
30
-0.129851
0
VERTEX
8
0
6
CONTINUOUS
62
252
70
192
10
3.713363
20
-15.000000
30
0.522912
0
VERTEX
8
0
6
CONTINUOUS
62
252
70
192
10
3.566146
20
-15.000000
30
1.159786
0
VERTEX
8
0
6
CONTINUOUS
62
252
70
192
10
3.310573
20
-15.000000
30
1.761421
0
VERTEX
8
0
6
CONTINUOUS
62
252
70
192
10
2.954411
20
-15.000000
30
2.309536
0
VERTEX
8
0
6
CONTINUOUS
62
252
70
192
10
2.508480
20
-15.000000
30
2.787477
0
VERTEX
8
0
6
CONTINUOUS
62
252
70
192
10
1.986330
20
-15.000000
30
3.180722
0
VERTEX
8
0
6
CONTINUOUS
62
252
70
192
10
1.403826
20
-15.000000
30
3.477322
0
VERTEX
8
0
6
CONTINUOUS
62
252
70
192
10
0.778669
20
-15.000000
30
3.668266
0
VERTEX
8
0
6
CONTINUOUS
62
252
70
192
10
0.129851
20
-15.000000
30
3.747751
0
VERTEX
8
0
6
CONTINUOUS
62
252
70
192
10
-0.522912
20
-15.000000
30
3.713363
0
VERTEX
8
0
6
CONTINUOUS
62
252
70
192
10
-1.159786
20
-15.000000
30
3.566146
0
VERTEX
8
0
6
CONTINUOUS
62
252
70
192
10
-1.761421
20
-15.000000
30
3.310573
0
VERTEX
8
0
6
CONTINUOUS
62
252
70
192
10
-2.309536
20
-15.000000
30
2.954411
0
VERTEX
8
0
6
CONTINUOUS
62
252
70
192
10
-2.787477
20
-15.000000
30
2.508480
0
VERTEX
8
0
6
CONTINUOUS
62
252
70
192
10
-4.456673
20
-15.000000
30
0.656072
0
VERTEX
8
0
6
CONTINUOUS
62
252
70
192
10
-4.589220
20
-15.000000
30
0.536412
0
VERTEX
8
0
6
CONTINUOUS
62
252
70
192
10
-4.740072
20
-15.000000
30
0.440856
0
VERTEX
8
0
6
CONTINUOUS
62
252
70
192
10
-4.904895
20
-15.000000
30
0.372150
0
VERTEX
8
0
6
CONTINUOUS
62
252
70
192
10
-5.078954
20
-15.000000
30
0.332267
0
VERTEX
8
0
6
CONTINUOUS
62
252
70
192
10
-5.257248
20
-15.000000
30
0.322353
0
VERTEX
8
0
6
CONTINUOUS
62
252
70
192
10
-5.434656
20
-15.000000
30
0.342693
0
VERTEX
8
0
6
CONTINUOUS
62
252
70
192
10
-5.606081
20
-15.000000
30
0.392702
0
VERTEX
8
0
6
CONTINUOUS
62
252
70
192
10
-5.766596
20
-15.000000
30
0.470945
0
VERTEX
8
0
6
CONTINUOUS
62
252
70
192
10
-8.548920
20
-15.000000
30
2.181634
0
VERTEX
8
0
6
CONTINUOUS
62
252
70
192
10
-11.571657
20
-15.000000
30
3.418907
0
VERTEX
8
0
6
CONTINUOUS
62
252
70
192
10
-14.754924
20
-15.000000
30
4.150064
0
VERTEX
8
0
6
CONTINUOUS
62
252
70
192
10
-18.014596
20
-15.000000
30
4.355784
0
VERTEX
8
0
6
CONTINUOUS
62
252
70
192
10
-22.205063
20
-15.000000
30
4.170963
0
VERTEX
8
0
6
CONTINUOUS
62
252
70
192
10
-26.307258
20
-15.000000
30
3.295653
0
VERTEX
8
0
6
CONTINUOUS
62
252
70
192
10
-30.208201
20
-15.000000
30
1.753959
0
VERTEX
8
0
6
CONTINUOUS
62
252
70
192
10
-33.800454
20
-15.000000
30
-0.411657
0
VERTEX
8
0
6
CONTINUOUS
62
252
70
192
10
-36.733699
20
-15.000000
30
-2.877105
0
VERTEX
8
0
6
CONTINUOUS
62
252
70
192
10
-39.258887
20
-15.000000
30
-5.759080
0
VERTEX
8
0
6
CONTINUOUS
62
252
70
192
10
-41.317540
20
-15.000000
30
-8.990844
0
VERTEX
8
0
6
CONTINUOUS
62
252
70
192
10
-42.861986
20
-15.000000
30
-12.497558
0
VERTEX
8
0
6
CONTINUOUS
62
252
70
192
10
-43.856459
20
-15.000000
30
-16.198015
0
VERTEX
8
0
6
CONTINUOUS
62
252
70
192
10
-44.277930
20
-15.000000
30
-20.006521
0
VERTEX
8
0
6
CONTINUOUS
62
252
70
192
10
-44.079615
20
-15.000000
30
-24.590719
0
VERTEX
8
0
6
CONTINUOUS
62
252
70
192
10
-43.106673
20
-15.000000
30
-29.074868
0
VERTEX
8
0
6
CONTINUOUS
62
252
70
192
10
-41.387297
20
-15.000000
30
-33.329036
0
VERTEX
8
0
6
CONTINUOUS
62
252
70
192
10
-38.971305
20
-15.000000
30
-37.229958
0
VERTEX
8
0
6
CONTINUOUS
62
252
70
192
10
-38.882620
20
-15.000000
30
-37.373715
0
VERTEX
8
0
6
CONTINUOUS
62
252
70
192
10
-38.819396
20
-15.000000
30
-37.530347
0
VERTEX
8
0
6
CONTINUOUS
62
252
70
192
10
-38.783435
20
-15.000000
30
-37.695386
0
VERTEX
8
0
6
CONTINUOUS
62
252
70
192
10
-38.775766
20
-15.000000
30
-37.864124
0
VERTEX
8
0
6
CONTINUOUS
62
252
70
192
10
-38.796605
20
-15.000000
30
-38.031745
0
VERTEX
8
0
6
CONTINUOUS
62
252
70
192
10
-38.845359
20
-15.000000
30
-38.193467
0
VERTEX
8
0
6
CONTINUOUS
62
252
70
192
10
-38.920637
20
-15.000000
30
-38.344676
0
VERTEX
8
0
6
CONTINUOUS
62
252
70
192
10
-39.020290
20
-15.000000
30
-38.481059
0
VERTEX
8
0
6
CONTINUOUS
62
252
70
192
10
-40.830161
20
-15.000000
30
-40.539779
0
VERTEX
8
0
6
CONTINUOUS
62
252
70
192
10
-41.208569
20
-15.000000
30
-41.058973
0
VERTEX
8
0
6
CONTINUOUS
62
252
70
192
10
-41.492801
20
-15.000000
30
-41.635140
0
VERTEX
8
0
6
CONTINUOUS
62
252
70
192
10
-41.674514
20
-15.000000
30
-42.251368
0
VERTEX
8
0
6
CONTINUOUS
62
252
70
192
10
-41.748374
20
-15.000000
30
-42.889569
0
VERTEX
8
0
6
CONTINUOUS
62
252
70
192
10
-41.712213
20
-15.000000
30
-43.531012
0
VERTEX
8
0
6
CONTINUOUS
62
252
70
192
10
-41.567093
20
-15.000000
30
-44.156868
0
VERTEX
8
0
6
CONTINUOUS
62
252
70
192
10
-41.317274
20
-15.000000
30
-44.748769
0
VERTEX
8
0
6
CONTINUOUS
62
252
70
192
10
-40.970088
20
-15.000000
30
-45.289341
0
VERTEX
8
0
6
CONTINUOUS
62
252
70
192
10
-40.535724
20
-15.000000
30
-45.762716
0
VERTEX
8
0
6
CONTINUOUS
62
252
70
192
10
-40.026934
20
-15.000000
30
-46.155002
0
VERTEX
8
0
6
CONTINUOUS
62
252
70
192
10
-39.458650
20
-15.000000
30
-46.454684
0
VERTEX
8
0
6
CONTINUOUS
62
252
70
192
10
-38.847552
20
-15.000000
30
-46.652965
0
VERTEX
8
0
6
CONTINUOUS
62
252
70
192
10
-38.211577
20
-15.000000
30
-46.744027
0
VERTEX
8
0
6
CONTINUOUS
62
252
70
192
10
-37.569392
20
-15.000000
30
-46.725195
0
VERTEX
8
0
6
CONTINUOUS
62
252
70
192
10
-36.939846
20
-15.000000
30
-46.597023
0
VERTEX
8
0
6
CONTINUOUS
62
252
70
192
10
-36.341417
20
-15.000000
30
-46.363273
0
VERTEX
8
0
6
CONTINUOUS
62
252
70
192
10
-35.791671
20
-15.000000
30
-46.030805
0
VERTEX
8
0
6
CONTINUOUS
62
252
70
192
10
-35.306742
20
-15.000000
30
-45.609379
0
VERTEX
8
0
6
CONTINUOUS
62
252
70
192
10
-33.653814
20
-15.000000
30
-43.742913
0
VERTEX
8
0
6
CONTINUOUS
62
252
70
192
10
-33.538880
20
-15.000000
30
-43.630693
0
VERTEX
8
0
6
CONTINUOUS
62
252
70
192
10
-33.407460
20
-15.000000
30
-43.538325
0
VERTEX
8
0
6
CONTINUOUS
62
252
70
192
10
-33.262946
20
-15.000000
30
-43.468190
0
VERTEX
8
0
6
CONTINUOUS
62
252
70
192
10
-33.109067
20
-15.000000
30
-43.422099
0
VERTEX
8
0
6
CONTINUOUS
62
252
70
192
10
-32.949794
20
-15.000000
30
-43.401240
0
VERTEX
8
0
6
CONTINUOUS
62
252
70
192
10
-32.789236
20
-15.000000
30
-43.406153
0
VERTEX
8
0
6
CONTINUOUS
62
252
70
192
10
-32.631535
20
-15.000000
30
-43.436710
0
VERTEX
8
0
6
CONTINUOUS
62
252
70
192
10
-32.480762
20
-15.000000
30
-43.492123
0
VERTEX
8
0
6
CONTINUOUS
62
252
70
192
10
-32.340807
20
-15.000000
30
-43.570962
0
VERTEX
8
0
6
CONTINUOUS
62
252
70
192
10
-29.044138
20
-15.000000
30
-45.470473
0
VERTEX
8
0
6
CONTINUOUS
62
252
70
192
10
-25.514093
20
-15.000000
30
-46.889962
0
VERTEX
8
0
6
CONTINUOUS
62
252
70
192
10
-21.820142
20
-15.000000
30
-47.801495
0
VERTEX
8
0
6
CONTINUOUS
62
252
70
192
10
-18.034981
20
-15.000000
30
-48.187134
0
VERTEX
8
0
6
CONTINUOUS
62
252
70
192
10
6.725000
20
-15.000000
30
-48.200000
0
VERTEX
8
0
6
CONTINUOUS
62
252
70
192
10
6.725000
20
-15.000000
30
-28.300000
0
VERTEX
8
0
6
CONTINUOUS
62
252
70
192
10
4.600000
20
-15.000000
30
-28.275000
0
VERTEX
8
0
6
CONTINUOUS
62
252
70
192
10
4.376217
20
-15.000000
30
-28.249486
0
VERTEX
8
0
6
CONTINUOUS
62
252
70
192
10
4.159758
20
-15.000000
30
-28.187238
0
VERTEX
8
0
6
CONTINUOUS
62
252
70
192
10
3.956608
20
-15.000000
30
-28.089977
0
VERTEX
8
0
6
CONTINUOUS
62
252
70
192
10
3.772387
20
-15.000000
30
-27.960393
0
VERTEX
8
0
6
CONTINUOUS
62
252
70
192
10
3.612189
20
-15.000000
30
-27.802069
0
VERTEX
8
0
6
CONTINUOUS
62
252
70
192
10
3.480446
20
-15.000000
30
-27.619386
0
VERTEX
8
0
6
CONTINUOUS
62
252
70
192
10
3.380801
20
-15.000000
30
-27.417395
0
VERTEX
8
0
6
CONTINUOUS
62
252
70
192
10
3.316009
20
-15.000000
30
-27.201683
0
VERTEX
8
0
6
CONTINUOUS
62
252
70
192
10
3.287864
20
-15.000000
30
-26.978216
0
VERTEX
8
0
6
CONTINUOUS
62
252
70
192
10
3.297143
20
-15.000000
30
-26.753175
0
VERTEX
8
0
6
CONTINUOUS
62
252
70
192
10
3.343590
20
-15.000000
30
-26.532784
0
VERTEX
8
0
6
CONTINUOUS
62
252
70
192
10
3.577133
20
-15.000000
30
-25.859005
0
VERTEX
8
0
6
CONTINUOUS
62
252
70
192
10
3.788691
20
-15.000000
30
-25.178004
0
VERTEX
8
0
6
CONTINUOUS
62
252
70
192
10
3.978042
20
-15.000000
30
-24.490496
0
VERTEX
8
0
6
CONTINUOUS
62
252
70
192
10
4.590912
20
-15.000000
30
-20.666103
0
VERTEX
8
0
6
CONTINUOUS
62
252
70
192
10
4.559036
20
-15.000000
30
-16.793045
0
VERTEX
8
0
6
CONTINUOUS
62
252
70
192
10
3.883301
20
-15.000000
30
-12.979258
0
VERTEX
8
0
6
CONTINUOUS
62
252
70
192
10
2.582539
20
-15.000000
30
-9.331024
0
VERTEX
8
0
6
CONTINUOUS
62
252
70
192
10
0.693000
20
-15.000000
30
-5.950013
0
VERTEX
8
0
6
CONTINUOUS
62
252
70
192
10
0.622972
20
-15.000000
30
-5.781074
0
VERTEX
8
0
6
CONTINUOUS
62
252
70
192
10
0.582090
20
-15.000000
30
-5.602824
0
VERTEX
8
0
6
CONTINUOUS
62
252
70
192
10
0.571500
20
-15.000000
30
-5.420254
0
VERTEX
8
0
6
CONTINUOUS
62
252
70
192
10
0.591498
20
-15.000000
30
-5.238473
0
VERTEX
8
0
6
CONTINUOUS
62
252
70
192
10
0.641524
20
-15.000000
30
-5.062570
0
VERTEX
8
0
6
CONTINUOUS
62
252
70
192
10
0.720177
20
-15.000000
30
-4.897470
0
VERTEX
8
0
6
CONTINUOUS
62
252
70
192
10
0.825256
20
-15.000000
30
-4.747795
0
VERTEX
8
0
6
CONTINUOUS
62
252
70
128
10
0.000000
20
0.000000
30
0.000000
71
2
72
213
73
1
0
VERTEX
8
0
6
CONTINUOUS
62
252
70
128
10
0.000000
20
0.000000
30
0.000000
71
1
72
213
73
214
0
VERTEX
8
0
6
CONTINUOUS
62
252
70
128
10
0.000000
20
0.000000
30
0.000000
71
1
72
214
73
36
0
VERTEX
8
0
6
CONTINUOUS
62
252
70
128
10
0.000000
20
0.000000
30
0.000000
71
36
72
214
73
215
0
VERTEX
8
0
6
CONTINUOUS
62
252
70
128
10
0.000000
20
0.000000
30
0.000000
71
36
72
215
73
35
0
VERTEX
8
0
6
CONTINUOUS
62
252
70
128
10
0.000000
20
0.000000
30
0.000000
71
35
72
215
73
216
0
VERTEX
8
0
6
CONTINUOUS
62
252
70
128
10
0.000000
20
0.000000
30
0.000000
71
35
72
216
73
34
0
VERTEX
8
0
6
CONTINUOUS
62
252
70
128
10
0.000000
20
0.000000
30
0.000000
71
34
72
216
73
217
0
VERTEX
8
0
6
CONTINUOUS
62
252
70
128
10
0.000000
20
0.000000
30
0.000000
71
34
72
217
73
33
0
VERTEX
8
0
6
CONTINUOUS
62
252
70
128
10
0.000000
20
0.000000
30
0.000000
71
33
72
217
73
218
0
VERTEX
8
0
6
CONTINUOUS
62
252
70
128
10
0.000000
20
0.000000
30
0.000000
71
33
72
218
73
219
0
VERTEX
8
0
6
CONTINUOUS
62
252
70
128
10
0.000000
20
0.000000
30
0.000000
71
3
72
210
73
2
0
VERTEX
8
0
6
CONTINUOUS
62
252
70
128
10
0.000000
20
0.000000
30
0.000000
71
2
72
210
73
211
0
VERTEX
8
0
6
CONTINUOUS
62
252
70
128
10
0.000000
20
0.000000
30
0.000000
71
2
72
211
73
212
0
VERTEX
8
0
6
CONTINUOUS
62
252
70
128
10
0.000000
20
0.000000
30
0.000000
71
4
72
205
73
3
0
VERTEX
8
0
6
CONTINUOUS
62
252
70
128
10
0.000000
20
0.000000
30
0.000000
71
3
72
205
73
206
0
VERTEX
8
0
6
CONTINUOUS
62
252
70
128
10
0.000000
20
0.000000
30
0.000000
71
3
72
206
73
207
0
VERTEX
8
0
6
CONTINUOUS
62
252
70
128
10
0.000000
20
0.000000
30
0.000000
71
5
72
201
73
4
0
VERTEX
8
0
6
CONTINUOUS
62
252
70
128
10
0.000000
20
0.000000
30
0.000000
71
4
72
201
73
202
0
VERTEX
8
0
6
CONTINUOUS
62
252
70
128
10
0.000000
20
0.000000
30
0.000000
71
4
72
202
73
203
0
VERTEX
8
0
6
CONTINUOUS
62
252
70
128
10
0.000000
20
0.000000
30
0.000000
71
6
72
196
73
5
0
VERTEX
8
0
6
CONTINUOUS
62
252
70
128
10
0.000000
20
0.000000
30
0.000000
71
5
72
196
73
199
0
VERTEX
8
0
6
CONTINUOUS
62
252
70
128
10
0.000000
20
0.000000
30
0.000000
71
5
72
199
73
200
0
VERTEX
8
0
6
CONTINUOUS
62
252
70
128
10
0.000000
20
0.000000
30
0.000000
71
6
72
7
73
196
0
VERTEX
8
0
6
CONTINUOUS
62
252
70
128
10
0.000000
20
0.000000
30
0.000000
71
196
72
7
73
8
0
VERTEX
8
0
6
CONTINUOUS
62
252
70
128
10
0.000000
20
0.000000
30
0.000000
71
196
72
8
73
195
0
VERTEX
8
0
6
CONTINUOUS
62
252
70
128
10
0.000000
20
0.000000
30
0.000000
71
195
72
8
73
9
0
VERTEX
8
0
6
CONTINUOUS
62
252
70
128
10
0.000000
20
0.000000
30
0.000000
71
195
72
9
73
10
0
VERTEX
8
0
6
CONTINUOUS
62
252
70
128
10
0.000000
20
0.000000
30
0.000000
71
195
72
10
73
194
0
VERTEX
8
0
6
CONTINUOUS
62
252
70
128
10
0.000000
20
0.000000
30
0.000000
71
194
72
10
73
11
0
VERTEX
8
0
6
CONTINUOUS
62
252
70
128
10
0.000000
20
0.000000
30
0.000000
71
194
72
11
73
193
0
VERTEX
8
0
6
CONTINUOUS
62
252
70
128
10
0.000000
20
0.000000
30
0.000000
71
193
72
11
73
12
0
VERTEX
8
0
6
CONTINUOUS
62
252
70
128
10
0.000000
20
0.000000
30
0.000000
71
193
72
12
73
192
0
VERTEX
8
0
6
CONTINUOUS
62
252
70
128
10
0.000000
20
0.000000
30
0.000000
71
192
72
12
73
13
0
VERTEX
8
0
6
CONTINUOUS
62
252
70
128
10
0.000000
20
0.000000
30
0.000000
71
192
72
13
73
191
0
VERTEX
8
0
6
CONTINUOUS
62
252
70
128
10
0.000000
20
0.000000
30
0.000000
71
191
72
13
73
190
0
VERTEX
8
0
6
CONTINUOUS
62
252
70
128
10
0.000000
20
0.000000
30
0.000000
71
190
72
13
73
189
0
VERTEX
8
0
6
CONTINUOUS
62
252
70
128
10
0.000000
20
0.000000
30
0.000000
71
189
72
13
73
14
0
VERTEX
8
0
6
CONTINUOUS
62
252
70
128
10
0.000000
20
0.000000
30
0.000000
71
189
72
14
73
188
0
VERTEX
8
0
6
CONTINUOUS
62
252
70
128
10
0.000000
20
0.000000
30
0.000000
71
188
72
14
73
69
0
VERTEX
8
0
6
CONTINUOUS
62
252
70
128
10
0.000000
20
0.000000
30
0.000000
71
188
72
69
73
187
0
VERTEX
8
0
6
CONTINUOUS
62
252
70
128
10
0.000000
20
0.000000
30
0.000000
71
187
72
69
73
70
0
VERTEX
8
0
6
CONTINUOUS
62
252
70
128
10
0.000000
20
0.000000
30
0.000000
71
187
72
70
73
186
0
VERTEX
8
0
6
CONTINUOUS
62
252
70
128
10
0.000000
20
0.000000
30
0.000000
71
186
72
70
73
71
0
VERTEX
8
0
6
CONTINUOUS
62
252
70
128
10
0.000000
20
0.000000
30
0.000000
71
186
72
71
73
185
0
VERTEX
8
0
6
CONTINUOUS
62
252
70
128
10
0.000000
20
0.000000
30
0.000000
71
185
72
71
73
184
0
VERTEX
8
0
6
CONTINUOUS
62
252
70
128
10
0.000000
20
0.000000
30
0.000000
71
184
72
71
73
72
0
VERTEX
8
0
6
CONTINUOUS
62
252
70
128
10
0.000000
20
0.000000
30
0.000000
71
184
72
72
73
183
0
VERTEX
8
0
6
CONTINUOUS
62
252
70
128
10
0.000000
20
0.000000
30
0.000000
71
183
72
72
73
37
0
VERTEX
8
0
6
CONTINUOUS
62
252
70
128
10
0.000000
20
0.000000
30
0.000000
71
183
72
37
73
182
0
VERTEX
8
0
6
CONTINUOUS
62
252
70
128
10
0.000000
20
0.000000
30
0.000000
71
182
72
37
73
38
0
VERTEX
8
0
6
CONTINUOUS
62
252
70
128
10
0.000000
20
0.000000
30
0.000000
71
182
72
38
73
39
0
VERTEX
8
0
6
CONTINUOUS
62
252
70
128
10
0.000000
20
0.000000
30
0.000000
71
15
72
156
73
14
0
VERTEX
8
0
6
CONTINUOUS
62
252
70
128
10
0.000000
20
0.000000
30
0.000000
71
14
72
156
73
157
0
VERTEX
8
0
6
CONTINUOUS
62
252
70
128
10
0.000000
20
0.000000
30
0.000000
71
14
72
157
73
68
0
VERTEX
8
0
6
CONTINUOUS
62
252
70
128
10
0.000000
20
0.000000
30
0.000000
71
68
72
157
73
67
0
VERTEX
8
0
6
CONTINUOUS
62
252
70
128
10
0.000000
20
0.000000
30
0.000000
71
67
72
157
73
158
0
VERTEX
8
0
6
CONTINUOUS
62
252
70
128
10
0.000000
20
0.000000
30
0.000000
71
67
72
158
73
66
0
VERTEX
8
0
6
CONTINUOUS
62
252
70
128
10
0.000000
20
0.000000
30
0.000000
71
66
72
158
73
159
0
VERTEX
8
0
6
CONTINUOUS
62
252
70
128
10
0.000000
20
0.000000
30
0.000000
71
66
72
159
73
160
0
VERTEX
8
0
6
CONTINUOUS
62
252
70
128
10
0.000000
20
0.000000
30
0.000000
71
16
72
154
73
15
0
VERTEX
8
0
6
CONTINUOUS
62
252
70
128
10
0.000000
20
0.000000
30
0.000000
71
15
72
154
73
155
0
VERTEX
8
0
6
CONTINUOUS
62
252
70
128
10
0.000000
20
0.000000
30
0.000000
71
15
72
155
73
156
0
VERTEX
8
0
6
CONTINUOUS
62
252
70
128
10
0.000000
20
0.000000
30
0.000000
71
154
72
16
73
153
0
VERTEX
8
0
6
CONTINUOUS
62
252
70
128
10
0.000000
20
0.000000
30
0.000000
71
153
72
16
73
17
0
VERTEX
8
0
6
CONTINUOUS
62
252
70
128
10
0.000000
20
0.000000
30
0.000000
71
153
72
17
73
152
0
VERTEX
8
0
6
CONTINUOUS
62
252
70
128
10
0.000000
20
0.000000
30
0.000000
71
152
72
17
73
151
0
VERTEX
8
0
6
CONTINUOUS
62
252
70
128
10
0.000000
20
0.000000
30
0.000000
71
151
72
17
73
18
0
VERTEX
8
0
6
CONTINUOUS
62
252
70
128
10
0.000000
20
0.000000
30
0.000000
71
151
72
18
73
150
0
VERTEX
8
0
6
CONTINUOUS
62
252
70
128
10
0.000000
20
0.000000
30
0.000000
71
150
72
18
73
19
0
VERTEX
8
0
6
CONTINUOUS
62
252
70
128
10
0.000000
20
0.000000
30
0.000000
71
150
72
19
73
149
0
VERTEX
8
0
6
CONTINUOUS
62
252
70
128
10
0.000000
20
0.000000
30
0.000000
71
149
72
19
73
20
0
VERTEX
8
0
6
CONTINUOUS
62
252
70
128
10
0.000000
20
0.000000
30
0.000000
71
149
72
20
73
148
0
VERTEX
8
0
6
CONTINUOUS
62
252
70
128
10
0.000000
20
0.000000
30
0.000000
71
148
72
20
73
21
0
VERTEX
8
0
6
CONTINUOUS
62
252
70
128
10
0.000000
20
0.000000
30
0.000000
71
148
72
21
73
147
0
VERTEX
8
0
6
CONTINUOUS
62
252
70
128
10
0.000000
20
0.000000
30
0.000000
71
147
72
21
73
22
0
VERTEX
8
0
6
CONTINUOUS
62
252
70
128
10
0.000000
20
0.000000
30
0.000000
71
147
72
22
73
146
0
VERTEX
8
0
6
CONTINUOUS
62
252
70
128
10
0.000000
20
0.000000
30
0.000000
71
146
72
22
73
23
0
VERTEX
8
0
6
CONTINUOUS
62
252
70
128
10
0.000000
20
0.000000
30
0.000000
71
146
72
23
73
145
0
VERTEX
8
0
6
CONTINUOUS
62
252
70
128
10
0.000000
20
0.000000
30
0.000000
71
145
72
23
73
24
0
VERTEX
8
0
6
CONTINUOUS
62
252
70
128
10
0.000000
20
0.000000
30
0.000000
71
145
72
24
73
144
0
VERTEX
8
0
6
CONTINUOUS
62
252
70
128
10
0.000000
20
0.000000
30
0.000000
71
144
72
24
73
25
0
VERTEX
8
0
6
CONTINUOUS
62
252
70
128
10
0.000000
20
0.000000
30
0.000000
71
144
72
25
73
143
0
VERTEX
8
0
6
CONTINUOUS
62
252
70
128
10
0.000000
20
0.000000
30
0.000000
71
143
72
25
73
142
0
VERTEX
8
0
6
CONTINUOUS
62
252
70
128
10
0.000000
20
0.000000
30
0.000000
71
142
72
25
73
26
0
VERTEX
8
0
6
CONTINUOUS
62
252
70
128
10
0.000000
20
0.000000
30
0.000000
71
142
72
26
73
141
0
VERTEX
8
0
6
CONTINUOUS
62
252
70
128
10
0.000000
20
0.000000
30
0.000000
71
141
72
26
73
27
0
VERTEX
8
0
6
CONTINUOUS
62
252
70
128
10
0.000000
20
0.000000
30
0.000000
71
141
72
27
73
140
0
VERTEX
8
0
6
CONTINUOUS
62
252
70
128
10
0.000000
20
0.000000
30
0.000000
71
140
72
27
73
28
0
VERTEX
8
0
6
CONTINUOUS
62
252
70
128
10
0.000000
20
0.000000
30
0.000000
71
140
72
28
73
139
0
VERTEX
8
0
6
CONTINUOUS
62
252
70
128
10
0.000000
20
0.000000
30
0.000000
71
139
72
28
73
29
0
VERTEX
8
0
6
CONTINUOUS
62
252
70
128
10
0.000000
20
0.000000
30
0.000000
71
139
72
29
73
138
0
VERTEX
8
0
6
CONTINUOUS
62
252
70
128
10
0.000000
20
0.000000
30
0.000000
71
138
72
29
73
30
0
VERTEX
8
0
6
CONTINUOUS
62
252
70
128
10
0.000000
20
0.000000
30
0.000000
71
138
72
30
73
137
0
VERTEX
8
0
6
CONTINUOUS
62
252
70
128
10
0.000000
20
0.000000
30
0.000000
71
137
72
30
73
31
0
VERTEX
8
0
6
CONTINUOUS
62
252
70
128
10
0.000000
20
0.000000
30
0.000000
71
137
72
31
73
136
0
VERTEX
8
0
6
CONTINUOUS
62
252
70
128
10
0.000000
20
0.000000
30
0.000000
71
136
72
31
73
135
0
VERTEX
8
0
6
CONTINUOUS
62
252
70
128
10
0.000000
20
0.000000
30
0.000000
71
135
72
31
73
134
0
VERTEX
8
0
6
CONTINUOUS
62
252
70
128
10
0.000000
20
0.000000
30
0.000000
71
134
72
31
73
32
0
VERTEX
8
0
6
CONTINUOUS
62
252
70
128
10
0.000000
20
0.000000
30
0.000000
71
134
72
32
73
133
0
VERTEX
8
0
6
CONTINUOUS
62
252
70
128
10
0.000000
20
0.000000
30
0.000000
71
133
72
32
73
132
0
VERTEX
8
0
6
CONTINUOUS
62
252
70
128
10
0.000000
20
0.000000
30
0.000000
71
132
72
32
73
79
0
VERTEX
8
0
6
CONTINUOUS
62
252
70
128
10
0.000000
20
0.000000
30
0.000000
71
132
72
79
73
131
0
VERTEX
8
0
6
CONTINUOUS
62
252
70
128
10
0.000000
20
0.000000
30
0.000000
71
131
72
79
73
80
0
VERTEX
8
0
6
CONTINUOUS
62
252
70
128
10
0.000000
20
0.000000
30
0.000000
71
131
72
80
73
130
0
VERTEX
8
0
6
CONTINUOUS
62
252
70
128
10
0.000000
20
0.000000
30
0.000000
71
130
72
80
73
81
0
VERTEX
8
0
6
CONTINUOUS
62
252
70
128
10
0.000000
20
0.000000
30
0.000000
71
130
72
81
73
129
0
VERTEX
8
0
6
CONTINUOUS
62
252
70
128
10
0.000000
20
0.000000
30
0.000000
71
129
72
81
73
128
0
VERTEX
8
0
6
CONTINUOUS
62
252
70
128
10
0.000000
20
0.000000
30
0.000000
71
128
72
81
73
82
0
VERTEX
8
0
6
CONTINUOUS
62
252
70
128
10
0.000000
20
0.000000
30
0.000000
71
128
72
82
73
83
0
VERTEX
8
0
6
CONTINUOUS
62
252
70
128
10
0.000000
20
0.000000
30
0.000000
71
33
72
76
73
32
0
VERTEX
8
0
6
CONTINUOUS
62
252
70
128
10
0.000000
20
0.000000
30
0.000000
71
32
72
76
73
77
0
VERTEX
8
0
6
CONTINUOUS
62
252
70
128
10
0.000000
20
0.000000
30
0.000000
71
32
72
77
73
78
0
VERTEX
8
0
6
CONTINUOUS
62
252
70
128
10
0.000000
20
0.000000
30
0.000000
71
182
72
39
73
181
0
VERTEX
8
0
6
CONTINUOUS
62
252
70
128
10
0.000000
20
0.000000
30
0.000000
71
181
72
39
73
40
0
VERTEX
8
0
6
CONTINUOUS
62
252
70
128
10
0.000000
20
0.000000
30
0.000000
71
181
72
40
73
41
0
VERTEX
8
0
6
CONTINUOUS
62
252
70
128
10
0.000000
20
0.000000
30
0.000000
71
41
72
42
73
181
0
VERTEX
8
0
6
CONTINUOUS
62
252
70
128
10
0.000000
20
0.000000
30
0.000000
71
181
72
42
73
180
0
VERTEX
8
0
6
CONTINUOUS
62
252
70
128
10
0.000000
20
0.000000
30
0.000000
71
180
72
42
73
43
0
VERTEX
8
0
6
CONTINUOUS
62
252
70
128
10
0.000000
20
0.000000
30
0.000000
71
180
72
43
73
179
0
VERTEX
8
0
6
CONTINUOUS
62
252
70
128
10
0.000000
20
0.000000
30
0.000000
71
179
72
43
73
44
0
VERTEX
8
0
6
CONTINUOUS
62
252
70
128
10
0.000000
20
0.000000
30
0.000000
71
179
72
44
73
178
0
VERTEX
8
0
6
CONTINUOUS
62
252
70
128
10
0.000000
20
0.000000
30
0.000000
71
178
72
44
73
45
0
VERTEX
8
0
6
CONTINUOUS
62
252
70
128
10
0.000000
20
0.000000
30
0.000000
71
178
72
45
73
177
0
VERTEX
8
0
6
CONTINUOUS
62
252
70
128
10
0.000000
20
0.000000
30
0.000000
71
177
72
45
73
46
0
VERTEX
8
0
6
CONTINUOUS
62
252
70
128
10
0.000000
20
0.000000
30
0.000000
71
177
72
46
73
176
0
VERTEX
8
0
6
CONTINUOUS
62
252
70
128
10
0.000000
20
0.000000
30
0.000000
71
176
72
46
73
47
0
VERTEX
8
0
6
CONTINUOUS
62
252
70
128
10
0.000000
20
0.000000
30
0.000000
71
176
72
47
73
175
0
VERTEX
8
0
6
CONTINUOUS
62
252
70
128
10
0.000000
20
0.000000
30
0.000000
71
175
72
47
73
48
0
VERTEX
8
0
6
CONTINUOUS
62
252
70
128
10
0.000000
20
0.000000
30
0.000000
71
175
72
48
73
174
0
VERTEX
8
0
6
CONTINUOUS
62
252
70
128
10
0.000000
20
0.000000
30
0.000000
71
174
72
48
73
49
0
VERTEX
8
0
6
CONTINUOUS
62
252
70
128
10
0.000000
20
0.000000
30
0.000000
71
174
72
49
73
173
0
VERTEX
8
0
6
CONTINUOUS
62
252
70
128
10
0.000000
20
0.000000
30
0.000000
71
173
72
49
73
50
0
VERTEX
8
0
6
CONTINUOUS
62
252
70
128
10
0.000000
20
0.000000
30
0.000000
71
173
72
50
73
172
0
VERTEX
8
0
6
CONTINUOUS
62
252
70
128
10
0.000000
20
0.000000
30
0.000000
71
172
72
50
73
51
0
VERTEX
8
0
6
CONTINUOUS
62
252
70
128
10
0.000000
20
0.000000
30
0.000000
71
172
72
51
73
171
0
VERTEX
8
0
6
CONTINUOUS
62
252
70
128
10
0.000000
20
0.000000
30
0.000000
71
171
72
51
73
52
0
VERTEX
8
0
6
CONTINUOUS
62
252
70
128
10
0.000000
20
0.000000
30
0.000000
71
171
72
52
73
170
0
VERTEX
8
0
6
CONTINUOUS
62
252
70
128
10
0.000000
20
0.000000
30
0.000000
71
170
72
52
73
53
0
VERTEX
8
0
6
CONTINUOUS
62
252
70
128
10
0.000000
20
0.000000
30
0.000000
71
170
72
53
73
169
0
VERTEX
8
0
6
CONTINUOUS
62
252
70
128
10
0.000000
20
0.000000
30
0.000000
71
169
72
53
73
54
0
VERTEX
8
0
6
CONTINUOUS
62
252
70
128
10
0.000000
20
0.000000
30
0.000000
71
169
72
54
73
168
0
VERTEX
8
0
6
CONTINUOUS
62
252
70
128
10
0.000000
20
0.000000
30
0.000000
71
168
72
54
73
55
0
VERTEX
8
0
6
CONTINUOUS
62
252
70
128
10
0.000000
20
0.000000
30
0.000000
71
168
72
55
73
167
0
VERTEX
8
0
6
CONTINUOUS
62
252
70
128
10
0.000000
20
0.000000
30
0.000000
71
167
72
55
73
56
0
VERTEX
8
0
6
CONTINUOUS
62
252
70
128
10
0.000000
20
0.000000
30
0.000000
71
167
72
56
73
166
0
VERTEX
8
0
6
CONTINUOUS
62
252
70
128
10
0.000000
20
0.000000
30
0.000000
71
166
72
56
73
57
0
VERTEX
8
0
6
CONTINUOUS
62
252
70
128
10
0.000000
20
0.000000
30
0.000000
71
166
72
57
73
165
0
VERTEX
8
0
6
CONTINUOUS
62
252
70
128
10
0.000000
20
0.000000
30
0.000000
71
165
72
57
73
58
0
VERTEX
8
0
6
CONTINUOUS
62
252
70
128
10
0.000000
20
0.000000
30
0.000000
71
165
72
58
73
164
0
VERTEX
8
0
6
CONTINUOUS
62
252
70
128
10
0.000000
20
0.000000
30
0.000000
71
164
72
58
73
59
0
VERTEX
8
0
6
CONTINUOUS
62
252
70
128
10
0.000000
20
0.000000
30
0.000000
71
164
72
59
73
163
0
VERTEX
8
0
6
CONTINUOUS
62
252
70
128
10
0.000000
20
0.000000
30
0.000000
71
163
72
59
73
60
0
VERTEX
8
0
6
CONTINUOUS
62
252
70
128
10
0.000000
20
0.000000
30
0.000000
71
163
72
60
73
61
0
VERTEX
8
0
6
CONTINUOUS
62
252
70
128
10
0.000000
20
0.000000
30
0.000000
71
163
72
61
73
162
0
VERTEX
8
0
6
CONTINUOUS
62
252
70
128
10
0.000000
20
0.000000
30
0.000000
71
162
72
61
73
62
0
VERTEX
8
0
6
CONTINUOUS
62
252
70
128
10
0.000000
20
0.000000
30
0.000000
71
162
72
62
73
63
0
VERTEX
8
0
6
CONTINUOUS
62
252
70
128
10
0.000000
20
0.000000
30
0.000000
71
63
72
64
73
162
0
VERTEX
8
0
6
CONTINUOUS
62
252
70
128
10
0.000000
20
0.000000
30
0.000000
71
162
72
64
73
161
0
VERTEX
8
0
6
CONTINUOUS
62
252
70
128
10
0.000000
20
0.000000
30
0.000000
71
161
72
64
73
65
0
VERTEX
8
0
6
CONTINUOUS
62
252
70
128
10
0.000000
20
0.000000
30
0.000000
71
161
72
65
73
160
0
VERTEX
8
0
6
CONTINUOUS
62
252
70
128
10
0.000000
20
0.000000
30
0.000000
71
160
72
65
73
66
0
VERTEX
8
0
6
CONTINUOUS
62
252
70
128
10
0.000000
20
0.000000
30
0.000000
71
68
72
69
73
14
0
VERTEX
8
0
6
CONTINUOUS
62
252
70
128
10
0.000000
20
0.000000
30
0.000000
71
108
72
73
73
224
0
VERTEX
8
0
6
CONTINUOUS
62
252
70
128
10
0.000000
20
0.000000
30
0.000000
71
224
72
73
73
74
0
VERTEX
8
0
6
CONTINUOUS
62
252
70
128
10
0.000000
20
0.000000
30
0.000000
71
224
72
74
73
223
0
VERTEX
8
0
6
CONTINUOUS
62
252
70
128
10
0.000000
20
0.000000
30
0.000000
71
223
72
74
73
75
0
VERTEX
8
0
6
CONTINUOUS
62
252
70
128
10
0.000000
20
0.000000
30
0.000000
71
223
72
75
73
222
0
VERTEX
8
0
6
CONTINUOUS
62
252
70
128
10
0.000000
20
0.000000
30
0.000000
71
222
72
75
73
221
0
VERTEX
8
0
6
CONTINUOUS
62
252
70
128
10
0.000000
20
0.000000
30
0.000000
71
221
72
75
73
76
0
VERTEX
8
0
6
CONTINUOUS
62
252
70
128
10
0.000000
20
0.000000
30
0.000000
71
221
72
76
73
220
0
VERTEX
8
0
6
CONTINUOUS
62
252
70
128
10
0.000000
20
0.000000
30
0.000000
71
220
72
76
73
33
0
VERTEX
8
0
6
CONTINUOUS
62
252
70
128
10
0.000000
20
0.000000
30
0.000000
71
220
72
33
73
219
0
VERTEX
8
0
6
CONTINUOUS
62
252
70
128
10
0.000000
20
0.000000
30
0.000000
71
78
72
79
73
32
0
VERTEX
8
0
6
CONTINUOUS
62
252
70
128
10
0.000000
20
0.000000
30
0.000000
71
83
72
84
73
128
0
VERTEX
8
0
6
CONTINUOUS
62
252
70
128
10
0.000000
20
0.000000
30
0.000000
71
128
72
84
73
127
0
VERTEX
8
0
6
CONTINUOUS
62
252
70
128
10
0.000000
20
0.000000
30
0.000000
71
127
72
84
73
85
0
VERTEX
8
0
6
CONTINUOUS
62
252
70
128
10
0.000000
20
0.000000
30
0.000000
71
127
72
85
73
86
0
VERTEX
8
0
6
CONTINUOUS
62
252
70
128
10
0.000000
20
0.000000
30
0.000000
71
86
72
87
73
127
0
VERTEX
8
0
6
CONTINUOUS
62
252
70
128
10
0.000000
20
0.000000
30
0.000000
71
127
72
87
73
126
0
VERTEX
8
0
6
CONTINUOUS
62
252
70
128
10
0.000000
20
0.000000
30
0.000000
71
126
72
87
73
88
0
VERTEX
8
0
6
CONTINUOUS
62
252
70
128
10
0.000000
20
0.000000
30
0.000000
71
126
72
88
73
125
0
VERTEX
8
0
6
CONTINUOUS
62
252
70
128
10
0.000000
20
0.000000
30
0.000000
71
125
72
88
73
89
0
VERTEX
8
0
6
CONTINUOUS
62
252
70
128
10
0.000000
20
0.000000
30
0.000000
71
125
72
89
73
124
0
VERTEX
8
0
6
CONTINUOUS
62
252
70
128
10
0.000000
20
0.000000
30
0.000000
71
124
72
89
73
90
0
VERTEX
8
0
6
CONTINUOUS
62
252
70
128
10
0.000000
20
0.000000
30
0.000000
71
124
72
90
73
123
0
VERTEX
8
0
6
CONTINUOUS
62
252
70
128
10
0.000000
20
0.000000
30
0.000000
71
123
72
90
73
91
0
VERTEX
8
0
6
CONTINUOUS
62
252
70
128
10
0.000000
20
0.000000
30
0.000000
71
123
72
91
73
122
0
VERTEX
8
0
6
CONTINUOUS
62
252
70
128
10
0.000000
20
0.000000
30
0.000000
71
122
72
91
73
92
0
VERTEX
8
0
6
CONTINUOUS
62
252
70
128
10
0.000000
20
0.000000
30
0.000000
71
122
72
92
73
121
0
VERTEX
8
0
6
CONTINUOUS
62
252
70
128
10
0.000000
20
0.000000
30
0.000000
71
121
72
92
73
93
0
VERTEX
8
0
6
CONTINUOUS
62
252
70
128
10
0.000000
20
0.000000
30
0.000000
71
121
72
93
73
120
0
VERTEX
8
0
6
CONTINUOUS
62
252
70
128
10
0.000000
20
0.000000
30
0.000000
71
120
72
93
73
94
0
VERTEX
8
0
6
CONTINUOUS
62
252
70
128
10
0.000000
20
0.000000
30
0.000000
71
120
72
94
73
119
0
VERTEX
8
0
6
CONTINUOUS
62
252
70
128
10
0.000000
20
0.000000
30
0.000000
71
119
72
94
73
95
0
VERTEX
8
0
6
CONTINUOUS
62
252
70
128
10
0.000000
20
0.000000
30
0.000000
71
119
72
95
73
118
0
VERTEX
8
0
6
CONTINUOUS
62
252
70
128
10
0.000000
20
0.000000
30
0.000000
71
118
72
95
73
96
0
VERTEX
8
0
6
CONTINUOUS
62
252
70
128
10
0.000000
20
0.000000
30
0.000000
71
118
72
96
73
117
0
VERTEX
8
0
6
CONTINUOUS
62
252
70
128
10
0.000000
20
0.000000
30
0.000000
71
117
72
96
73
97
0
VERTEX
8
0
6
CONTINUOUS
62
252
70
128
10
0.000000
20
0.000000
30
0.000000
71
117
72
97
73
116
0
VERTEX
8
0
6
CONTINUOUS
62
252
70
128
10
0.000000
20
0.000000
30
0.000000
71
116
72
97
73
98
0
VERTEX
8
0
6
CONTINUOUS
62
252
70
128
10
0.000000
20
0.000000
30
0.000000
71
116
72
98
73
115
0
VERTEX
8
0
6
CONTINUOUS
62
252
70
128
10
0.000000
20
0.000000
30
0.000000
71
115
72
98
73
99
0
VERTEX
8
0
6
CONTINUOUS
62
252
70
128
10
0.000000
20
0.000000
30
0.000000
71
115
72
99
73
114
0
VERTEX
8
0
6
CONTINUOUS
62
252
70
128
10
0.000000
20
0.000000
30
0.000000
71
114
72
99
73
100
0
VERTEX
8
0
6
CONTINUOUS
62
252
70
128
10
0.000000
20
0.000000
30
0.000000
71
114
72
100
73
113
0
VERTEX
8
0
6
CONTINUOUS
62
252
70
128
10
0.000000
20
0.000000
30
0.000000
71
113
72
100
73
101
0
VERTEX
8
0
6
CONTINUOUS
62
252
70
128
10
0.000000
20
0.000000
30
0.000000
71
113
72
101
73
112
0
VERTEX
8
0
6
CONTINUOUS
62
252
70
128
10
0.000000
20
0.000000
30
0.000000
71
112
72
101
73
102
0
VERTEX
8
0
6
CONTINUOUS
62
252
70
128
10
0.000000
20
0.000000
30
0.000000
71
112
72
102
73
111
0
VERTEX
8
0
6
CONTINUOUS
62
252
70
128
10
0.000000
20
0.000000
30
0.000000
71
111
72
102
73
103
0
VERTEX
8
0
6
CONTINUOUS
62
252
70
128
10
0.000000
20
0.000000
30
0.000000
71
111
72
103
73
110
0
VERTEX
8
0
6
CONTINUOUS
62
252
70
128
10
0.000000
20
0.000000
30
0.000000
71
110
72
103
73
104
0
VERTEX
8
0
6
CONTINUOUS
62
252
70
128
10
0.000000
20
0.000000
30
0.000000
71
110
72
104
73
109
0
VERTEX
8
0
6
CONTINUOUS
62
252
70
128
10
0.000000
20
0.000000
30
0.000000
71
109
72
104
73
105
0
VERTEX
8
0
6
CONTINUOUS
62
252
70
128
10
0.000000
20
0.000000
30
0.000000
71
109
72
105
73
106
0
VERTEX
8
0
6
CONTINUOUS
62
252
70
128
10
0.000000
20
0.000000
30
0.000000
71
109
72
106
73
224
0
VERTEX
8
0
6
CONTINUOUS
62
252
70
128
10
0.000000
20
0.000000
30
0.000000
71
224
72
106
73
107
0
VERTEX
8
0
6
CONTINUOUS
62
252
70
128
10
0.000000
20
0.000000
30
0.000000
71
224
72
107
73
108
0
VERTEX
8
0
6
CONTINUOUS
62
252
70
128
10
0.000000
20
0.000000
30
0.000000
71
197
72
198
73
196
0
VERTEX
8
0
6
CONTINUOUS
62
252
70
128
10
0.000000
20
0.000000
30
0.000000
71
196
72
198
73
199
0
VERTEX
8
0
6
CONTINUOUS
62
252
70
128
10
0.000000
20
0.000000
30
0.000000
71
200
72
201
73
5
0
VERTEX
8
0
6
CONTINUOUS
62
252
70
128
10
0.000000
20
0.000000
30
0.000000
71
203
72
204
73
4
0
VERTEX
8
0
6
CONTINUOUS
62
252
70
128
10
0.000000
20
0.000000
30
0.000000
71
4
72
204
73
205
0
VERTEX
8
0
6
CONTINUOUS
62
252
70
128
10
0.000000
20
0.000000
30
0.000000
71
207
72
208
73
3
0
VERTEX
8
0
6
CONTINUOUS
62
252
70
128
10
0.000000
20
0.000000
30
0.000000
71
3
72
208
73
209
0
VERTEX
8
0
6
CONTINUOUS
62
252
70
128
10
0.000000
20
0.000000
30
0.000000
71
3
72
209
73
210
0
VERTEX
8
0
6
CONTINUOUS
62
252
70
128
10
0.000000
20
0.000000
30
0.000000
71
212
72
213
73
2
0
SEQEND
0
ENDSEC
0
EOF
