  0
SECTION
  2
HEADER
  9
$ACADVER
  1
AC1009
  9
$INSBASE
 10
0
 20
0
  9
$EXTMIN
 10
-80.08026870522249
 20
2.479840033216659
  9
$EXTMAX
 10
163.290867339078
 20
181.7582148896913
  9
$LIMMIN
 10
-80.08026870522249
 20
2.479840033216659
  9
$LIMMAX
 10
163.290867339078
 20
181.7582148896913
  9
$VIEWCTR
 10
10
 20
10
  9
$VIEWSIZE
 40
10
  9
$SNAPMODE
 70
0
  9
$SNAPUNIT
 10
1
 20
1
  9
$SNAPBASE
 10
0
 20
0
  9
$SNAPANG
 50
0
  9
$SNAPSTYLE
 70
0
  9
$SNAPISOPAIR
 70
0
  9
$GRIDMODE
 70
0
  9
$GRIDUNIT
 10
0
 20
0
  9
$ORTHOMODE
 70
0
  9
$REGENMODE
 70
1
  9
$FILLMODE
 70
1
  9
$QTEXTMODE
 70
0
  9
$DRAGMODE
 70
2
  9
$LTSCALE
 40
1
  9
$OSMODE
 70
0
  9
$ATTMODE
 70
1
  9
$TEXTSIZE
 40
3.5
  9
$TRACEWID
 40
0.5
  9
$TEXTSTYLE
  7
STANDARD
  9
$CLAYER
  8
0
  9
$CELTYPE
  6
BYLAYER
  9
$CECOLOR
 62
256
  9
$DIMSCALE
 40
1
  9
$DIMASZ
 40
0.18
  9
$DIMEXO
 40
0.0625
  9
$DIMDLI
 40
0.38
  9
$DIMRND
 40
0
  9
$DIMDLE
 40
0
  9
$DIMEXE
 40
0.18
  9
$DIMTP
 40
0
  9
$DIMTM
 40
0
  9
$DIMTXT
 40
0.18
  9
$DIMCEN
 40
0.09
  9
$DIMTSZ
 40
0
  9
$DIMTOL
 70
0
  9
$DIMLIM
 70
0
  9
$DIMTIH
 70
1
  9
$DIMTOH
 70
1
  9
$DIMSE1
 70
0
  9
$DIMSE2
 70
0
  9
$DIMTAD
 70
0
  9
$DIMZIN
 70
0
  9
$DIMBLK
  1

  9
$DIMASO
 70
1
  9
$DIMSHO
 70
1
  9
$DIMPOST
  1

  9
$DIMAPOST
  1

  9
$DIMALT
 70
0
  9
$DIMALTD
 70
2
  9
$DIMALTF
 40
25.4
  9
$DIMLFAC
 40
1
  9
$DIMTOFL
 70
0
  9
$DIMTVP
 40
0
  9
$DIMTIX
 70
0
  9
$DIMSOXD
 70
0
  9
$DIMSAH
 70
0
  9
$DIMBLK1
  1

  9
$DIMBLK2
  1

  9
$DIMSTYLE
  2
*UNNAMED
  9
$DIMCLRD
 70
0
  9
$DIMCLRE
 70
0
  9
$DIMCLRT
 70
0
  9
$DIMTFAC
 40
1
  9
$DIMGAP
 40
0.09
  9
$LUNITS
 70
2
  9
$LUPREC
 70
4
  9
$AXISMODE
 70
0
  9
$AXISUNIT
 10
0
 20
0
  9
$SKETCHINC
 40
0.1
  9
$FILLETRAD
 40
2
  9
$AUNITS
 70
0
  9
$AUPREC
 70
0
  9
$MENU
  1
ACAD
  9
$ELEVATION
 40
0
  9
$THICKNESS
 40
0
  9
$VIEWDIR
 10
0
 20
0
 30
1
  9
$LIMCHECK
 70
0
  9
$BLIPMODE
 70
1
  9
$CHAMFERA
 40
0
  9
$CHAMFERB
 40
0
  9
$FASTZOOM
 70
1
  9
$SKPOLY
 70
0
  9
$ANGBASE
 50
0
  9
$ANGDIR
 70
0
  9
$PDMODE
 70
0
  9
$PDSIZE
 40
0
  9
$PLINEWID
 40
0
  9
$COORDS
 70
2
  0
ENDSEC
  0
SECTION
  2
TABLES
  0
TABLE
  2
DIMSTYLE
 70
0
  0
ENDTAB
  0
TABLE
  2
LTYPE
 70
9
  0
LTYPE
  2
CONTINUOUS
 70
64
  3
Solid line
 72
65
 73
0
 40
0
  0
LTYPE
  2
BORDER
 70
64
  3
__ __ . __ __ .
 72
65
 73
6
 40
11.20788126519805
 49
3.202251790056585
 49
-1.601125895028293
 49
3.202251790056585
 49
-1.601125895028293
 49
0
 49
-1.601125895028293
  0
LTYPE
  2
CENTER
 70
64
  3
____ _ ____ _
 72
65
 73
4
 40
12.80900716022634
 49
8.005629475141463
 49
-1.601125895028293
 49
1.601125895028293
 49
-1.601125895028293
  0
LTYPE
  2
DASHDOT
 70
64
  3
__ . __ . __ .
 72
65
 73
4
 40
6.404503580113171
 49
3.202251790056585
 49
-1.601125895028293
 49
0
 49
-1.601125895028293
  0
LTYPE
  2
DASHED
 70
64
  3
__ __ __ __ __
 72
65
 73
2
 40
4.803377685084878
 49
3.202251790056585
 49
-1.601125895028293
  0
LTYPE
  2
DIVIDE
 70
64
  3
__ . . __ . . 
 72
65
 73
6
 40
8.005629475141463
 49
3.202251790056585
 49
-1.601125895028293
 49
0
 49
-1.601125895028293
 49
0
 49
-1.601125895028293
  0
LTYPE
  2
DOT
 70
64
  3
..............
 72
65
 73
4
 40
3.202251790056585
 49
0
 49
-1.601125895028293
 49
0
 49
-1.601125895028293
  0
LTYPE
  2
HIDDEN
 70
64
  3
_ _ _ _ _ _ _
 72
65
 73
2
 40
2.401688842542439
 49
1.601125895028293
 49
-0.8005629475141464
  0
LTYPE
  2
PHANTOM
 70
64
  3
_____ _ _ _____ _ _ 
 72
65
 73
6
 40
16.01125895028293
 49
8.005629475141463
 49
-1.601125895028293
 49
1.601125895028293
 49
-1.601125895028293
 49
1.601125895028293
 49
-1.601125895028293
  0
ENDTAB
  0
TABLE
  2
LAYER
 70
3
  0
LAYER
  2
1
 70
0
 62
7
  6
CONTINUOUS
  0
LAYER
  2
0
 70
0
 62
7
  6
CONTINUOUS
  0
ENDTAB
  0
TABLE
  2
STYLE
 70
4
  0
STYLE
  2
STANDARD
 70
0
 40
0
 41
1
 50
0
 71
0
 42
3.5
  3
txt
  4

  0
STYLE
  2
SIMPLEX
 70
0
 40
0
 41
1
 50
0
 71
0
 42
3.5
  3
simplex
  4

  0
STYLE
  2
COMPLEX
 70
0
 40
0
 41
1
 50
0
 71
0
 42
3.5
  3
complex
  4

  0
STYLE
  2
ITALIC
 70
0
 40
0
 41
1
 50
0
 71
0
 42
3.5
  3
italic
  4

  0
ENDTAB
  0
TABLE
  2
VIEW
 70
0
  0
ENDTAB
  0
ENDSEC
  0
SECTION
  2
BLOCKS
  0
ENDSEC
  0
SECTION
  2
ENTITIES
  0
LINE
  8
1
 62
2
  6
CENTER
 10
-25.3318042813446
 20
108.0703363914373
 30
0
 11
77.20788183063419
 21
108.0703363914373
 31
0
  0
LINE
  8
1
 62
2
  6
CENTER
 10
-59.8318042813463
 20
108.0703363914373
 30
0
 11
-53.8318042813398
 21
108.0703363914373
 31
0
  0
LINE
  8
1
 62
2
  6
CENTER
 10
-40.3318042813288
 20
108.0703363914373
 30
0
 11
-32.831804281345
 21
108.0703363914373
 31
0
  0
LINE
  8
1
 62
2
  6
CENTER
 10
-32.831804281345
 20
108.0703363914373
 30
0
 11
-25.3318042813446
 21
108.0703363914373
 31
0
  0
LINE
  8
1
 62
7
 10
-6.831804281345001
 20
176.0703363914373
 30
0
 11
-6.831804281345001
 21
170.94322402991
 31
0
  0
LINE
  8
1
 62
7
 10
1.168195718654999
 20
176.0703363914373
 30
0
 11
1.168195718654999
 21
170.9432240299099
 31
0
  0
LINE
  8
1
 62
2
  6
CENTER
 10
108.896371926234
 20
108.0703363914373
 30
0
 11
163.290867339078
 21
108.0703363914373
 31
0
  0
LINE
  8
1
 62
7
 10
157.9234528556228
 20
41.83163923133275
 30
0
 11
156.2961920104775
 21
42.73054622568076
 31
0
  0
LINE
  8
1
 62
7
 10
155.2573035182437
 20
42.68683456667562
 30
0
 11
150.2200122840528
 21
39.32291564297174
 31
0
  0
LINE
  8
1
 62
7
 10
158.8057261275599
 20
43.61358075667345
 30
0
 11
156.472455269219
 21
44.92001804766736
 31
0
  0
LINE
  8
1
 62
7
 10
154.9030988630268
 20
44.85628694156212
 30
0
 11
149.5211451515367
 21
41.2402867916547
 31
0
  0
LINE
  8
1
 62
7
 10
149.3869807862704
 20
39.0703363914373
 30
0
 11
149.268195718655
 21
39.0703363914373
 31
0
  0
LINE
  8
1
 62
7
 10
156.2961920104775
 20
173.4101265571938
 30
0
 11
157.9234528556228
 21
174.3090335515419
 31
0
  0
LINE
  8
1
 62
7
 10
150.2200122840528
 20
176.8177571399029
 30
0
 11
155.2573035182437
 21
173.453838216199
 31
0
  0
LINE
  8
1
 62
7
 10
156.472455269219
 20
171.2206547352073
 30
0
 11
158.8057261275599
 21
172.5270920262012
 31
0
  0
LINE
  8
1
 62
7
 10
149.5211451515367
 20
174.9003859912199
 30
0
 11
154.9030988630268
 21
171.2843858413125
 31
0
  0
LINE
  8
1
 62
7
 10
149.268195718655
 20
177.0703363914373
 30
0
 11
149.3869807862704
 21
177.0703363914373
 31
0
  0
LINE
  8
1
 62
7
 10
119.768195718655
 20
41.0703363914373
 30
0
 11
148.9634555766828
 21
41.0703363914373
 31
0
  0
LINE
  8
1
 62
7
 10
-0.8318042813450006
 20
112.5703363914373
 30
0
 11
1.168195718654999
 21
112.5703363914373
 31
0
  0
LINE
  8
1
 62
7
 10
-6.831804281345001
 20
112.5703363914373
 30
0
 11
-4.831804281345001
 21
112.5703363914373
 31
0
  0
LINE
  8
1
 62
7
 10
-4.831804281345001
 20
176.0703363914373
 30
0
 11
-4.831804281345001
 21
174.3703363914373
 31
0
  0
LINE
  8
1
 62
7
 10
115.768195718655
 20
103.5703363914373
 30
0
 11
115.768195718655
 21
104.8703363914373
 31
0
  0
LINE
  8
1
 62
7
 10
115.768195718655
 20
105.2703363914373
 30
0
 11
115.768195718655
 21
110.8703363914373
 31
0
  0
LINE
  8
1
 62
7
 10
115.768195718655
 20
111.2703363914373
 30
0
 11
115.768195718655
 21
112.5703363914373
 31
0
  0
LINE
  8
1
 62
7
 10
116.568195718655
 20
106.0703363914373
 30
0
 11
149.7613495204891
 21
106.0703363914373
 31
0
  0
LINE
  8
1
 62
7
 10
115.768195718655
 20
110.8703363914373
 30
0
 11
115.768195718655
 21
111.2703363914373
 31
0
  0
LINE
  8
1
 62
7
 10
155.268195718655
 20
110.0703363914373
 30
0
 11
149.7613495204891
 21
110.0703363914373
 31
0
  0
LINE
  8
1
 62
7
 10
115.768195718655
 20
104.8703363914373
 30
0
 11
115.768195718655
 21
105.2703363914373
 31
0
  0
LINE
  8
1
 62
7
 10
155.268195718655
 20
104.0703363914373
 30
0
 11
149.7613495204891
 21
104.0703363914373
 31
0
  0
LINE
  8
1
 62
7
 10
116.568195718655
 20
112.0703363914373
 30
0
 11
149.7613495204891
 21
112.0703363914373
 31
0
  0
LINE
  8
1
 62
7
 10
115.768195718655
 20
112.5703363914373
 30
0
 11
115.768195718655
 21
170.2703363914373
 31
0
  0
LINE
  8
1
 62
7
 10
117.768195718655
 20
112.5703363914373
 30
0
 11
115.768195718655
 21
112.5703363914373
 31
0
  0
LINE
  8
1
 62
7
 10
117.768195718655
 20
103.5703363914373
 30
0
 11
117.768195718655
 21
43.0703363914373
 31
0
  0
LINE
  8
1
 62
7
 10
117.768195718655
 20
103.5703363914373
 30
0
 11
115.768195718655
 21
103.5703363914373
 31
0
  0
LINE
  8
1
 62
7
 10
115.768195718655
 20
170.2703363914373
 30
0
 11
115.768195718655
 21
173.0703363914373
 31
0
  0
LINE
  8
1
 62
7
 10
115.768195718655
 20
43.0703363914373
 30
0
 11
115.768195718655
 21
45.87033639143731
 31
0
  0
LINE
  8
1
 62
7
 10
117.768195718655
 20
173.0703363914373
 30
0
 11
117.768195718655
 21
112.5703363914373
 31
0
  0
LINE
  8
1
 62
7
 10
119.768195718655
 20
39.0703363914373
 30
0
 11
149.268195718655
 21
39.0703363914373
 31
0
  0
LINE
  8
1
 62
7
 10
115.768195718655
 20
45.87033639143731
 30
0
 11
115.768195718655
 21
103.5703363914373
 31
0
  0
LINE
  8
1
 62
7
 10
149.268195718655
 20
177.0703363914373
 30
0
 11
119.768195718655
 21
177.0703363914373
 31
0
  0
LINE
  8
1
 62
7
 10
114.168195718655
 20
170.2703363914373
 30
0
 11
114.168195718655
 21
45.87033639143731
 31
0
  0
LINE
  8
1
 62
7
 10
148.9634555766828
 20
175.0703363914373
 30
0
 11
119.768195718655
 21
175.0703363914373
 31
0
  0
LINE
  8
1
 62
7
 10
-17.32964894874298
 20
107.8203363914373
 30
0
 11
-15.72938157322427
 21
107.8203363914373
 31
0
  0
LINE
  8
1
 62
7
 10
-17.32964894874298
 20
108.3203363914373
 30
0
 11
-15.72938157322427
 21
108.3203363914373
 31
0
  0
LINE
  8
1
 62
7
 10
-2.581804281345001
 20
87.17183166023705
 30
0
 11
-2.581804281345001
 21
85.57172532319578
 31
0
  0
LINE
  8
1
 62
7
 10
-3.081804281345001
 20
87.17183166023705
 30
0
 11
-3.081804281345001
 21
85.57172532319578
 31
0
  0
LINE
  8
1
 62
7
 10
25.56709534522504
 20
107.8203363914373
 30
0
 11
27.163910931693
 21
107.8203363914373
 31
0
  0
LINE
  8
1
 62
7
 10
25.56709534522504
 20
108.3203363914373
 30
0
 11
27.16571351243651
 21
108.3203363914373
 31
0
  0
LINE
  8
1
 62
7
 10
-2.581804281345001
 20
143.9694659073462
 30
0
 11
-2.581804281345001
 21
145.5695030488445
 31
0
  0
LINE
  8
1
 62
7
 10
-3.081804281345001
 20
145.5695030488445
 30
0
 11
-3.081804281345001
 21
143.9694659073462
 31
0
  0
LINE
  8
1
 62
7
 10
-46.23108422928884
 20
107.8203363914373
 30
0
 11
-47.83110983154211
 21
107.8203363914373
 31
0
  0
LINE
  8
1
 62
7
 10
-47.83110983154211
 20
108.3203363914373
 30
0
 11
-46.23108422928884
 21
108.3203363914373
 31
0
  0
LINE
  8
1
 62
7
 10
-2.581804281345001
 20
58.67096898658079
 30
0
 11
-2.581804281345001
 21
57.07094914021633
 31
0
  0
LINE
  8
1
 62
7
 10
-3.081804281345001
 20
58.67096898658079
 30
0
 11
-3.081804281345001
 21
57.07094914021633
 31
0
  0
LINE
  8
1
 62
7
 10
54.16764747040432
 20
107.8203363914373
 30
0
 11
52.56763163636086
 21
107.8203363914373
 31
0
  0
LINE
  8
1
 62
7
 10
52.56763163636086
 20
108.3203363914373
 30
0
 11
54.16764747040432
 21
108.3203363914373
 31
0
  0
LINE
  8
1
 62
7
 10
-2.581804281345001
 20
171.0698403577385
 30
0
 11
-2.581804281345001
 21
169.4698274316731
 31
0
  0
LINE
  8
1
 62
7
 10
-3.081804281345001
 20
171.0698403577385
 30
0
 11
-3.081804281345001
 21
169.4698274316731
 31
0
  0
LINE
  8
1
 62
2
  6
CENTER
 10
-80.08026870522249
 20
108.0703363914373
 30
0
 11
-59.8318042813463
 21
108.0703363914373
 31
0
  0
LINE
  8
1
 62
2
  6
CENTER
 10
-2.831804281345001
 20
181.7582148896913
 30
0
 11
-2.831804281345001
 21
34.6516633840571
 31
0
  0
LINE
  8
1
 62
7
 10
-0.8318042813450006
 20
174.3703363914373
 30
0
 11
-0.8318042813450006
 21
176.0703363914373
 31
0
  0
LINE
  8
1
 62
7
 10
-4.831804281345001
 20
174.3703363914373
 30
0
 11
-4.831804281345001
 21
173.8344380065751
 31
0
  0
LINE
  8
1
 62
7
 10
-0.8318042813450006
 20
172.3703363914373
 30
0
 11
-0.8318042813450006
 21
173.8344380065751
 31
0
  0
LINE
  8
1
 62
7
 10
-4.831804281345001
 20
172.3703363914373
 30
0
 11
-4.831804281345001
 21
171.038582357162
 31
0
  0
LINE
  8
1
 62
7
 10
-4.831804281345001
 20
173.8344380065751
 30
0
 11
-4.831804281345001
 21
172.3703363914373
 31
0
  0
LINE
  8
1
 62
7
 10
-0.8318042813450006
 20
173.8344380065751
 30
0
 11
-0.8318042813450006
 21
174.3703363914373
 31
0
  0
LINE
  8
1
 62
7
 10
-0.8318042813450006
 20
172.3703363914373
 30
0
 11
-0.8318042813450006
 21
171.038582357162
 31
0
  0
LINE
  8
1
 62
7
 10
-6.831804281345001
 20
169.3399046941437
 30
0
 11
-6.831804281345001
 21
164.9298122947567
 31
0
  0
LINE
  8
1
 62
7
 10
-4.831804281345001
 20
169.4377544567267
 30
0
 11
-4.831804281345001
 21
165.0352378659417
 31
0
  0
LINE
  8
1
 62
7
 10
-0.8318042813450006
 20
169.4377544567266
 30
0
 11
-0.8318042813450006
 21
165.0352378659417
 31
0
  0
LINE
  8
1
 62
7
 10
1.168195718654999
 20
169.3399046941436
 30
0
 11
1.168195718654999
 21
164.9298122947553
 31
0
  0
LINE
  8
1
 62
7
 10
1.168195718654999
 20
163.3257433666943
 30
0
 11
1.168195718654999
 21
158.8929445496182
 31
0
  0
LINE
  8
1
 62
7
 10
-0.8318042813450006
 20
163.4342235382038
 30
0
 11
-0.8318042813450006
 21
159.031105616401
 31
0
  0
LINE
  8
1
 62
7
 10
-4.831804281345001
 20
163.4342235382043
 30
0
 11
-4.831804281345001
 21
159.0403030384737
 31
0
  0
LINE
  8
1
 62
7
 10
-6.831804281345001
 20
163.3257433666962
 30
0
 11
-6.831804281345001
 21
158.9322818910056
 31
0
  0
LINE
  8
1
 62
7
 10
-6.831804281345001
 20
157.3081267561629
 30
0
 11
-6.831804281345001
 21
152.892206053473
 31
0
  0
LINE
  8
1
 62
7
 10
-4.831804281345001
 20
157.4298339577619
 30
0
 11
-4.831804281345001
 21
153.0258699774155
 31
0
  0
LINE
  8
1
 62
7
 10
-0.8318042813450006
 20
157.4298339577618
 30
0
 11
-0.8318042813450006
 21
153.0258699774158
 31
0
  0
LINE
  8
1
 62
7
 10
1.168195718654999
 20
157.3081267561562
 30
0
 11
1.168195718654999
 21
152.8922060534675
 31
0
  0
LINE
  8
1
 62
7
 10
-6.831804281345001
 20
151.2856114686525
 30
0
 11
-6.831804281345001
 21
145.3563927664417
 31
0
  0
LINE
  8
1
 62
7
 10
-4.831804281345001
 20
151.4242289502301
 30
0
 11
-4.831804281345001
 21
145.5169650781429
 31
0
  0
LINE
  8
1
 62
7
 10
-0.8318042813450006
 20
151.4242289502294
 30
0
 11
-0.8318042813450006
 21
145.5169650781428
 31
0
  0
LINE
  8
1
 62
7
 10
1.168195718654999
 20
151.2856114686511
 30
0
 11
1.168195718654999
 21
145.3563927664415
 31
0
  0
LINE
  8
1
 62
7
 10
1.168195718654999
 20
143.7467992205913
 30
0
 11
1.168195718654999
 21
137.8024738860743
 31
0
  0
LINE
  8
1
 62
7
 10
-0.8318042813450006
 20
138.0035954856284
 30
0
 11
-0.8318042813450006
 21
143.9145827916617
 31
0
  0
LINE
  8
1
 62
7
 10
-4.831804281345001
 20
143.9145827916617
 30
0
 11
-4.831804281345001
 21
138.0035954856288
 31
0
  0
LINE
  8
1
 62
7
 10
-6.831804281345001
 20
143.7467992205912
 30
0
 11
-6.831804281345001
 21
137.8024738860743
 31
0
  0
LINE
  8
1
 62
7
 10
-6.831804281345001
 20
136.1872352247028
 30
0
 11
-6.831804281345001
 21
130.2119262169219
 31
0
  0
LINE
  8
1
 62
7
 10
-4.831804281345001
 20
136.3998263268385
 30
0
 11
-4.831804281345001
 21
130.4812712224523
 31
0
  0
LINE
  8
1
 62
7
 10
-0.8318042813450006
 20
136.3998263268384
 30
0
 11
-0.8318042813450006
 21
130.4812712224519
 31
0
  0
LINE
  8
1
 62
7
 10
1.168195718654999
 20
136.1872352247011
 30
0
 11
1.168195718654999
 21
130.2119262169218
 31
0
  0
LINE
  8
1
 62
7
 10
1.168195718654999
 20
128.5839903809148
 30
0
 11
1.168195718654999
 21
122.0076962562037
 31
0
  0
LINE
  8
1
 62
7
 10
-0.8318042813450006
 20
122.4317430077824
 30
0
 11
-0.8318042813450006
 21
128.8744225285402
 31
0
  0
LINE
  8
1
 62
7
 10
-4.831804281345001
 20
128.8744225285403
 30
0
 11
-4.831804281345001
 21
122.4317430077824
 31
0
  0
LINE
  8
1
 62
7
 10
-6.831804281345001
 20
122.0076962562037
 30
0
 11
-6.831804281345001
 21
128.5839903809147
 31
0
  0
LINE
  8
1
 62
7
 10
-6.831804281345001
 20
120.3345118631109
 30
0
 11
-6.831804281345001
 21
112.5703363914373
 31
0
  0
LINE
  8
1
 62
7
 10
-4.831804281345001
 20
120.8143545960696
 30
0
 11
-4.831804281345001
 21
112.5703363914373
 31
0
  0
LINE
  8
1
 62
7
 10
-0.8318042813450006
 20
120.8143545960698
 30
0
 11
-0.8318042813450006
 21
112.5703363914373
 31
0
  0
LINE
  8
1
 62
7
 10
1.168195718654999
 20
120.3345118631109
 30
0
 11
1.168195718654999
 21
112.5703363914373
 31
0
  0
LINE
  8
1
 62
7
 10
-70.831804281345
 20
106.0703363914373
 30
0
 11
-69.13180428134504
 21
106.0703363914373
 31
0
  0
LINE
  8
1
 62
7
 10
-69.13180428134504
 20
110.0703363914373
 30
0
 11
-70.831804281345
 21
110.0703363914373
 31
0
  0
LINE
  8
1
 62
7
 10
-69.13180428134504
 20
106.0703363914373
 30
0
 11
-68.59590589648281
 21
106.0703363914373
 31
0
  0
LINE
  8
1
 62
7
 10
-68.59590589648281
 20
110.0703363914373
 30
0
 11
-69.13180428134504
 21
110.0703363914373
 31
0
  0
LINE
  8
1
 62
7
 10
-0.8318042813450077
 20
40.07033639143731
 30
0
 11
-0.8318042813450077
 21
41.77033639143727
 31
0
  0
LINE
  8
1
 62
7
 10
-4.831804281345008
 20
41.77033639143727
 30
0
 11
-4.831804281345008
 21
40.07033639143731
 31
0
  0
LINE
  8
1
 62
7
 10
-0.8318042813450077
 20
41.77033639143727
 30
0
 11
-0.8318042813450077
 21
42.3062347762995
 31
0
  0
LINE
  8
1
 62
7
 10
-4.831804281345008
 20
42.3062347762995
 30
0
 11
-4.831804281345008
 21
41.77033639143727
 31
0
  0
LINE
  8
1
 62
7
 10
65.168195718655
 20
110.0703363914373
 30
0
 11
63.46819571865504
 21
110.0703363914373
 31
0
  0
LINE
  8
1
 62
7
 10
63.46819571865504
 20
106.0703363914373
 30
0
 11
65.168195718655
 21
106.0703363914373
 31
0
  0
LINE
  8
1
 62
7
 10
63.46819571865504
 20
110.0703363914373
 30
0
 11
62.9322973337928
 21
110.0703363914373
 31
0
  0
LINE
  8
1
 62
7
 10
62.9322973337928
 20
106.0703363914373
 30
0
 11
63.46819571865504
 21
106.0703363914373
 31
0
  0
LINE
  8
1
 62
7
 10
-70.831804281345
 20
104.0703363914373
 30
0
 11
-65.70469191981766
 21
104.0703363914373
 31
0
  0
LINE
  8
1
 62
7
 10
1.168195718654992
 20
40.07033639143731
 30
0
 11
1.168195718654992
 21
45.19744875296465
 31
0
  0
LINE
  8
1
 62
7
 10
65.168195718655
 20
112.0703363914373
 30
0
 11
60.04108335712766
 21
112.0703363914373
 31
0
  0
LINE
  8
1
 62
7
 10
-69.13180428134504
 20
106.0703363914373
 30
0
 11
-68.59590589648281
 21
106.0703363914373
 31
0
  0
LINE
  8
1
 62
7
 10
-68.59590589648281
 20
106.0703363914373
 30
0
 11
-67.13180428134504
 21
106.0703363914373
 31
0
  0
LINE
  8
1
 62
7
 10
-0.8318042813450077
 20
41.77033639143727
 30
0
 11
-0.8318042813450077
 21
42.3062347762995
 31
0
  0
LINE
  8
1
 62
7
 10
-0.8318042813450077
 20
42.3062347762995
 30
0
 11
-0.8318042813450077
 21
43.77033639143727
 31
0
  0
LINE
  8
1
 62
7
 10
63.46819571865504
 20
110.0703363914373
 30
0
 11
62.9322973337928
 21
110.0703363914373
 31
0
  0
LINE
  8
1
 62
7
 10
62.9322973337928
 20
110.0703363914373
 30
0
 11
61.46819571865504
 21
110.0703363914373
 31
0
  0
LINE
  8
1
 62
7
 10
-70.831804281345
 20
112.0703363914373
 30
0
 11
-65.70469191981761
 21
112.0703363914373
 31
0
  0
LINE
  8
1
 62
7
 10
-6.831804281345008
 20
40.07033639143731
 30
0
 11
-6.831804281345008
 21
45.1974487529647
 31
0
  0
LINE
  8
1
 62
7
 10
65.168195718655
 20
104.0703363914373
 30
0
 11
60.0410833571276
 21
104.0703363914373
 31
0
  0
LINE
  8
1
 62
7
 10
-67.13180428134504
 20
110.0703363914373
 30
0
 11
-68.59590589648281
 21
110.0703363914373
 31
0
  0
LINE
  8
1
 62
7
 10
-67.13180428134504
 20
110.0703363914373
 30
0
 11
-65.80005024706966
 21
110.0703363914373
 31
0
  0
LINE
  8
1
 62
7
 10
-4.831804281345008
 20
43.77033639143727
 30
0
 11
-4.831804281345008
 21
42.3062347762995
 31
0
  0
LINE
  8
1
 62
7
 10
-4.831804281345008
 20
43.77033639143727
 30
0
 11
-4.831804281345008
 21
45.10209042571265
 31
0
  0
LINE
  8
1
 62
7
 10
61.46819571865504
 20
106.0703363914373
 30
0
 11
62.9322973337928
 21
106.0703363914373
 31
0
  0
LINE
  8
1
 62
7
 10
61.46819571865504
 20
106.0703363914373
 30
0
 11
60.13644168437966
 21
106.0703363914373
 31
0
  0
LINE
  8
1
 62
7
 10
-67.13180428134504
 20
106.0703363914373
 30
0
 11
-65.80005024706966
 21
106.0703363914373
 31
0
  0
LINE
  8
1
 62
7
 10
-0.8318042813450077
 20
43.77033639143727
 30
0
 11
-0.8318042813450077
 21
45.10209042571265
 31
0
  0
LINE
  8
1
 62
7
 10
61.46819571865504
 20
110.0703363914373
 30
0
 11
60.13644168437966
 21
110.0703363914373
 31
0
  0
LINE
  8
1
 62
7
 10
-64.10137258405138
 20
104.0703363914373
 30
0
 11
-59.69128018466441
 21
104.0703363914373
 31
0
  0
LINE
  8
1
 62
7
 10
1.168195718654993
 20
46.80076808873093
 30
0
 11
1.168195718654993
 21
51.2108604881179
 31
0
  0
LINE
  8
1
 62
7
 10
58.43776402136137
 20
112.0703363914373
 30
0
 11
54.02767162197441
 21
112.0703363914373
 31
0
  0
LINE
  8
1
 62
7
 10
-64.19922234663437
 20
106.0703363914373
 30
0
 11
-59.79670575584942
 21
106.0703363914373
 31
0
  0
LINE
  8
1
 62
7
 10
-0.8318042813450068
 20
46.70291832614794
 30
0
 11
-0.8318042813450068
 21
51.10543491693289
 31
0
  0
LINE
  8
1
 62
7
 10
58.53561378394437
 20
110.0703363914373
 30
0
 11
54.13309719315941
 21
110.0703363914373
 31
0
  0
LINE
  8
1
 62
7
 10
-64.19922234663432
 20
110.0703363914373
 30
0
 11
-59.79670575584939
 21
110.0703363914373
 31
0
  0
LINE
  8
1
 62
7
 10
-4.831804281345007
 20
46.70291832614799
 30
0
 11
-4.831804281345007
 21
51.10543491693292
 31
0
  0
LINE
  8
1
 62
7
 10
58.53561378394431
 20
106.0703363914373
 30
0
 11
54.13309719315939
 21
106.0703363914373
 31
0
  0
LINE
  8
1
 62
7
 10
-64.10137258405132
 20
112.0703363914373
 30
0
 11
-59.69128018466296
 21
112.0703363914373
 31
0
  0
LINE
  8
1
 62
7
 10
-6.831804281345007
 20
46.80076808873099
 30
0
 11
-6.831804281345007
 21
51.21086048811935
 31
0
  0
LINE
  8
1
 62
7
 10
58.43776402136132
 20
104.0703363914373
 30
0
 11
54.02767162197296
 21
104.0703363914373
 31
0
  0
LINE
  8
1
 62
7
 10
-58.08721125660202
 20
112.0703363914373
 30
0
 11
-53.65441243952591
 21
112.0703363914373
 31
0
  0
LINE
  8
1
 62
7
 10
-6.831804281345006
 20
52.81492941618029
 30
0
 11
-6.831804281345006
 21
57.2477282332564
 31
0
  0
LINE
  8
1
 62
7
 10
52.42360269391202
 20
104.0703363914373
 30
0
 11
47.99080387683591
 21
104.0703363914373
 31
0
  0
LINE
  8
1
 62
7
 10
-58.19569142811153
 20
110.0703363914373
 30
0
 11
-53.79257350630866
 21
110.0703363914373
 31
0
  0
LINE
  8
1
 62
7
 10
-4.831804281345006
 20
52.70644924467078
 30
0
 11
-4.831804281345006
 21
57.10956716647365
 31
0
  0
LINE
  8
1
 62
7
 10
52.53208286542153
 20
106.0703363914373
 30
0
 11
48.12896494361866
 21
106.0703363914373
 31
0
  0
LINE
  8
1
 62
7
 10
-58.19569142811201
 20
106.0703363914373
 30
0
 11
-53.80177092838139
 21
106.0703363914373
 31
0
  0
LINE
  8
1
 62
7
 10
-0.8318042813450068
 20
52.7064492446703
 30
0
 11
-0.831804281345006
 21
57.10036974440092
 31
0
  0
LINE
  8
1
 62
7
 10
52.53208286542201
 20
110.0703363914373
 30
0
 11
48.13816236569139
 21
110.0703363914373
 31
0
  0
LINE
  8
1
 62
7
 10
-58.08721125660387
 20
104.0703363914373
 30
0
 11
-53.69374978091329
 21
104.0703363914373
 31
0
  0
LINE
  8
1
 62
7
 10
1.168195718654993
 20
52.81492941617844
 30
0
 11
1.168195718654994
 21
57.20839089186902
 31
0
  0
LINE
  8
1
 62
7
 10
52.42360269391386
 20
112.0703363914373
 30
0
 11
48.03014121822329
 21
112.0703363914373
 31
0
  0
LINE
  8
1
 62
7
 10
-52.06959464607058
 20
104.0703363914373
 30
0
 11
-47.65367394338074
 21
104.0703363914373
 31
0
  0
LINE
  8
1
 62
7
 10
1.168195718654994
 20
58.83254602671173
 30
0
 11
1.168195718654995
 21
63.24846672940157
 31
0
  0
LINE
  8
1
 62
7
 10
46.40598608338058
 20
112.0703363914373
 30
0
 11
41.99006538069074
 21
112.0703363914373
 31
0
  0
LINE
  8
1
 62
7
 10
-52.19130184766962
 20
106.0703363914373
 30
0
 11
-47.78733786732323
 21
106.0703363914373
 31
0
  0
LINE
  8
1
 62
7
 10
-0.831804281345006
 20
58.71083882511269
 30
0
 11
-0.8318042813450051
 21
63.11480280545908
 31
0
  0
LINE
  8
1
 62
7
 10
46.52769328497962
 20
110.0703363914373
 30
0
 11
42.12372930463323
 21
110.0703363914373
 31
0
  0
LINE
  8
1
 62
7
 10
-52.19130184766948
 20
110.0703363914373
 30
0
 11
-47.78733786732352
 21
110.0703363914373
 31
0
  0
LINE
  8
1
 62
7
 10
-4.831804281345006
 20
58.71083882511283
 30
0
 11
-4.831804281345005
 21
63.11480280545879
 31
0
  0
LINE
  8
1
 62
7
 10
46.52769328497948
 20
106.0703363914373
 30
0
 11
42.12372930463351
 21
106.0703363914373
 31
0
  0
LINE
  8
1
 62
7
 10
-52.06959464606385
 20
112.0703363914373
 30
0
 11
-47.65367394337517
 21
112.0703363914373
 31
0
  0
LINE
  8
1
 62
7
 10
-6.831804281345006
 20
58.83254602671846
 30
0
 11
-6.831804281345005
 21
63.24846672940714
 31
0
  0
LINE
  8
1
 62
7
 10
46.40598608337385
 20
104.0703363914373
 30
0
 11
41.99006538068517
 21
104.0703363914373
 31
0
  0
LINE
  8
1
 62
7
 10
-46.04707935855879
 20
112.0703363914373
 30
0
 11
-40.11786065634919
 21
112.0703363914373
 31
0
  0
LINE
  8
1
 62
7
 10
-6.831804281345005
 20
64.85506131422352
 30
0
 11
-6.831804281345004
 21
70.78428001643312
 31
0
  0
LINE
  8
1
 62
7
 10
40.38347079586879
 20
104.0703363914373
 30
0
 11
34.45425209365919
 21
104.0703363914373
 31
0
  0
LINE
  8
1
 62
7
 10
-46.1856968401371
 20
110.0703363914373
 30
0
 11
-40.27843296805054
 21
110.0703363914373
 31
0
  0
LINE
  8
1
 62
7
 10
-4.831804281345005
 20
64.71644383264521
 30
0
 11
-4.831804281345004
 21
70.62370770473177
 31
0
  0
LINE
  8
1
 62
7
 10
40.5220882774471
 20
106.0703363914373
 30
0
 11
34.61482440536054
 21
106.0703363914373
 31
0
  0
LINE
  8
1
 62
7
 10
-46.18569684013781
 20
106.0703363914373
 30
0
 11
-40.27843296805057
 21
106.0703363914373
 31
0
  0
LINE
  8
1
 62
7
 10
-0.8318042813450051
 20
64.7164438326445
 30
0
 11
-0.8318042813450042
 21
70.62370770473174
 31
0
  0
LINE
  8
1
 62
7
 10
40.52208827744781
 20
110.0703363914373
 30
0
 11
34.61482440536057
 21
110.0703363914373
 31
0
  0
LINE
  8
1
 62
7
 10
-46.04707935856024
 20
104.0703363914373
 30
0
 11
-40.11786065634942
 21
104.0703363914373
 31
0
  0
LINE
  8
1
 62
7
 10
1.168195718654995
 20
64.85506131422207
 30
0
 11
1.168195718654996
 21
70.78428001643289
 31
0
  0
LINE
  8
1
 62
7
 10
40.38347079587024
 20
112.0703363914373
 30
0
 11
34.45425209365942
 21
112.0703363914373
 31
0
  0
LINE
  8
1
 62
7
 10
-38.50826711049885
 20
104.0703363914373
 30
0
 11
-32.56394177598202
 21
104.0703363914373
 31
0
  0
LINE
  8
1
 62
7
 10
1.168195718654996
 20
72.39387356228346
 30
0
 11
1.168195718654997
 21
78.33819889680029
 31
0
  0
LINE
  8
1
 62
7
 10
32.84465854780885
 20
112.0703363914373
 30
0
 11
26.90033321329201
 21
112.0703363914373
 31
0
  0
LINE
  8
1
 62
7
 10
-38.67605068156939
 20
106.0703363914373
 30
0
 11
-32.76506337553647
 21
106.0703363914373
 31
0
  0
LINE
  8
1
 62
7
 10
-0.8318042813450042
 20
72.22608999121292
 30
0
 11
-0.8318042813450033
 21
78.13707729724584
 31
0
  0
LINE
  8
1
 62
7
 10
33.01244211887939
 20
110.0703363914373
 30
0
 11
27.10145481284647
 21
110.0703363914373
 31
0
  0
LINE
  8
1
 62
7
 10
-32.76506337553604
 20
110.0703363914373
 30
0
 11
-38.67605068156942
 21
110.0703363914373
 31
0
  0
LINE
  8
1
 62
7
 10
-4.831804281345003
 20
78.13707729724627
 30
0
 11
-4.831804281345004
 21
72.22608999121289
 31
0
  0
LINE
  8
1
 62
7
 10
27.10145481284604
 20
106.0703363914373
 30
0
 11
33.01244211887942
 21
106.0703363914373
 31
0
  0
LINE
  8
1
 62
7
 10
-38.50826711049896
 20
112.0703363914373
 30
0
 11
-32.56394177598202
 21
112.0703363914373
 31
0
  0
LINE
  8
1
 62
7
 10
-6.831804281345004
 20
72.39387356228335
 30
0
 11
-6.831804281345003
 21
78.33819889680029
 31
0
  0
LINE
  8
1
 62
7
 10
32.84465854780896
 20
104.0703363914373
 30
0
 11
26.90033321329201
 21
104.0703363914373
 31
0
  0
LINE
  8
1
 62
7
 10
-30.94870311460883
 20
112.0703363914373
 30
0
 11
-24.97339410682949
 21
112.0703363914373
 31
0
  0
LINE
  8
1
 62
7
 10
-6.831804281345003
 20
79.95343755817348
 30
0
 11
-6.831804281345002
 21
85.92874656595282
 31
0
  0
LINE
  8
1
 62
7
 10
25.28509455191883
 20
104.0703363914373
 30
0
 11
19.30978554413949
 21
104.0703363914373
 31
0
  0
LINE
  8
1
 62
7
 10
-31.16129421674606
 20
110.0703363914373
 30
0
 11
-25.24273911235963
 21
110.0703363914373
 31
0
  0
LINE
  8
1
 62
7
 10
-4.831804281345003
 20
79.74084645603625
 30
0
 11
-4.831804281345002
 21
85.65940156042268
 31
0
  0
LINE
  8
1
 62
7
 10
25.49768565405606
 20
106.0703363914373
 30
0
 11
19.57913054966963
 21
106.0703363914373
 31
0
  0
LINE
  8
1
 62
7
 10
-31.16129421674614
 20
106.0703363914373
 30
0
 11
-25.24273911236
 21
106.0703363914373
 31
0
  0
LINE
  8
1
 62
7
 10
-0.8318042813450033
 20
79.74084645603617
 30
0
 11
-0.8318042813450024
 21
85.65940156042231
 31
0
  0
LINE
  8
1
 62
7
 10
25.49768565405614
 20
110.0703363914373
 30
0
 11
19.57913054967
 21
110.0703363914373
 31
0
  0
LINE
  8
1
 62
7
 10
-30.94870311461048
 20
104.0703363914373
 30
0
 11
-24.97339410682955
 21
104.0703363914373
 31
0
  0
LINE
  8
1
 62
7
 10
1.168195718654997
 20
79.95343755817183
 30
0
 11
1.168195718654998
 21
85.92874656595276
 31
0
  0
LINE
  8
1
 62
7
 10
25.28509455192048
 20
112.0703363914373
 30
0
 11
19.30978554413954
 21
112.0703363914373
 31
0
  0
LINE
  8
1
 62
7
 10
-16.76916414611135
 20
104.0703363914373
 30
0
 11
-23.34545827082235
 21
104.0703363914373
 31
0
  0
LINE
  8
1
 62
7
 10
1.168195718654998
 20
94.13297652667096
 30
0
 11
1.168195718654998
 21
87.55668240195996
 31
0
  0
LINE
  8
1
 62
7
 10
11.10555558342135
 20
112.0703363914373
 30
0
 11
17.68184970813235
 21
112.0703363914373
 31
0
  0
LINE
  8
1
 62
7
 10
-23.63589041844796
 20
106.0703363914373
 30
0
 11
-17.19321089769012
 21
106.0703363914373
 31
0
  0
LINE
  8
1
 62
7
 10
-0.8318042813450024
 20
87.26625025433435
 30
0
 11
-0.8318042813450015
 21
93.70892977509219
 31
0
  0
LINE
  8
1
 62
7
 10
17.97228185575796
 20
110.0703363914373
 30
0
 11
11.52960233500012
 21
110.0703363914373
 31
0
  0
LINE
  8
1
 62
7
 10
-17.19321089769008
 20
110.0703363914373
 30
0
 11
-23.63589041844793
 21
110.0703363914373
 31
0
  0
LINE
  8
1
 62
7
 10
-4.831804281345002
 20
93.70892977509223
 30
0
 11
-4.831804281345002
 21
87.26625025433438
 31
0
  0
LINE
  8
1
 62
7
 10
11.52960233500008
 20
106.0703363914373
 30
0
 11
17.97228185575793
 21
106.0703363914373
 31
0
  0
LINE
  8
1
 62
7
 10
-23.34545827082249
 20
112.0703363914373
 30
0
 11
-16.76916414611135
 21
112.0703363914373
 31
0
  0
LINE
  8
1
 62
7
 10
-6.831804281345002
 20
87.55668240195982
 30
0
 11
-6.831804281345002
 21
94.13297652667096
 31
0
  0
LINE
  8
1
 62
7
 10
17.68184970813249
 20
104.0703363914373
 30
0
 11
11.10555558342135
 21
104.0703363914373
 31
0
  0
LINE
  8
1
 62
7
 10
-15.09597975301861
 20
112.0703363914373
 30
0
 11
-7.331804281345001
 21
112.0703363914373
 31
0
  0
LINE
  8
1
 62
7
 10
-6.831804281345001
 20
95.8061609197637
 30
0
 11
-6.831804281345001
 21
103.5703363914373
 31
0
  0
LINE
  8
1
 62
7
 10
9.43237119032861
 20
104.0703363914373
 30
0
 11
1.668195718654999
 21
104.0703363914373
 31
0
  0
LINE
  8
1
 62
7
 10
-15.57582248597751
 20
110.0703363914373
 30
0
 11
-7.331804281345001
 21
110.0703363914373
 31
0
  0
LINE
  8
1
 62
7
 10
-4.831804281345002
 20
95.3263181868048
 30
0
 11
-4.831804281345001
 21
103.5703363914373
 31
0
  0
LINE
  8
1
 62
7
 10
9.91221392328751
 20
106.0703363914373
 30
0
 11
1.668195718654999
 21
106.0703363914373
 31
0
  0
LINE
  8
1
 62
7
 10
-15.57582248597728
 20
106.0703363914373
 30
0
 11
-7.331804281345001
 21
106.0703363914373
 31
0
  0
LINE
  8
1
 62
7
 10
-0.8318042813450015
 20
95.32631818680503
 30
0
 11
-0.8318042813450006
 21
103.5703363914373
 31
0
  0
LINE
  8
1
 62
7
 10
9.912213923287283
 20
110.0703363914373
 30
0
 11
1.668195718654999
 21
110.0703363914373
 31
0
  0
LINE
  8
1
 62
7
 10
-15.09597975301858
 20
104.0703363914373
 30
0
 11
-7.331804281345001
 21
104.0703363914373
 31
0
  0
LINE
  8
1
 62
7
 10
1.168195718654998
 20
95.80616091976373
 30
0
 11
1.168195718654999
 21
103.5703363914373
 31
0
  0
LINE
  8
1
 62
7
 10
9.432371190328581
 20
112.0703363914373
 30
0
 11
1.668195718654999
 21
112.0703363914373
 31
0
  0
LINE
  8
1
 62
7
 10
-7.331804281345001
 20
110.0703363914373
 30
0
 11
-7.331804281345001
 21
112.0703363914373
 31
0
  0
LINE
  8
1
 62
7
 10
-7.331804281345001
 20
104.0703363914373
 30
0
 11
-7.331804281345001
 21
106.0703363914373
 31
0
  0
LINE
  8
1
 62
7
 10
-4.831804281345001
 20
103.5703363914373
 30
0
 11
-6.831804281345001
 21
103.5703363914373
 31
0
  0
LINE
  8
1
 62
7
 10
1.168195718654999
 20
103.5703363914373
 30
0
 11
-0.8318042813450006
 21
103.5703363914373
 31
0
  0
LINE
  8
1
 62
7
 10
1.668195718654999
 20
106.0703363914373
 30
0
 11
1.668195718654999
 21
104.0703363914373
 31
0
  0
LINE
  8
1
 62
7
 10
1.668195718654999
 20
112.0703363914373
 30
0
 11
1.668195718654999
 21
110.0703363914373
 31
0
  0
LINE
  8
1
 62
7
 10
149.7613495204891
 20
104.0703363914373
 30
0
 11
149.7613495204891
 21
106.0703363914373
 31
0
  0
LINE
  8
1
 62
7
 10
149.7613495204891
 20
106.0703363914373
 30
0
 11
155.268195718655
 21
106.0703363914373
 31
0
  0
LINE
  8
1
 62
7
 10
149.7613495204891
 20
104.0703363914373
 30
0
 11
116.568195718655
 21
104.0703363914373
 31
0
  0
LINE
  8
1
 62
7
 10
149.7613495204891
 20
110.0703363914373
 30
0
 11
149.7613495204891
 21
112.0703363914373
 31
0
  0
LINE
  8
1
 62
7
 10
149.7613495204891
 20
110.0703363914373
 30
0
 11
116.568195718655
 21
110.0703363914373
 31
0
  0
LINE
  8
1
 62
7
 10
149.7613495204891
 20
112.0703363914373
 30
0
 11
155.268195718655
 21
112.0703363914373
 31
0
  0
LINE
  8
1
 62
7
 10
155.7935376698405
 20
110.0001073193779
 30
0
 11
155.7935376698405
 21
112.0356883095304
 31
0
  0
LINE
  8
1
 62
7
 10
155.7935376698405
 20
106.1405654634967
 30
0
 11
155.7935376698405
 21
104.1049844733442
 31
0
  0
ARC
  8
1
 62
7
 10
-2.831804281346329
 20
108.0703363914373
 30
0
 40
57.00000000000129
 50
94.02406388943798
 51
180
  0
ARC
  8
1
 62
7
 10
-2.831804281345001
 20
108.0703363914425
 30
0
 40
51.00000000000517
 50
94.21673047885193
 51
180.0000000000059
  0
ARC
  8
1
 62
7
 10
-2.831804281345001
 20
108.0703363914537
 30
0
 40
37.49999999998378
 50
96.12319886627208
 51
180.000000000025
  0
ARC
  8
1
 62
7
 10
-2.831804281345001
 20
108.0703363914373
 30
0
 40
29.99999999999999
 50
97.66225566076606
 51
180
  0
ARC
  8
1
 62
4
 10
-2.831804281345001
 20
108.0703363914373
 30
0
 40
30
 50
180
 51
343.5603025665962
  0
ARC
  8
1
 62
7
 10
-2.831804281345001
 20
108.0703363914373
 30
0
 40
30
 50
180
 51
343.5603025665962
  0
ARC
  8
1
 62
7
 10
-2.831804281345001
 20
108.0703363914373
 30
0
 40
22.50000000000009
 50
100.2403483211862
 51
180
  0
ARC
  8
1
 62
7
 10
158.268195718655
 20
42.77033639143729
 30
0
 40
0.9999999999999805
 50
249.8339000346847
 51
57.48431920190738
  0
ARC
  8
1
 62
7
 10
158.268195718655
 20
173.3703363914373
 30
0
 40
0.9999999999999534
 50
302.5156807980944
 51
110.1660999653141
  0
ARC
  8
1
 62
7
 10
-2.831804281345001
 20
108.0703363914373
 30
0
 40
14.5
 50
180.9879072166562
 51
72.95615338490174
  0
ARC
  8
1
 62
7
 10
-2.831804281345001
 20
108.0703363914373
 30
0
 40
20.89999999999998
 50
270.6853725591053
 51
78.26711535420486
  0
ARC
  8
1
 62
7
 10
-2.831804281345001
 20
108.0703363914373
 30
0
 40
22.49999999999999
 50
270.6366328722677
 51
79.11205186987965
  0
ARC
  8
1
 62
7
 10
-2.831804281346329
 20
108.0703363914373
 30
0
 40
28.40000000000133
 50
0.5043707703337775
 51
81.39347832793834
  0
ARC
  8
1
 62
7
 10
-2.831804281345001
 20
108.0703363914373
 30
0
 40
30.00000000000001
 50
0.477470355661689
 51
81.85569944553741
  0
ARC
  8
1
 62
7
 10
-2.831804281345001
 20
108.0703363914327
 30
0
 40
35.90000000000458
 50
96.39721414861155
 51
83.20112905857253
  0
ARC
  8
1
 62
7
 10
-2.831804281352859
 20
108.0703363914373
 30
0
 40
43.39999999999215
 50
180.3300466381401
 51
84.38023181133254
  0
ARC
  8
1
 62
7
 10
-2.831804281345001
 20
108.0703363914537
 30
0
 40
37.4999999999838
 50
180.000000000025
 51
83.49249640825244
  0
ARC
  8
1
 62
7
 10
-2.831804281338677
 20
108.0703363914373
 30
0
 40
45.00000000000632
 50
180.318311523603
 51
84.58065494338072
  0
ARC
  8
1
 62
7
 10
-2.831804281345001
 20
108.0703363914407
 30
0
 40
49.40000000000341
 50
270.289959636046
 51
85.06460613275952
  0
ARC
  8
1
 62
7
 10
-2.831804281345001
 20
108.0703363914425
 30
0
 40
51.0000000000052
 50
270.2808627891064
 51
85.21980815280035
  0
ARC
  8
1
 62
7
 10
-2.83180428135752
 20
108.0703363914373
 30
0
 40
55.4000000000125
 50
0.2585558392399038
 51
85.60024288687981
  0
ARC
  8
1
 62
7
 10
-2.831804281346329
 20
108.0703363914373
 30
0
 40
57.00000000000132
 50
0.2512980842610186
 51
85.72397798411564
  0
ARC
  8
1
 62
7
 10
-2.831804281345001
 20
108.0703363914373
 30
0
 40
61.40000000000006
 50
93.7352693849858
 51
86.0309131849417
  0
ARC
  8
1
 62
7
 10
-2.831804281345001
 20
108.0703363914295
 30
0
 40
63.00000000000788
 50
93.64027587561479
 51
86.13187082507636
  0
ARC
  8
1
 62
7
 10
-2.831804281346329
 20
108.0703363914373
 30
0
 40
57.00000000000009
 50
85.97593611055925
 51
87.7377367342083
  0
ARC
  8
1
 62
7
 10
-2.831804281345001
 20
108.0703363914373
 30
0
 40
61.39999999999994
 50
86.2647306150142
 51
87.89992876596077
  0
ARC
  8
1
 62
7
 10
-2.831804281345001
 20
108.0703363914425
 30
0
 40
50.99999999999478
 50
85.21980815280035
 51
87.47142431272734
  0
ARC
  8
1
 62
7
 10
-2.83180428135752
 20
108.0703363914373
 30
0
 40
55.40000000001245
 50
85.85951779036783
 51
87.67236514978758
  0
ARC
  8
1
 62
7
 10
-2.831804281338677
 20
108.0703363914373
 30
0
 40
44.99999999999971
 50
84.90031108579072
 51
87.13401601740918
  0
ARC
  8
1
 62
7
 10
-2.831804281345001
 20
108.0703363914407
 30
0
 40
49.39999999999667
 50
85.3555810478555
 51
87.38947129829207
  0
ARC
  8
1
 62
7
 10
-2.831804281352859
 20
108.0703363914373
 30
0
 40
43.39999999999215
 50
84.71177804898137
 51
87.02826446547077
  0
ARC
  8
1
 62
7
 10
-2.831804281345001
 20
108.0703363914537
 30
0
 40
37.49999999998359
 50
83.8768011337279
 51
86.5601872324833
  0
ARC
  8
1
 62
7
 10
-2.831804281345001
 20
108.0703363914373
 30
0
 40
29.99999999999999
 50
82.33774433923394
 51
85.69877769532964
  0
ARC
  8
1
 62
7
 10
-2.831804281345001
 20
108.0703363914327
 30
0
 40
35.90000000000467
 50
83.60278585138846
 51
86.40668381543905
  0
ARC
  8
1
 62
7
 10
-2.831804281345001
 20
108.0703363914373
 30
0
 40
22.49999999999998
 50
79.75965167881377
 51
84.26082952273322
  0
ARC
  8
1
 62
7
 10
-2.831804281346329
 20
108.0703363914373
 30
0
 40
28.40000000000005
 50
81.90325023020189
 51
85.45595964911219
  0
ARC
  8
1
 62
7
 10
-2.831804281345001
 20
108.0703363914373
 30
0
 40
14.50000000000005
 50
73.98660557605156
 51
81.07320417895301
  0
ARC
  8
1
 62
7
 10
-2.831804281345001
 20
108.0703363914373
 30
0
 40
20.90000000000015
 50
78.96622831791052
 51
83.81981688358707
  0
ARC
  8
1
 62
7
 10
-2.831804281345001
 20
108.0703363914373
 30
0
 40
12.89999999999999
 50
181.1104528416438
 51
70.76415696557798
  0
ARC
  8
1
 62
7
 10
-2.831804281345001
 20
108.0703363914373
 30
0
 40
12.90000000000002
 50
71.93609777095998
 51
79.95517372405207
  0
ARC
  8
1
 62
7
 10
-2.831804281346329
 20
108.0703363914373
 30
0
 40
57
 50
87.98920903055874
 51
91.75935741819652
  0
ARC
  8
1
 62
7
 10
-2.831804281345001
 20
108.0703363914373
 30
0
 40
61.39999999999998
 50
90.23328964913095
 51
91.63324420834654
  0
ARC
  8
1
 62
7
 10
-2.831804281345001
 20
108.0703363914425
 30
0
 40
50.99999999999487
 50
87.75253038185697
 51
91.96641766587223
  0
ARC
  8
1
 62
7
 10
-2.83180428135752
 20
108.0703363914373
 30
0
 40
55.39999999999954
 50
87.93111074716049
 51
91.81018586001963
  0
ARC
  8
1
 62
7
 10
-2.831804281338677
 20
108.0703363914373
 30
0
 40
45.00000000000018
 50
87.45268181743769
 51
92.2287312128685
  0
ARC
  8
1
 62
7
 10
-2.831804281345001
 20
108.0703363914407
 30
0
 40
49.39999999999653
 50
87.67969865001483
 51
92.0301335547166
  0
ARC
  8
1
 62
7
 10
-2.831804281345001
 20
108.0703363914537
 30
0
 40
37.4999999999836
 50
90.38197469289852
 51
92.67477448773657
  0
ARC
  8
1
 62
7
 10
-2.831804281352859
 20
108.0703363914373
 30
0
 40
43.39999999999218
 50
87.35870607517826
 51
92.31094020909239
  0
ARC
  8
1
 62
7
 10
-2.831804281345001
 20
108.0703363914373
 30
0
 40
29.99999999999958
 50
86.17744627072561
 51
93.34415220445571
  0
ARC
  8
1
 62
7
 10
-2.831804281345001
 20
108.0703363914327
 30
0
 40
35.90000000000462
 50
90.39899890396998
 51
92.79407705771337
  0
ARC
  8
1
 62
7
 10
-2.831804281345001
 20
108.0703363914373
 30
0
 40
22.49999999999965
 50
84.90031108578258
 51
94.46084369787405
  0
ARC
  8
1
 62
7
 10
-2.831804281346329
 20
108.0703363914373
 30
0
 40
28.39999999999996
 50
85.96174340412134
 51
93.53278786364226
  0
ARC
  8
1
 62
7
 10
-2.831804281345001
 20
108.0703363914373
 30
0
 40
14.50000000000004
 50
82.0718582337978
 51
96.93190619758485
  0
ARC
  8
1
 62
7
 10
-2.831804281345001
 20
108.0703363914373
 30
0
 40
20.89999999999994
 50
84.50874759772955
 51
94.80311717767852
  0
ARC
  8
1
 62
7
 10
-2.831804281345001
 20
108.0703363914373
 30
0
 40
12.90000000000019
 50
81.0809558059667
 51
97.7967234501419
  0
ARC
  8
1
 62
7
 10
-2.831804281345001
 20
108.0703363914373
 30
0
 40
12.89999999999999
 50
98.91904419403343
 51
106.8997293832997
  0
ARC
  8
1
 62
7
 10
-2.831804281345001
 20
108.0703363914373
 30
0
 40
14.50000000000004
 50
97.92814176620219
 51
104.9882344823051
  0
ARC
  8
1
 62
7
 10
-2.831804281345001
 20
108.0703363914373
 30
0
 40
20.90000000000003
 50
95.49125240227043
 51
100.3363182480115
  0
ARC
  8
1
 62
7
 10
-2.831804281345001
 20
108.0703363914373
 30
0
 40
22.50000000000004
 50
95.09968891421734
 51
99.59406822686044
  0
ARC
  8
1
 62
7
 10
-2.831804281346329
 20
108.0703363914373
 30
0
 40
28.39999999999989
 50
94.03825659587329
 51
97.58762231423297
  0
ARC
  8
1
 62
7
 10
-2.831804281345001
 20
108.0703363914373
 30
0
 40
29.99999999999998
 50
93.82255372927435
 51
97.18075578145829
  0
ARC
  8
1
 62
7
 10
-2.831804281345001
 20
108.0703363914327
 30
0
 40
35.90000000000459
 50
93.19361886042759
 51
95.99587280802621
  0
ARC
  8
1
 62
7
 10
-2.831804281345001
 20
108.0703363914537
 30
0
 40
37.49999999998367
 50
93.05722542846063
 51
95.73917047726928
  0
ARC
  8
1
 62
7
 10
-2.831804281352859
 20
108.0703363914373
 30
0
 40
43.39999999999214
 50
92.64129392480098
 51
94.95685319842964
  0
ARC
  8
1
 62
7
 10
-2.831804281338677
 20
108.0703363914373
 30
0
 40
45.00000000000046
 50
92.54731818257842
 51
94.78019184720719
  0
ARC
  8
1
 62
7
 10
-2.831804281345001
 20
108.0703363914407
 30
0
 40
49.39999999999665
 50
92.32030134998519
 51
94.35356403545141
  0
ARC
  8
1
 62
7
 10
-2.831804281345001
 20
108.0703363914425
 30
0
 40
50.99999999999483
 50
91.96641766587223
 51
94.21673047885193
  0
ARC
  8
1
 62
7
 10
-2.83180428135752
 20
108.0703363914373
 30
0
 40
55.39999999999913
 50
92.06888925281362
 51
93.88129221341818
  0
ARC
  8
1
 62
7
 10
-2.831804281346329
 20
108.0703363914373
 30
0
 40
56.99999999999989
 50
92.01079096943857
 51
93.77218368505575
  0
ARC
  8
1
 62
7
 10
-2.831804281345001
 20
108.0703363914373
 30
0
 40
61.40000000000008
 50
91.86664222608833
 51
93.50151423276763
  0
ARC
  8
1
 62
7
 10
-2.831804281345001
 20
108.0703363914295
 30
0
 40
63.00000000000782
 50
91.81921929402971
 51
93.41248021015228
  0
ARC
  8
1
 62
7
 10
-2.831804281345001
 20
108.0703363914295
 30
0
 40
63.00000000000782
 50
90.22736480114004
 51
91.5917541765857
  0
ARC
  8
1
 62
7
 10
-2.831804281345001
 20
108.0703363914373
 30
0
 40
12.90000000000002
 50
108.06390222904
 51
178.8895471583562
  0
ARC
  8
1
 62
7
 10
-2.831804281345001
 20
108.0703363914373
 30
0
 40
14.50000000000005
 50
106.0133944239484
 51
179.0120927833438
  0
ARC
  8
1
 62
7
 10
-2.831804281345001
 20
108.0703363914373
 30
0
 40
22.4999999999996
 50
180
 51
269.3633671277324
  0
ARC
  8
1
 62
7
 10
-2.831804281345001
 20
108.0703363914373
 30
0
 40
20.90000000000007
 50
101.0337716820895
 51
269.3146274408947
  0
ARC
  8
1
 62
7
 10
-2.831804281346329
 20
108.0703363914373
 30
0
 40
28.40000000000133
 50
98.09674976979233
 51
359.4956292296662
  0
ARC
  8
1
 62
7
 10
-2.831804281345001
 20
108.0703363914373
 30
0
 40
30
 50
343.5603025665962
 51
359.5225296443384
  0
ARC
  8
1
 62
7
 10
-2.831804281345001
 20
108.0703363914327
 30
0
 40
35.90000000000459
 50
86.8063811395724
 51
89.60100109603003
  0
ARC
  8
1
 62
7
 10
-2.831804281345001
 20
108.0703363914537
 30
0
 40
37.49999999998355
 50
86.94277457153936
 51
89.61802530710149
  0
ARC
  8
1
 62
7
 10
-2.831804281352859
 20
108.0703363914373
 30
0
 40
43.3999999999921
 50
95.28822195099781
 51
179.6699533618599
  0
ARC
  8
1
 62
7
 10
-2.831804281338677
 20
108.0703363914373
 30
0
 40
45.00000000000629
 50
95.0996889142247
 51
179.681688476397
  0
ARC
  8
1
 62
7
 10
-2.831804281345001
 20
108.0703363914425
 30
0
 40
50.9999999999948
 50
180.0000000000059
 51
269.7191372108936
  0
ARC
  8
1
 62
7
 10
-2.831804281345001
 20
108.0703363914407
 30
0
 40
49.40000000000333
 50
94.64441895214388
 51
269.710040363954
  0
ARC
  8
1
 62
7
 10
-2.83180428135752
 20
108.0703363914373
 30
0
 40
55.40000000001255
 50
94.14048220960621
 51
359.7414441607601
  0
ARC
  8
1
 62
7
 10
-2.831804281346329
 20
108.0703363914373
 30
0
 40
56.99999999999997
 50
180
 51
359.748701915739
  0
ARC
  8
1
 62
7
 10
-2.831804281345001
 20
108.0703363914373
 30
0
 40
61.39999999999996
 50
88.13335777391166
 51
89.76671035086903
  0
ARC
  8
1
 62
7
 10
-2.831804281345001
 20
108.0703363914295
 30
0
 40
63.00000000000777
 50
88.28652379948366
 51
89.77263519885995
  0
ARC
  8
1
 62
7
 10
-2.831804281345001
 20
170.3703363914373
 30
0
 40
2.000000000000008
 50
19.62818382801552
 51
160.3718161719845
  0
ARC
  8
1
 62
7
 10
-2.831804281345001
 20
108.0703363914295
 30
0
 40
63.00000000000775
 50
91.5917541765857
 51
91.71347620051633
  0
ARC
  8
1
 62
7
 10
-2.831804281345001
 20
108.0703363914295
 30
0
 40
63.00000000000782
 50
88.18078070597029
 51
88.28652379948366
  0
ARC
  8
1
 62
7
 10
-2.831804281345001
 20
170.3703363914373
 30
0
 40
4.000000000000057
 50
60.00000000000047
 51
119.9999999999995
  0
ARC
  8
1
 62
7
 10
-2.831804281345001
 20
108.0703363914295
 30
0
 40
63.00000000000782
 50
86.13187082507636
 51
88.18078070597029
  0
ARC
  8
1
 62
7
 10
-2.831804281345001
 20
108.0703363914295
 30
0
 40
63.00000000000777
 50
91.71347620051633
 51
91.81921929402971
  0
ARC
  8
1
 62
7
 10
-2.831804281345001
 20
108.0703363914295
 30
0
 40
63.00000000000781
 50
93.41248021015228
 51
93.64027587561479
  0
ARC
  8
1
 62
7
 10
-2.831804281345001
 20
108.0703363914373
 30
0
 40
61.40000000000003
 50
93.50151423276763
 51
93.7352693849858
  0
ARC
  8
1
 62
7
 10
-2.831804281346329
 20
108.0703363914373
 30
0
 40
56.99999999999989
 50
93.77218368505575
 51
94.02406388943798
  0
ARC
  8
1
 62
7
 10
-2.831804281346329
 20
108.0703363914373
 30
0
 40
56.99999999999996
 50
91.75935741819652
 51
92.01079096943857
  0
ARC
  8
1
 62
7
 10
-2.831804281345001
 20
108.0703363914373
 30
0
 40
61.40000000000001
 50
91.63324420834654
 51
91.86664222608833
  0
ARC
  8
1
 62
7
 10
-2.831804281346329
 20
108.0703363914373
 30
0
 40
57.00000000000009
 50
87.7377367342083
 51
87.98920903055874
  0
ARC
  8
1
 62
7
 10
-2.831804281345001
 20
108.0703363914373
 30
0
 40
61.39999999999996
 50
87.89992876596077
 51
88.13335777391166
  0
ARC
  8
1
 62
7
 10
-2.831804281346329
 20
108.0703363914373
 30
0
 40
57.0000000000013
 50
85.72397798411564
 51
85.97593611055925
  0
ARC
  8
1
 62
7
 10
-2.831804281345001
 20
108.0703363914373
 30
0
 40
61.40000000000001
 50
86.0309131849417
 51
86.2647306150142
  0
ARC
  8
1
 62
7
 10
-2.83180428135752
 20
108.0703363914373
 30
0
 40
55.40000000000101
 50
85.60024288687981
 51
85.85951779036783
  0
ARC
  8
1
 62
7
 10
-2.831804281345001
 20
108.0703363914425
 30
0
 40
50.99999999999483
 50
87.47142431272734
 51
87.75253038185697
  0
ARC
  8
1
 62
7
 10
-2.83180428135752
 20
108.0703363914373
 30
0
 40
55.40000000001245
 50
87.67236514978758
 51
87.93111074716049
  0
ARC
  8
1
 62
7
 10
-2.83180428135752
 20
108.0703363914373
 30
0
 40
55.39999999999957
 50
91.81018586001963
 51
92.06888925281362
  0
ARC
  8
1
 62
7
 10
-2.83180428135752
 20
108.0703363914373
 30
0
 40
55.39999999999913
 50
93.88129221341818
 51
94.14048220960621
  0
ARC
  8
1
 62
7
 10
-2.831804281338677
 20
108.0703363914373
 30
0
 40
45.00000000000048
 50
94.78019184720719
 51
95.0996889142247
  0
ARC
  8
1
 62
7
 10
-2.831804281345001
 20
108.0703363914407
 30
0
 40
49.39999999999664
 50
94.35356403545141
 51
94.64441895214388
  0
ARC
  8
1
 62
7
 10
-2.831804281338677
 20
108.0703363914373
 30
0
 40
45.0000000000002
 50
92.2287312128685
 51
92.54731818257842
  0
ARC
  8
1
 62
7
 10
-2.831804281345001
 20
108.0703363914407
 30
0
 40
49.39999999999654
 50
92.0301335547166
 51
92.32030134998519
  0
ARC
  8
1
 62
7
 10
-2.831804281338677
 20
108.0703363914373
 30
0
 40
44.99999999999969
 50
87.13401601740918
 51
87.45268181743769
  0
ARC
  8
1
 62
7
 10
-2.831804281345001
 20
108.0703363914407
 30
0
 40
49.39999999999662
 50
87.38947129829207
 51
87.67969865001483
  0
ARC
  8
1
 62
7
 10
-2.831804281338677
 20
108.0703363914373
 30
0
 40
45.00000000000628
 50
84.58065494338072
 51
84.90031108579072
  0
ARC
  8
1
 62
7
 10
-2.831804281345001
 20
108.0703363914407
 30
0
 40
49.3999999999966
 50
85.06460613275952
 51
85.3555810478555
  0
ARC
  8
1
 62
7
 10
-2.831804281345001
 20
108.0703363914537
 30
0
 40
37.49999999998364
 50
95.73917047726928
 51
96.12319886627208
  0
ARC
  8
1
 62
7
 10
-2.831804281352859
 20
108.0703363914373
 30
0
 40
43.39999999999215
 50
94.95685319842964
 51
95.28822195099781
  0
ARC
  8
1
 62
7
 10
-2.831804281345001
 20
108.0703363914537
 30
0
 40
37.49999999998365
 50
92.67477448773657
 51
93.05722542846063
  0
ARC
  8
1
 62
7
 10
-2.831804281352859
 20
108.0703363914373
 30
0
 40
43.39999999999216
 50
92.31094020909239
 51
92.64129392480098
  0
ARC
  8
1
 62
7
 10
-2.831804281352859
 20
108.0703363914373
 30
0
 40
43.39999999999217
 50
87.02826446547077
 51
87.35870607517826
  0
ARC
  8
1
 62
7
 10
-2.831804281345001
 20
108.0703363914537
 30
0
 40
37.49999999998359
 50
86.5601872324833
 51
86.94277457153936
  0
ARC
  8
1
 62
7
 10
-2.831804281352859
 20
108.0703363914373
 30
0
 40
43.39999999999217
 50
84.38023181133254
 51
84.71177804898137
  0
ARC
  8
1
 62
7
 10
-2.831804281345001
 20
108.0703363914537
 30
0
 40
37.49999999998376
 50
83.49249640825244
 51
83.8768011337279
  0
ARC
  8
1
 62
7
 10
-2.831804281345001
 20
108.0703363914373
 30
0
 40
29.99999999999951
 50
81.85569944553741
 51
82.33774433923394
  0
ARC
  8
1
 62
7
 10
-2.831804281345001
 20
108.0703363914327
 30
0
 40
35.90000000000453
 50
83.20112905857253
 51
83.60278585138846
  0
ARC
  8
1
 62
7
 10
-2.831804281345001
 20
108.0703363914373
 30
0
 40
30.00000000000002
 50
85.69877769532964
 51
86.17744627072561
  0
ARC
  8
1
 62
7
 10
-2.831804281345001
 20
108.0703363914327
 30
0
 40
35.9000000000046
 50
86.40668381543905
 51
86.8063811395724
  0
ARC
  8
1
 62
7
 10
-2.831804281345001
 20
108.0703363914373
 30
0
 40
29.99999999999952
 50
93.34415220445571
 51
93.82255372927435
  0
ARC
  8
1
 62
7
 10
-2.831804281345001
 20
108.0703363914327
 30
0
 40
35.90000000000461
 50
92.79407705771337
 51
93.19361886042759
  0
ARC
  8
1
 62
7
 10
-2.831804281345001
 20
108.0703363914327
 30
0
 40
35.9000000000046
 50
95.99587280802621
 51
96.39721414861155
  0
ARC
  8
1
 62
7
 10
-2.831804281345001
 20
108.0703363914373
 30
0
 40
29.99999999999996
 50
97.18075578145829
 51
97.66225566076606
  0
ARC
  8
1
 62
7
 10
-2.831804281345001
 20
108.0703363914373
 30
0
 40
22.50000000000004
 50
99.59406822686044
 51
100.2403483211862
  0
ARC
  8
1
 62
7
 10
-2.831804281346329
 20
108.0703363914373
 30
0
 40
28.39999999999984
 50
97.58762231423297
 51
98.09674976979233
  0
ARC
  8
1
 62
7
 10
-2.831804281345001
 20
108.0703363914373
 30
0
 40
22.49999999999968
 50
94.46084369787405
 51
95.09968891421734
  0
ARC
  8
1
 62
7
 10
-2.831804281346329
 20
108.0703363914373
 30
0
 40
28.39999999999992
 50
93.53278786364226
 51
94.03825659587329
  0
ARC
  8
1
 62
7
 10
-2.831804281345001
 20
108.0703363914373
 30
0
 40
22.49999999999994
 50
84.26082952273322
 51
84.90031108578258
  0
ARC
  8
1
 62
7
 10
-2.831804281346329
 20
108.0703363914373
 30
0
 40
28.40000000000007
 50
85.45595964911219
 51
85.96174340412134
  0
ARC
  8
1
 62
7
 10
-2.831804281345001
 20
108.0703363914373
 30
0
 40
22.4999999999996
 50
79.11205186987965
 51
79.75965167881377
  0
ARC
  8
1
 62
7
 10
-2.831804281346329
 20
108.0703363914373
 30
0
 40
28.40000000000017
 50
81.39347832793834
 51
81.90325023020189
  0
ARC
  8
1
 62
7
 10
-2.831804281345001
 20
108.0703363914373
 30
0
 40
14.50000000000003
 50
72.95615338490174
 51
73.98660557605156
  0
ARC
  8
1
 62
7
 10
-2.831804281345001
 20
108.0703363914373
 30
0
 40
20.90000000000013
 50
78.26711535420486
 51
78.96622831791052
  0
ARC
  8
1
 62
7
 10
-2.831804281345001
 20
108.0703363914373
 30
0
 40
14.50000000000002
 50
81.07320417895301
 51
82.0718582337978
  0
ARC
  8
1
 62
7
 10
-2.831804281345001
 20
108.0703363914373
 30
0
 40
20.90000000000014
 50
83.81981688358707
 51
84.50874759772955
  0
ARC
  8
1
 62
7
 10
-2.831804281345001
 20
108.0703363914373
 30
0
 40
14.50000000000002
 50
96.93190619758485
 51
97.92814176620219
  0
ARC
  8
1
 62
7
 10
-2.831804281345001
 20
108.0703363914373
 30
0
 40
20.89999999999997
 50
94.80311717767852
 51
95.49125240227043
  0
ARC
  8
1
 62
7
 10
-2.831804281345001
 20
108.0703363914373
 30
0
 40
14.50000000000007
 50
104.9882344823051
 51
106.0133944239484
  0
ARC
  8
1
 62
7
 10
-2.831804281345001
 20
108.0703363914373
 30
0
 40
20.89999999999998
 50
100.3363182480115
 51
101.0337716820895
  0
ARC
  8
1
 62
7
 10
-2.831804281345001
 20
108.0703363914373
 30
0
 40
12.89999999999998
 50
106.8997293832997
 51
108.06390222904
  0
ARC
  8
1
 62
7
 10
-2.831804281345001
 20
108.0703363914373
 30
0
 40
12.9000000000002
 50
97.7967234501419
 51
98.91904419403343
  0
ARC
  8
1
 62
7
 10
-2.831804281345001
 20
108.0703363914373
 30
0
 40
12.90000000000004
 50
79.95517372405207
 51
81.0809558059667
  0
ARC
  8
1
 62
7
 10
-2.831804281345001
 20
108.0703363914373
 30
0
 40
12.89999999999999
 50
70.76415696557798
 51
71.93609777095998
  0
ARC
  8
1
 62
7
 10
-65.13180428134504
 20
108.0703363914373
 30
0
 40
4.000000000000009
 50
150.0000000000001
 51
209.9999999999999
  0
ARC
  8
1
 62
7
 10
-2.831804281345007
 20
45.77033639143727
 30
0
 40
4.000000000000015
 50
240.0000000000001
 51
299.9999999999998
  0
ARC
  8
1
 62
7
 10
59.46819571865504
 20
108.0703363914373
 30
0
 40
4.000000000000009
 50
330.0000000000001
 51
29.99999999999994
  0
ARC
  8
1
 62
7
 10
-65.13180428134504
 20
108.0703363914373
 30
0
 40
4.000000000000009
 50
150.0000000000001
 51
209.9999999999999
  0
ARC
  8
1
 62
7
 10
-2.831804281345007
 20
45.77033639143727
 30
0
 40
4.000000000000015
 50
240.0000000000001
 51
299.9999999999998
  0
ARC
  8
1
 62
7
 10
59.46819571865504
 20
108.0703363914373
 30
0
 40
4.000000000000009
 50
330.0000000000001
 51
29.99999999999994
  0
ARC
  8
1
 62
7
 10
-65.13180428134504
 20
108.0703363914373
 30
0
 40
2.000000000000043
 50
109.6281838280143
 51
250.3718161719856
  0
ARC
  8
1
 62
7
 10
-2.831804281345007
 20
45.77033639143727
 30
0
 40
1.999999999999998
 50
199.6281838280148
 51
340.3718161719852
  0
ARC
  8
1
 62
7
 10
59.46819571865504
 20
108.0703363914373
 30
0
 40
2.000000000000029
 50
289.6281838280144
 51
70.37181617198475
  0
ARC
  8
1
 62
7
 10
155.7396332253077
 20
43.61121254188824
 30
0
 40
1.50000000000003
 50
60.75480764701183
 51
123.8961665633644
  0
ARC
  8
1
 62
7
 10
155.7396332253077
 20
172.5294602409864
 30
0
 40
1.499999999999997
 50
236.1038334366357
 51
299.2451923529885
  0
ARC
  8
1
 62
7
 10
149.3869807862704
 20
40.5703363914373
 30
0
 40
1.5
 50
270
 51
303.735123746499
  0
ARC
  8
1
 62
7
 10
148.9634555766828
 20
42.0703363914373
 30
0
 40
1
 50
270
 51
303.8961665633619
  0
ARC
  8
1
 62
7
 10
155.8126578500986
 20
41.85522073436524
 30
0
 40
1.000000000000055
 50
61.08352084907187
 51
123.7351237464964
  0
ARC
  8
1
 62
7
 10
149.3869807862704
 20
175.5703363914373
 30
0
 40
1.500000000000023
 50
56.26487625350194
 51
90
  0
ARC
  8
1
 62
7
 10
148.9634555766828
 20
174.0703363914373
 30
0
 40
0.9999999999999849
 50
56.10383343663785
 51
90
  0
ARC
  8
1
 62
7
 10
155.8126578500986
 20
174.2854520485094
 30
0
 40
0.9999999999999968
 50
236.2648762535045
 51
298.9164791509257
  0
ARC
  8
1
 62
7
 10
0.1681957186549994
 20
176.0703363914373
 30
0
 40
0.9999999999999996
 50
0
 51
90
  0
ARC
  8
1
 62
7
 10
0.1681957186549994
 20
176.0703363914373
 30
0
 40
1
 50
90
 51
180
  0
ARC
  8
1
 62
7
 10
-5.831804281345001
 20
176.0703363914373
 30
0
 40
1
 50
0
 51
90
  0
ARC
  8
1
 62
7
 10
-5.831804281345001
 20
176.0703363914373
 30
0
 40
1
 50
90
 51
180
  0
ARC
  8
1
 62
7
 10
155.268195718655
 20
108.0703363914373
 30
0
 40
3.999999999999994
 50
277.5467718575839
 51
0
  0
ARC
  8
1
 62
7
 10
155.268195718655
 20
108.0703363914373
 30
0
 40
4.000000000000009
 50
82.45322814241612
 51
90
  0
ARC
  8
1
 62
7
 10
116.568195718655
 20
104.8703363914373
 30
0
 40
0.8000000000000114
 50
180
 51
270
  0
ARC
  8
1
 62
7
 10
116.568195718655
 20
105.2703363914373
 30
0
 40
0.7999999999999972
 50
90
 51
180
  0
ARC
  8
1
 62
7
 10
116.568195718655
 20
111.2703363914373
 30
0
 40
0.7999999999999972
 50
90
 51
180
  0
ARC
  8
1
 62
7
 10
116.568195718655
 20
110.8703363914373
 30
0
 40
0.8000000000000114
 50
180
 51
270
  0
ARC
  8
1
 62
7
 10
155.268195718655
 20
108.0703363914373
 30
0
 40
2.00000000000004
 50
74.77139240029159
 51
90
  0
ARC
  8
1
 62
7
 10
114.968195718655
 20
170.2703363914373
 30
0
 40
0.7999999999999972
 50
0
 51
180
  0
ARC
  8
1
 62
7
 10
114.968195718655
 20
45.87033639143731
 30
0
 40
0.7999999999999972
 50
180
 51
0
  0
ARC
  8
1
 62
7
 10
119.768195718655
 20
173.0703363914373
 30
0
 40
4
 50
90
 51
180
  0
ARC
  8
1
 62
7
 10
119.768195718655
 20
43.0703363914373
 30
0
 40
4
 50
180
 51
270
  0
ARC
  8
1
 62
7
 10
119.768195718655
 20
43.0703363914373
 30
0
 40
2
 50
180
 51
270
  0
ARC
  8
1
 62
7
 10
119.768195718655
 20
173.0703363914373
 30
0
 40
2
 50
90
 51
180
  0
ARC
  8
1
 62
7
 10
-70.831804281345
 20
111.0703363914373
 30
0
 40
1
 50
90
 51
180
  0
ARC
  8
1
 62
7
 10
-70.831804281345
 20
111.0703363914373
 30
0
 40
1
 50
180
 51
270
  0
ARC
  8
1
 62
7
 10
-70.831804281345
 20
105.0703363914373
 30
0
 40
1
 50
90
 51
180
  0
ARC
  8
1
 62
7
 10
-70.831804281345
 20
105.0703363914373
 30
0
 40
1
 50
180
 51
270
  0
ARC
  8
1
 62
7
 10
-5.831804281345008
 20
40.07033639143731
 30
0
 40
1
 50
180
 51
270
  0
ARC
  8
1
 62
7
 10
-5.831804281345008
 20
40.07033639143731
 30
0
 40
1
 50
270
 51
0
  0
ARC
  8
1
 62
7
 10
0.1681957186549923
 20
40.07033639143731
 30
0
 40
1
 50
180
 51
270
  0
ARC
  8
1
 62
7
 10
0.1681957186549923
 20
40.07033639143731
 30
0
 40
1
 50
270
 51
0
  0
ARC
  8
1
 62
7
 10
65.168195718655
 20
105.0703363914373
 30
0
 40
1
 50
270
 51
0
  0
ARC
  8
1
 62
7
 10
65.168195718655
 20
105.0703363914373
 30
0
 40
1
 50
0
 51
90
  0
ARC
  8
1
 62
7
 10
65.168195718655
 20
111.0703363914373
 30
0
 40
1
 50
270
 51
0
  0
ARC
  8
1
 62
7
 10
65.168195718655
 20
111.0703363914373
 30
0
 40
1
 50
0
 51
90
  0
ARC
  8
1
 62
7
 10
155.268195718655
 20
108.0703363914373
 30
0
 40
4
 50
0
 51
82.45322814241612
  0
ARC
  8
1
 62
7
 10
155.268195718655
 20
108.0703363914373
 30
0
 40
2.000000000000026
 50
285.2286075997085
 51
74.77139240029159
  0
ARC
  8
1
 62
7
 10
155.268195718655
 20
108.0703363914373
 30
0
 40
4
 50
270
 51
277.5467718575839
  0
ARC
  8
1
 62
7
 10
155.268195718655
 20
108.0703363914373
 30
0
 40
2
 50
270
 51
285.2286075997085
  0
TEXT
  8
1
 62
2
 10
115.7821595298585
 20
2.479840033216659
 30
0
 40
5
  1
SCN¶B°ÄB
 41
0.9
  0
ENDSEC
  0
EOF
