  0
SECTION
  2
HEADER
  9
$ACADVER
  1
AC1003
  9
$INSBASE
 10
0.000000
 20
0.000000
  9
$EXTMIN
 10
0.000000
 20
0.000000
  9
$EXTMAX
 10
420.000000
 20
297.000000
  9
$LIMMIN
 10
0.000000
 20
0.000000
  9
$LIMMAX
 10
420.000000
 20
297.000000
  9
$VIEWCTR
 10
210.000000
 20
148.500000
  9
$VIEWSIZE
 40
297.000000
  9
$PEXTMIN
 10
0.000000
 20
0.000000
 30
0.000000
  9
$PEXTMAX
 10
420.000000
 20
297.000000
 30
0.000000
  9
$SNAPMODE
 70
     0
  9
$SNAPUNIT
 10
1.000000
 20
1.000000
  9
$SNAPBASE
 10
0.000000
 20
0.000000
  9
$SNAPANG
 50
0.000000
  9
$SNAPISOPAIR
 70
     0
  9
$SNAPSTYLE
 70
     0
  9
$GRIDMODE
 70
     0
  9
$GRIDUNIT
 10
0.000000
 20
0.000000
  9
$ORTHOMODE
 70
     0
  9
$REGENMODE
 70
     1
  9
$FILLMODE
 70
     1
  9
$QTEXTMODE
 70
     0
  9
$DRAGMODE
 70
     2
  9
$LTSCALE
 40
0.250000
  9
$OSMODE
 70
     0
  9
$ATTMODE
 70
     1
  9
$TEXTSIZE
 40
0.200000
  9
$TRACEWID
 40
0.050000
  9
$TEXTSTYLE
  7
STANDARD
  9
$CLAYER
  8
0
  9
$CELTYPE
  6
BYLAYER
  9
$CECOLOR
 62
   256
  9
$DIMSCALE
 40
1.000000
  9
$DIMASZ
 40
1.000000
  9
$DIMEXO
 40
0.000000
  9
$DIMDLI
 40
0.500000
  9
$DIMRND
 40
0.000000
  9
$DIMDLE
 40
0.000000
  9
$DIMEXE
 40
0.000000
  9
$DIMTP
 40
0.000000
  9
$DIMTM
 40
0.000000
  9
$DIMTXT
 40
0.180000
  9
$DIMCEN
 40
0.000000
  9
$DIMTSZ
 40
0.000000
  9
$DIMTOL
 70
     0
  9
$DIMLIM
 70
     0
  9
$DIMTIH
 70
     1
  9
$DIMTOH
 70
     1
  9
$DIMSE1
 70
     0
  9
$DIMSE2
 70
     0
  9
$DIMTAD
 70
     0
  9
$DIMZIN
 70
     0
  9
$DIMBLK
  1

  9
$DIMASO
 70
     0
  9
$DIMSHO
 70
     0
  9
$DIMPOST
  1

  9
$DIMAPOST
  1

  9
$DIMALT
 70
     0
  9
$DIMALTD
 70
     0
  9
$DIMALTF
 40
25.400000
  9
$DIMLFAC
 40
1.000000
  9
$DIMTOFL
 70
     0
  9
$DIMTVP
 40
0.000000
  9
$DIMTIX
 70
     0
  9
$DIMSOXD
 70
     0
  9
$DIMSAH
 70
     0
  9
$DIMBLKL
  1

  9
$DIMBLKR
  1

  9
$LUNITS
 70
     2
  9
$LUPREC
 70
     2
  9
$AXISMODE
 70
     0
  9
$AXISUNIT
 10
1.000000
 20
1.000000
  9
$SKETCHINC
 40
0.000000
  9
$FILLETRAD
 40
0.000000
  9
$AUNITS
 70
     1
  9
$AUPREC
 70
     2
  9
$MENU
  1
ACAD
  9
$ELEVATION
 40
0.000000
  9
$THICKNESS
 40
0.000000
  9
$VIEWDIR
 10
0.000000
 20
0.000000
 30
1.000000
  9
$LIMCHECK
 70
     1
  9
$BLIPMODE
 70
     1
  9
$CHAMFERA
 40
0.000000
  9
$CHAMFERB
 40
0.000000
  9
$FASTZOOM
 70
     1
  9
$SKPOLY
 70
     0
  9
$TDCREATE
 40
0.000000
  9
$TDUPDATE
 40
0.000000
  9
$TDINDWG
 40
0.000000
  9
$TDUSRTIMER
 40
0.000000
  9
$USRTIMER
 70
     1
  9
$ANGBASE
 50
0.000000
  9
$ANGDIR
 70
     0
  9
$PDMODE
 70
     0
  9
$PDSIZE
 40
0.000000
  9
$PLINEWID
 40
0.000000
  9
$COORDS
 70
     2
  9
$USERI1
 70
     0
  9
$USERI2
 70
     0
  9
$USERI3
 70
     0
  9
$USERI4
 70
     0
  9
$USERI5
 70
     0
  9
$USERR1
 40
0.000000
  9
$USERR2
 40
0.000000
  9
$USERR3
 40
0.000000
  9
$USERR4
 40
0.000000
  9
$USERR5
 40
0.000000
  0
ENDSEC
  0
SECTION
  2
TABLES
  0
TABLE
  2
LTYPE
 70
     5
  0
LTYPE
  2
CONTINUOUS
 70
    64
  3
Solid line
 72
    65
 73
     0
 40
0.0
  0
LTYPE
  2
HIDDEN
 70
    64
  3
------------------------
 72
    65
 73
     2
 40
12.6
 49
8.4
 49
-4.2
  0
LTYPE
  2
DOT
 70
    64
  3
････････････････････････
 72
    65
 73
     2
 40
8.0
 49
6.0
 49
-2.0
  0
LTYPE
  2
DASHDOT
 70
    64
  3
--･--･--･--･--･--･--･--
 72
    65
 73
     4
 40
50.5
 49
30.0
 49
-9.0
 49
2.5
 49
-9.0
  0
LTYPE
  2
DIVIDE
 70
    64
  3
--･･--･･--･･--･･--･･--
 72
    65
 73
     6
 40
58.0
 49
30.0
 49
-9.0
 49
2.5
 49
-5.0
 49
2.5
 49
-9.0
  0
ENDTAB
  0
TABLE
  2
LAYER
 70
1
  0
LAYER
  2
1
 70
64
 62
7
  6
CONTINUOUS
  0
ENDTAB
  0
TABLE
  2
STYLE
 70
     2
  0
STYLE
  2
STANDARD
 70
    64
 40
0.0
 41
1.0
 50
0.0
 71
     0
 42
0.2
  3
TXT
  4

  0
STYLE
  2
KANJI
 70
    64
 40
0.0
 41
1.0
 50
0.0
 71
     0
 42
0.2
  3
TXT
  4
BIGFONT
  0
ENDTAB
  0
TABLE
  2
VIEW
 70
     0
  0
ENDTAB
  0
ENDSEC
  0
SECTION
  2
BLOCKS
  0
ENDSEC
  0
SECTION
  2
ENTITIES
  0
LINE
  8
1
 62
7
  6
CONTINUOUS
 10
165.107894
 20
126.668840
 11
165.760957
 21
127.321903
  0
LINE
  8
1
 62
7
  6
CONTINUOUS
 10
165.186717
 20
123.919236
 11
168.589384
 21
127.321903
  0
LINE
  8
1
 62
7
  6
CONTINUOUS
 10
167.917811
 20
123.821903
 11
171.417811
 21
127.321903
  0
LINE
  8
1
 62
7
  6
CONTINUOUS
 10
170.746238
 20
123.821903
 11
174.246238
 21
127.321903
  0
LINE
  8
1
 62
7
  6
CONTINUOUS
 10
173.574665
 20
123.821903
 11
177.002752
 21
127.249990
  0
LINE
  8
1
 62
7
  6
CONTINUOUS
 10
176.403092
 20
123.821903
 11
177.107894
 21
124.526705
  0
LINE
  8
1
 62
7
  6
CONTINUOUS
 10
212.067166
 20
85.852928
 11
212.067166
 21
90.852928
  0
LINE
  8
1
 62
7
  6
CONTINUOUS
 10
262.067166
 20
85.852928
 11
262.067166
 21
80.852928
  0
LINE
  8
1
 62
7
  6
CONTINUOUS
 10
252.067166
 20
85.852928
 11
252.067166
 21
80.852928
  0
LINE
  8
1
 62
7
  6
CONTINUOUS
 10
202.067166
 20
85.852928
 11
202.067166
 21
80.852928
  0
LINE
  8
1
 62
7
  6
CONTINUOUS
 10
252.067166
 20
85.852928
 11
252.067166
 21
95.852928
  0
LINE
  8
1
 62
7
  6
CONTINUOUS
 10
202.067166
 20
80.852928
 11
262.067166
 21
80.852928
  0
LINE
  8
1
 62
7
  6
CONTINUOUS
 10
210.110913
 20
49.097477
 11
217.310913
 21
49.097477
  0
LINE
  8
1
 62
7
  6
CONTINUOUS
 10
210.110913
 20
49.601477
 11
210.110913
 21
49.097477
  0
LINE
  8
1
 62
7
  6
CONTINUOUS
 10
217.310913
 20
49.601477
 11
210.110913
 21
49.601477
  0
LINE
  8
1
 62
7
  6
CONTINUOUS
 10
217.310913
 20
49.853477
 11
217.310913
 21
48.845477
  0
LINE
  8
1
 62
7
  6
CONTINUOUS
 10
210.110913
 20
46.937477
 11
217.310913
 21
46.937477
  0
LINE
  8
1
 62
7
  6
CONTINUOUS
 10
210.110913
 20
47.441477
 11
210.110913
 21
46.937477
  0
LINE
  8
1
 62
7
  6
CONTINUOUS
 10
217.310913
 20
47.441477
 11
210.110913
 21
47.441477
  0
LINE
  8
1
 62
7
  6
CONTINUOUS
 10
217.310913
 20
47.693477
 11
217.310913
 21
46.685477
  0
LINE
  8
1
 62
7
  6
CONTINUOUS
 10
210.110913
 20
44.777477
 11
217.310913
 21
44.777477
  0
LINE
  8
1
 62
7
  6
CONTINUOUS
 10
210.110913
 20
45.281477
 11
210.110913
 21
44.777477
  0
LINE
  8
1
 62
7
  6
CONTINUOUS
 10
217.310913
 20
45.281477
 11
210.110913
 21
45.281477
  0
LINE
  8
1
 62
7
  6
CONTINUOUS
 10
217.310913
 20
45.533477
 11
217.310913
 21
44.525477
  0
LINE
  8
1
 62
7
  6
CONTINUOUS
 10
210.110913
 20
42.617477
 11
217.310913
 21
42.617477
  0
LINE
  8
1
 62
7
  6
CONTINUOUS
 10
210.110913
 20
43.121477
 11
210.110913
 21
42.617477
  0
LINE
  8
1
 62
7
  6
CONTINUOUS
 10
217.310913
 20
43.121477
 11
210.110913
 21
43.121477
  0
LINE
  8
1
 62
7
  6
CONTINUOUS
 10
217.310913
 20
43.373477
 11
217.310913
 21
42.365477
  0
LINE
  8
1
 62
7
  6
CONTINUOUS
 10
210.110913
 20
40.457477
 11
217.310913
 21
40.457477
  0
LINE
  8
1
 62
7
  6
CONTINUOUS
 10
210.110913
 20
40.961477
 11
210.110913
 21
40.457477
  0
LINE
  8
1
 62
7
  6
CONTINUOUS
 10
217.310913
 20
40.961477
 11
210.110913
 21
40.961477
  0
LINE
  8
1
 62
7
  6
CONTINUOUS
 10
217.310913
 20
41.213477
 11
217.310913
 21
40.205477
  0
LINE
  8
1
 62
7
  6
CONTINUOUS
 10
210.110913
 20
38.297477
 11
217.310913
 21
38.297477
  0
LINE
  8
1
 62
7
  6
CONTINUOUS
 10
210.110913
 20
38.801477
 11
210.110913
 21
38.297477
  0
LINE
  8
1
 62
7
  6
CONTINUOUS
 10
217.310913
 20
38.801477
 11
210.110913
 21
38.801477
  0
LINE
  8
1
 62
7
  6
CONTINUOUS
 10
217.310913
 20
39.053477
 11
217.310913
 21
38.045477
  0
LINE
  8
1
 62
7
  6
CONTINUOUS
 10
210.110913
 20
36.137477
 11
217.310913
 21
36.137477
  0
LINE
  8
1
 62
7
  6
CONTINUOUS
 10
210.110913
 20
36.641477
 11
210.110913
 21
36.137477
  0
LINE
  8
1
 62
7
  6
CONTINUOUS
 10
217.310913
 20
36.641477
 11
210.110913
 21
36.641477
  0
LINE
  8
1
 62
7
  6
CONTINUOUS
 10
217.310913
 20
36.893477
 11
217.310913
 21
35.885477
  0
LINE
  8
1
 62
7
  6
CONTINUOUS
 10
210.110913
 20
33.977477
 11
217.310913
 21
33.977477
  0
LINE
  8
1
 62
7
  6
CONTINUOUS
 10
210.110913
 20
34.481477
 11
210.110913
 21
33.977477
  0
LINE
  8
1
 62
7
  6
CONTINUOUS
 10
217.310913
 20
34.481477
 11
210.110913
 21
34.481477
  0
LINE
  8
1
 62
7
  6
CONTINUOUS
 10
217.310913
 20
34.733477
 11
217.310913
 21
33.725477
  0
LINE
  8
1
 62
7
  6
CONTINUOUS
 10
210.110913
 20
31.817477
 11
217.310913
 21
31.817477
  0
LINE
  8
1
 62
7
  6
CONTINUOUS
 10
210.110913
 20
32.321477
 11
210.110913
 21
31.817477
  0
LINE
  8
1
 62
7
  6
CONTINUOUS
 10
217.310913
 20
32.321477
 11
210.110913
 21
32.321477
  0
LINE
  8
1
 62
7
  6
CONTINUOUS
 10
217.310913
 20
32.573477
 11
217.310913
 21
31.565477
  0
LINE
  8
1
 62
7
  6
CONTINUOUS
 10
266.720724
 20
38.045477
 11
245.798226
 21
38.045477
  0
LINE
  8
1
 62
7
  6
CONTINUOUS
 10
266.720724
 20
40.205477
 11
245.948075
 21
40.205477
  0
LINE
  8
1
 62
7
  6
CONTINUOUS
 10
266.720724
 20
41.213477
 11
246.267306
 21
41.213477
  0
LINE
  8
1
 62
7
  6
CONTINUOUS
 10
266.720724
 20
43.373477
 11
247.125765
 21
43.373477
  0
LINE
  8
1
 62
7
  6
CONTINUOUS
 10
267.152724
 20
40.349477
 11
267.152724
 21
51.329477
  0
LINE
  8
1
 62
7
  6
CONTINUOUS
 10
267.584724
 20
38.909477
 11
267.584724
 21
28.469477
  0
LINE
  8
1
 62
7
  6
CONTINUOUS
 10
266.720724
 20
40.349477
 11
267.584724
 21
40.349477
  0
LINE
  8
1
 62
7
  6
CONTINUOUS
 10
266.720724
 20
38.909477
 11
267.584724
 21
38.909477
  0
LINE
  8
1
 62
7
  6
CONTINUOUS
 10
271.904724
 20
38.909477
 11
271.904724
 21
40.349477
  0
LINE
  8
1
 62
7
  6
CONTINUOUS
 10
273.344724
 20
38.909477
 11
271.904724
 21
38.909477
  0
LINE
  8
1
 62
7
  6
CONTINUOUS
 10
273.344724
 20
40.349477
 11
273.344724
 21
38.909477
  0
LINE
  8
1
 62
7
  6
CONTINUOUS
 10
271.904724
 20
40.349477
 11
273.344724
 21
40.349477
  0
LINE
  8
1
 62
7
  6
CONTINUOUS
 10
274.064724
 20
28.469477
 11
274.064724
 21
50.789477
  0
LINE
  8
1
 62
7
  6
CONTINUOUS
 10
267.584724
 20
50.789477
 11
267.584724
 21
40.349477
  0
LINE
  8
1
 62
7
  6
CONTINUOUS
 10
267.152724
 20
51.329477
 11
267.584724
 21
50.789477
  0
LINE
  8
1
 62
7
  6
CONTINUOUS
 10
267.152724
 20
51.329477
 11
266.720724
 21
51.329477
  0
LINE
  8
1
 62
7
  6
CONTINUOUS
 10
267.152724
 20
27.929477
 11
267.152724
 21
38.909477
  0
LINE
  8
1
 62
7
  6
CONTINUOUS
 10
274.352724
 20
28.469477
 11
274.352724
 21
50.789477
  0
LINE
  8
1
 62
7
  6
CONTINUOUS
 10
267.152724
 20
27.929477
 11
267.584724
 21
28.469477
  0
LINE
  8
1
 62
7
  6
CONTINUOUS
 10
267.584724
 20
28.469477
 11
274.352724
 21
28.469477
  0
LINE
  8
1
 62
7
  6
CONTINUOUS
 10
246.903252
 20
29.405477
 11
217.310913
 21
29.405477
  0
LINE
  8
1
 62
7
  6
CONTINUOUS
 10
247.057528
 20
30.413477
 11
217.310913
 21
30.413477
  0
LINE
  8
1
 62
7
  6
CONTINUOUS
 10
247.030356
 20
31.565477
 11
217.310913
 21
31.565477
  0
LINE
  8
1
 62
7
  6
CONTINUOUS
 10
246.790147
 20
32.573477
 11
217.310913
 21
32.573477
  0
LINE
  8
1
 62
7
  6
CONTINUOUS
 10
246.302267
 20
33.725477
 11
217.310913
 21
33.725477
  0
LINE
  8
1
 62
7
  6
CONTINUOUS
 10
245.771442
 20
34.733477
 11
217.310913
 21
34.733477
  0
LINE
  8
1
 62
7
  6
CONTINUOUS
 10
245.152432
 20
35.885477
 11
217.310913
 21
35.885477
  0
LINE
  8
1
 62
7
  6
CONTINUOUS
 10
244.690493
 20
36.893477
 11
217.310913
 21
36.893477
  0
LINE
  8
1
 62
7
  6
CONTINUOUS
 10
244.358226
 20
38.045477
 11
217.310913
 21
38.045477
  0
LINE
  8
1
 62
7
  6
CONTINUOUS
 10
244.311147
 20
39.053477
 11
217.310913
 21
39.053477
  0
LINE
  8
1
 62
7
  6
CONTINUOUS
 10
244.508075
 20
40.205477
 11
217.310913
 21
40.205477
  0
LINE
  8
1
 62
7
  6
CONTINUOUS
 10
244.827306
 20
41.213477
 11
217.310913
 21
41.213477
  0
LINE
  8
1
 62
7
  6
CONTINUOUS
 10
245.278936
 20
42.365477
 11
217.310913
 21
42.365477
  0
LINE
  8
1
 62
7
  6
CONTINUOUS
 10
245.685765
 20
43.373477
 11
217.310913
 21
43.373477
  0
LINE
  8
1
 62
7
  6
CONTINUOUS
 10
246.089927
 20
44.525477
 11
217.310913
 21
44.525477
  0
LINE
  8
1
 62
7
  6
CONTINUOUS
 10
246.329476
 20
45.533477
 11
217.310913
 21
45.533477
  0
LINE
  8
1
 62
7
  6
CONTINUOUS
 10
246.419623
 20
46.685477
 11
217.310913
 21
46.685477
  0
LINE
  8
1
 62
7
  6
CONTINUOUS
 10
246.351413
 20
47.693477
 11
217.310913
 21
47.693477
  0
LINE
  8
1
 62
7
  6
CONTINUOUS
 10
246.136988
 20
48.845477
 11
217.310913
 21
48.845477
  0
LINE
  8
1
 62
7
  6
CONTINUOUS
 10
245.856334
 20
49.853477
 11
217.310913
 21
49.853477
  0
LINE
  8
1
 62
7
  6
CONTINUOUS
 10
266.720724
 20
30.413477
 11
248.497528
 21
30.413477
  0
LINE
  8
1
 62
7
  6
CONTINUOUS
 10
266.720724
 20
32.573477
 11
248.230147
 21
32.573477
  0
LINE
  8
1
 62
7
  6
CONTINUOUS
 10
266.720724
 20
33.725477
 11
247.742267
 21
33.725477
  0
LINE
  8
1
 62
7
  6
CONTINUOUS
 10
266.720724
 20
35.885477
 11
246.592432
 21
35.885477
  0
LINE
  8
1
 62
7
  6
CONTINUOUS
 10
266.715346
 20
39.053477
 11
245.751147
 21
39.053477
  0
LINE
  8
1
 62
7
  6
CONTINUOUS
 10
266.720724
 20
44.525477
 11
247.529927
 21
44.525477
  0
LINE
  8
1
 62
7
  6
CONTINUOUS
 10
266.728133
 20
46.685477
 11
247.859623
 21
46.685477
  0
LINE
  8
1
 62
7
  6
CONTINUOUS
 10
266.720724
 20
29.405477
 11
248.343252
 21
29.405477
  0
LINE
  8
1
 62
7
  6
CONTINUOUS
 10
266.720724
 20
31.565477
 11
248.470356
 21
31.565477
  0
LINE
  8
1
 62
7
  6
CONTINUOUS
 10
266.720724
 20
34.733477
 11
247.211442
 21
34.733477
  0
LINE
  8
1
 62
7
  6
CONTINUOUS
 10
266.720724
 20
36.893477
 11
246.130493
 21
36.893477
  0
LINE
  8
1
 62
7
  6
CONTINUOUS
 10
266.720724
 20
42.365477
 11
246.718936
 21
42.365477
  0
LINE
  8
1
 62
7
  6
CONTINUOUS
 10
266.720724
 20
45.533477
 11
247.769476
 21
45.533477
  0
LINE
  8
1
 62
7
  6
CONTINUOUS
 10
266.682218
 20
47.693477
 11
247.791413
 21
47.693477
  0
LINE
  8
1
 62
7
  6
CONTINUOUS
 10
266.720724
 20
48.845477
 11
247.576988
 21
48.845477
  0
LINE
  8
1
 62
7
  6
CONTINUOUS
 10
210.110913
 20
29.657477
 11
217.310913
 21
29.657477
  0
LINE
  8
1
 62
7
  6
CONTINUOUS
 10
210.110913
 20
30.161477
 11
210.110913
 21
29.657477
  0
LINE
  8
1
 62
7
  6
CONTINUOUS
 10
217.310913
 20
30.161477
 11
210.110913
 21
30.161477
  0
LINE
  8
1
 62
7
  6
CONTINUOUS
 10
217.310913
 20
30.413477
 11
217.310913
 21
29.405477
  0
LINE
  8
1
 62
7
  6
CONTINUOUS
 10
266.743431
 20
49.853477
 11
247.296334
 21
49.853477
  0
LINE
  8
1
 62
7
  6
CONTINUOUS
 10
266.720724
 20
27.929477
 11
267.152724
 21
27.929477
  0
LINE
  8
1
 62
7
  6
CONTINUOUS
 10
266.720724
 20
51.329477
 11
266.720724
 21
27.929477
  0
LINE
  8
1
 62
7
  6
CONTINUOUS
 10
274.352724
 20
50.789477
 11
267.584724
 21
50.789477
  0
LINE
  8
1
 62
7
  6
CONTINUOUS
 10
283.475225
 20
42.665717
 11
290.675225
 21
42.665717
  0
LINE
  8
1
 62
7
  6
CONTINUOUS
 10
283.475225
 20
43.169717
 11
283.475225
 21
42.665717
  0
LINE
  8
1
 62
7
  6
CONTINUOUS
 10
290.675225
 20
43.169717
 11
283.475225
 21
43.169717
  0
LINE
  8
1
 62
7
  6
CONTINUOUS
 10
290.675225
 20
43.457717
 11
290.675225
 21
42.377717
  0
LINE
  8
1
 62
7
  6
CONTINUOUS
 10
290.675225
 20
43.457717
 11
320.893358
 21
43.457717
  0
LINE
  8
1
 62
7
  6
CONTINUOUS
 10
320.965824
 20
42.377717
 11
290.675225
 21
42.377717
  0
LINE
  8
1
 62
7
  6
CONTINUOUS
 10
349.650557
 20
40.937717
 11
341.874557
 21
40.937717
  0
LINE
  8
1
 62
7
  6
CONTINUOUS
 10
343.530557
 20
49.478522
 11
343.530557
 21
50.441717
  0
LINE
  8
1
 62
7
  6
CONTINUOUS
 10
344.780418
 20
50.441717
 11
353.817781
 21
50.441717
  0
LINE
  8
1
 62
7
  6
CONTINUOUS
 10
354.186557
 20
50.041288
 11
354.186557
 21
49.001717
  0
LINE
  8
1
 62
7
  6
CONTINUOUS
 10
349.650557
 20
47.921717
 11
349.443924
 21
47.921717
  0
LINE
  8
1
 62
7
  6
CONTINUOUS
 10
347.892184
 20
48.281717
 11
347.892184
 21
48.785717
  0
LINE
  8
1
 62
7
  6
CONTINUOUS
 10
347.676184
 20
49.001717
 11
347.561145
 21
49.001717
  0
LINE
  8
1
 62
7
  6
CONTINUOUS
 10
347.561145
 20
49.001717
 11
343.530557
 21
49.478522
  0
LINE
  8
1
 62
7
  6
CONTINUOUS
 10
349.083924
 20
49.001717
 11
349.083924
 21
49.842665
  0
LINE
  8
1
 62
7
  6
CONTINUOUS
 10
349.083924
 20
49.842665
 11
345.012145
 21
49.842665
  0
LINE
  8
1
 62
7
  6
CONTINUOUS
 10
345.012145
 20
49.842665
 11
344.780418
 21
50.173703
  0
LINE
  8
1
 62
7
  6
CONTINUOUS
 10
344.780418
 20
50.736470
 11
344.780418
 21
50.173703
  0
LINE
  8
1
 62
7
  6
CONTINUOUS
 10
343.530557
 20
50.441717
 11
343.530557
 21
50.736470
  0
LINE
  8
1
 62
7
  6
CONTINUOUS
 10
343.530557
 20
50.736470
 11
344.780418
 21
50.736470
  0
LINE
  8
1
 62
7
  6
CONTINUOUS
 10
353.817781
 20
50.441717
 11
354.186557
 21
50.041288
  0
LINE
  8
1
 62
7
  6
CONTINUOUS
 10
354.186557
 20
49.001717
 11
353.155703
 21
47.921717
  0
LINE
  8
1
 62
7
  6
CONTINUOUS
 10
353.155703
 20
47.921717
 11
352.026557
 21
47.921717
  0
LINE
  8
1
 62
7
  6
CONTINUOUS
 10
349.083924
 20
48.281717
 11
349.083924
 21
49.001717
  0
LINE
  8
1
 62
7
  6
CONTINUOUS
 10
349.083924
 20
49.001717
 11
352.026557
 21
49.001717
  0
LINE
  8
1
 62
7
  6
CONTINUOUS
 10
352.026557
 20
49.001717
 11
352.026557
 21
47.921717
  0
LINE
  8
1
 62
7
  6
CONTINUOUS
 10
355.986557
 20
44.681717
 11
349.650557
 21
44.681717
  0
LINE
  8
1
 62
7
  6
CONTINUOUS
 10
355.986557
 20
44.177717
 11
349.650557
 21
44.177717
  0
LINE
  8
1
 62
7
  6
CONTINUOUS
 10
349.650557
 20
40.937717
 11
349.650557
 21
47.921717
  0
LINE
  8
1
 62
7
  6
CONTINUOUS
 10
341.874557
 20
47.921717
 11
341.874557
 21
40.937717
  0
LINE
  8
1
 62
7
  6
CONTINUOUS
 10
355.986557
 20
41.657717
 11
355.986557
 21
44.177717
  0
LINE
  8
1
 62
7
  6
CONTINUOUS
 10
355.986557
 20
47.201717
 11
349.650557
 21
47.201717
  0
LINE
  8
1
 62
7
  6
CONTINUOUS
 10
349.650557
 20
41.657717
 11
355.986557
 21
41.657717
  0
LINE
  8
1
 62
7
  6
CONTINUOUS
 10
355.986557
 20
44.681717
 11
355.986557
 21
47.201717
  0
LINE
  8
1
 62
7
  6
CONTINUOUS
 10
320.441639
 20
45.401717
 11
290.675225
 21
45.401717
  0
LINE
  8
1
 62
7
  6
CONTINUOUS
 10
290.675225
 20
46.481717
 11
320.893358
 21
46.481717
  0
LINE
  8
1
 62
7
  6
CONTINUOUS
 10
283.475225
 20
45.689717
 11
290.675225
 21
45.689717
  0
LINE
  8
1
 62
7
  6
CONTINUOUS
 10
283.475225
 20
46.193717
 11
283.475225
 21
45.689717
  0
LINE
  8
1
 62
7
  6
CONTINUOUS
 10
290.675225
 20
46.193717
 11
283.475225
 21
46.193717
  0
LINE
  8
1
 62
7
  6
CONTINUOUS
 10
290.675225
 20
46.481717
 11
290.675225
 21
45.401717
  0
LINE
  8
1
 62
7
  6
CONTINUOUS
 10
341.874557
 20
42.377717
 11
321.657218
 21
42.377717
  0
LINE
  8
1
 62
7
  6
CONTINUOUS
 10
341.874557
 20
43.457717
 11
321.555834
 21
43.457717
  0
LINE
  8
1
 62
7
  6
CONTINUOUS
 10
341.874557
 20
45.401717
 11
321.133033
 21
45.401717
  0
LINE
  8
1
 62
7
  6
CONTINUOUS
 10
341.874557
 20
46.481717
 11
321.584752
 21
46.481717
  0
LINE
  8
1
 62
7
  6
CONTINUOUS
 10
341.874557
 20
47.921717
 11
349.650557
 21
47.921717
  0
LINE
  8
1
 62
7
  6
CONTINUOUS
 10
262.067166
 20
85.852928
 11
262.067166
 21
100.852928
  0
LINE
  8
1
 62
7
  6
CONTINUOUS
 10
202.067166
 20
85.852928
 11
202.067166
 21
100.852928
  0
LINE
  8
1
 62
7
  6
CONTINUOUS
 10
212.067166
 20
80.852928
 11
212.067166
 21
85.852928
  0
LINE
  8
1
 62
7
  6
CONTINUOUS
 10
202.067166
 20
100.852928
 11
262.067166
 21
100.852928
  0
LINE
  8
1
 62
7
  6
CONTINUOUS
 10
202.067166
 20
95.852928
 11
262.067166
 21
95.852928
  0
LINE
  8
1
 62
7
  6
CONTINUOUS
 10
202.067166
 20
90.852928
 11
262.067166
 21
90.852928
  0
LINE
  8
1
 62
7
  6
CONTINUOUS
 10
202.067166
 20
85.852928
 11
262.067166
 21
85.852928
  0
LINE
  8
1
 62
7
  6
CONTINUOUS
 10
183.698512
 20
116.891336
 11
183.698512
 21
111.891336
  0
LINE
  8
1
 62
7
  6
CONTINUOUS
 10
181.198512
 20
114.391336
 11
186.198512
 21
114.391336
  0
LINE
  8
1
 62
7
  6
CONTINUOUS
 10
132.198512
 20
162.841336
 11
147.798512
 21
162.841336
  0
LINE
  8
1
 62
7
  6
CONTINUOUS
 10
147.798512
 20
159.391336
 11
132.198512
 21
159.391336
  0
LINE
  8
1
 62
7
  6
CONTINUOUS
 10
147.798512
 20
164.891336
 11
147.798512
 21
159.391336
  0
LINE
  8
1
 62
7
  6
CONTINUOUS
 10
142.798512
 20
164.891336
 11
147.798512
 21
164.891336
  0
LINE
  8
1
 62
7
  6
CONTINUOUS
 10
132.198512
 20
164.891336
 11
137.198512
 21
164.891336
  0
LINE
  8
1
 62
7
  6
CONTINUOUS
 10
132.198512
 20
159.391336
 11
132.198512
 21
164.891336
  0
LINE
  8
1
 62
7
  6
CONTINUOUS
 10
137.048512
 20
162.841336
 11
142.948512
 21
162.841336
  0
LINE
  8
1
 62
7
  6
CONTINUOUS
 10
137.048512
 20
163.541336
 11
137.048512
 21
162.841336
  0
LINE
  8
1
 62
7
  6
CONTINUOUS
 10
142.948512
 20
163.541336
 11
137.048512
 21
163.541336
  0
LINE
  8
1
 62
7
  6
CONTINUOUS
 10
142.948512
 20
162.841336
 11
142.948512
 21
163.541336
  0
LINE
  8
1
 62
7
  6
CONTINUOUS
 10
138.288512
 20
163.541336
 11
141.708512
 21
163.541336
  0
LINE
  8
1
 62
7
  6
CONTINUOUS
 10
141.708512
 20
163.541336
 11
142.798512
 21
163.541336
  0
LINE
  8
1
 62
7
  6
CONTINUOUS
 10
140.361012
 20
165.752628
 11
140.361012
 21
165.927628
  0
LINE
  8
1
 62
7
  6
CONTINUOUS
 10
139.636012
 20
165.752628
 11
140.361012
 21
165.752628
  0
LINE
  8
1
 62
7
  6
CONTINUOUS
 10
139.636012
 20
165.927628
 11
139.636012
 21
165.752628
  0
LINE
  8
1
 62
7
  6
CONTINUOUS
 10
142.798512
 20
163.541336
 11
142.798512
 21
165.040053
  0
LINE
  8
1
 62
7
  6
CONTINUOUS
 10
137.198512
 20
163.541336
 11
138.288512
 21
163.541336
  0
LINE
  8
1
 62
7
  6
CONTINUOUS
 10
137.198512
 20
165.040053
 11
137.198512
 21
163.541336
  0
LINE
  8
1
 62
7
  6
CONTINUOUS
 10
180.348512
 20
159.564553
 11
180.348512
 21
164.391336
  0
LINE
  8
1
 62
7
  6
CONTINUOUS
 10
180.656863
 20
164.391336
 11
187.698512
 21
164.391336
  0
LINE
  8
1
 62
7
  6
CONTINUOUS
 10
182.198512
 20
167.891336
 11
186.198512
 21
167.891336
  0
LINE
  8
1
 62
7
  6
CONTINUOUS
 10
120.498512
 20
138.091336
 11
151.698512
 21
138.091336
  0
LINE
  8
1
 62
7
  6
CONTINUOUS
 10
120.498512
 20
136.091336
 11
151.698512
 21
136.091336
  0
LINE
  8
1
 62
7
  6
CONTINUOUS
 10
120.498512
 20
142.091336
 11
149.198512
 21
142.091336
  0
LINE
  8
1
 62
7
  6
CONTINUOUS
 10
120.498512
 20
140.091336
 11
149.198512
 21
140.091336
  0
LINE
  8
1
 62
7
  6
CONTINUOUS
 10
120.498512
 20
142.091336
 11
149.198512
 21
142.091336
  0
LINE
  8
1
 62
7
  6
CONTINUOUS
 10
120.498512
 20
140.091336
 11
149.198512
 21
140.091336
  0
LINE
  8
1
 62
7
  6
CONTINUOUS
 10
120.498512
 20
146.091336
 11
146.698512
 21
146.091336
  0
LINE
  8
1
 62
7
  6
CONTINUOUS
 10
120.498512
 20
144.091336
 11
146.698512
 21
144.091336
  0
LINE
  8
1
 62
7
  6
CONTINUOUS
 10
120.498512
 20
150.091336
 11
144.198512
 21
150.091336
  0
LINE
  8
1
 62
7
  6
CONTINUOUS
 10
120.498512
 20
148.091336
 11
144.198512
 21
148.091336
  0
LINE
  8
1
 62
7
  6
CONTINUOUS
 10
120.498512
 20
154.091336
 11
141.698512
 21
154.091336
  0
LINE
  8
1
 62
7
  6
CONTINUOUS
 10
120.498512
 20
152.091336
 11
141.698512
 21
152.091336
  0
LINE
  8
1
 62
7
  6
CONTINUOUS
 10
130.567277
 20
130.250855
 11
126.781606
 21
130.250855
  0
LINE
  8
1
 62
7
  6
CONTINUOUS
 10
126.781606
 20
130.250855
 11
126.781606
 21
124.450855
  0
LINE
  8
1
 62
7
  6
CONTINUOUS
 10
126.781606
 20
124.450855
 11
130.567277
 21
124.450855
  0
LINE
  8
1
 62
7
  6
CONTINUOUS
 10
130.567277
 20
124.450855
 11
130.567277
 21
125.176163
  0
LINE
  8
1
 62
7
  6
CONTINUOUS
 10
130.567277
 20
125.176163
 11
128.273030
 21
125.176163
  0
LINE
  8
1
 62
7
  6
CONTINUOUS
 10
128.273030
 20
125.176163
 11
128.273030
 21
127.143375
  0
LINE
  8
1
 62
7
  6
CONTINUOUS
 10
128.273030
 20
127.143375
 11
130.567277
 21
127.143375
  0
LINE
  8
1
 62
7
  6
CONTINUOUS
 10
130.567277
 20
127.143375
 11
130.567277
 21
127.702557
  0
LINE
  8
1
 62
7
  6
CONTINUOUS
 10
130.567277
 20
127.702557
 11
128.273030
 21
127.702557
  0
LINE
  8
1
 62
7
  6
CONTINUOUS
 10
128.273030
 20
127.702557
 11
128.273030
 21
129.525110
  0
LINE
  8
1
 62
7
  6
CONTINUOUS
 10
128.273030
 20
129.525110
 11
130.567277
 21
129.525110
  0
LINE
  8
1
 62
7
  6
CONTINUOUS
 10
130.567277
 20
129.525110
 11
130.567277
 21
130.250855
  0
LINE
  8
1
 62
7
  6
CONTINUOUS
 10
131.328523
 20
130.250855
 11
131.328523
 21
124.450855
  0
LINE
  8
1
 62
7
  6
CONTINUOUS
 10
131.328523
 20
124.450855
 11
132.737090
 21
124.450855
  0
LINE
  8
1
 62
7
  6
CONTINUOUS
 10
132.737090
 20
124.450855
 11
132.737090
 21
127.060518
  0
LINE
  8
1
 62
7
  6
CONTINUOUS
 10
132.737090
 20
127.060518
 11
133.030575
 21
127.060518
  0
LINE
  8
1
 62
7
  6
CONTINUOUS
 10
131.328523
 20
130.250855
 11
132.737090
 21
130.250855
  0
LINE
  8
1
 62
7
  6
CONTINUOUS
 10
134.228514
 20
130.250855
 11
132.737090
 21
130.250855
  0
LINE
  8
1
 62
7
  6
CONTINUOUS
 10
132.737090
 20
129.525110
 11
133.602956
 21
129.525110
  0
LINE
  8
1
 62
7
  6
CONTINUOUS
 10
133.602956
 20
127.619700
 11
132.737090
 21
127.619700
  0
LINE
  8
1
 62
7
  6
CONTINUOUS
 10
132.737090
 20
127.619700
 11
132.737090
 21
129.525110
  0
LINE
  8
1
 62
7
  6
CONTINUOUS
 10
133.030575
 20
127.060518
 11
134.062800
 21
124.450855
  0
LINE
  8
1
 62
7
  6
CONTINUOUS
 10
134.644928
 20
127.213223
 11
135.815562
 21
124.450855
  0
LINE
  8
1
 62
7
  6
CONTINUOUS
 10
135.815562
 20
124.450855
 11
134.062800
 21
124.450855
  0
LINE
  8
1
 62
7
  6
CONTINUOUS
 10
135.917749
 20
130.250855
 11
138.551153
 21
124.450855
  0
LINE
  8
1
 62
7
  6
CONTINUOUS
 10
138.551153
 20
124.450855
 11
138.639984
 21
124.450855
  0
LINE
  8
1
 62
7
  6
CONTINUOUS
 10
138.639984
 20
124.450855
 11
140.881894
 21
130.250855
  0
LINE
  8
1
 62
7
  6
CONTINUOUS
 10
140.881894
 20
130.250855
 11
140.354881
 21
130.250855
  0
LINE
  8
1
 62
7
  6
CONTINUOUS
 10
140.354881
 20
130.250855
 11
139.085966
 21
126.978806
  0
LINE
  8
1
 62
7
  6
CONTINUOUS
 10
139.085966
 20
126.978806
 11
137.433856
 21
130.250855
  0
LINE
  8
1
 62
7
  6
CONTINUOUS
 10
135.917749
 20
130.250855
 11
137.433856
 21
130.250855
  0
LINE
  8
1
 62
7
  6
CONTINUOUS
 10
145.034244
 20
130.250855
 11
141.248573
 21
130.250855
  0
LINE
  8
1
 62
7
  6
CONTINUOUS
 10
141.248573
 20
130.250855
 11
141.248573
 21
124.450855
  0
LINE
  8
1
 62
7
  6
CONTINUOUS
 10
141.248573
 20
124.450855
 11
145.034244
 21
124.450855
  0
LINE
  8
1
 62
7
  6
CONTINUOUS
 10
145.034244
 20
124.450855
 11
145.034244
 21
125.176163
  0
LINE
  8
1
 62
7
  6
CONTINUOUS
 10
145.034244
 20
125.176163
 11
142.739997
 21
125.176163
  0
LINE
  8
1
 62
7
  6
CONTINUOUS
 10
142.739997
 20
125.176163
 11
142.739997
 21
127.143375
  0
LINE
  8
1
 62
7
  6
CONTINUOUS
 10
142.739997
 20
127.143375
 11
145.034244
 21
127.143375
  0
LINE
  8
1
 62
7
  6
CONTINUOUS
 10
145.034244
 20
127.143375
 11
145.034244
 21
127.702557
  0
LINE
  8
1
 62
7
  6
CONTINUOUS
 10
145.034244
 20
127.702557
 11
142.739997
 21
127.702557
  0
LINE
  8
1
 62
7
  6
CONTINUOUS
 10
142.739997
 20
127.702557
 11
142.739997
 21
129.525110
  0
LINE
  8
1
 62
7
  6
CONTINUOUS
 10
142.739997
 20
129.525110
 11
145.034244
 21
129.525110
  0
LINE
  8
1
 62
7
  6
CONTINUOUS
 10
145.034244
 20
129.525110
 11
145.034244
 21
130.250855
  0
LINE
  8
1
 62
7
  6
CONTINUOUS
 10
145.799001
 20
130.250855
 11
147.237361
 21
127.082906
  0
LINE
  8
1
 62
7
  6
CONTINUOUS
 10
146.114759
 20
124.450855
 11
147.487957
 21
126.530977
  0
LINE
  8
1
 62
7
  6
CONTINUOUS
 10
145.799001
 20
130.250855
 11
147.315108
 21
130.250855
  0
LINE
  8
1
 62
7
  6
CONTINUOUS
 10
147.315108
 20
130.250855
 11
148.032558
 21
128.670691
  0
LINE
  8
1
 62
7
  6
CONTINUOUS
 10
145.587746
 20
124.450855
 11
147.237361
 21
127.082906
  0
LINE
  8
1
 62
7
  6
CONTINUOUS
 10
145.587746
 20
124.450855
 11
146.114759
 21
124.450855
  0
LINE
  8
1
 62
7
  6
CONTINUOUS
 10
148.432405
 20
124.450855
 11
149.948512
 21
124.450855
  0
LINE
  8
1
 62
7
  6
CONTINUOUS
 10
148.283154
 20
128.118762
 11
149.948512
 21
124.450855
  0
LINE
  8
1
 62
7
  6
CONTINUOUS
 10
148.032558
 20
128.670691
 11
149.155366
 21
130.250855
  0
LINE
  8
1
 62
7
  6
CONTINUOUS
 10
148.283154
 20
128.118762
 11
149.682379
 21
130.250855
  0
LINE
  8
1
 62
7
  6
CONTINUOUS
 10
147.487957
 20
126.530977
 11
148.432405
 21
124.450855
  0
LINE
  8
1
 62
7
  6
CONTINUOUS
 10
122.814795
 20
127.145378
 11
124.176625
 21
126.613409
  0
LINE
  8
1
 62
7
  6
CONTINUOUS
 10
124.858153
 20
129.087543
 11
125.758284
 21
129.511018
  0
LINE
  8
1
 62
7
  6
CONTINUOUS
 10
122.806037
 20
125.905872
 11
122.124629
 21
125.288950
  0
LINE
  8
1
 62
7
  6
CONTINUOUS
 10
123.842644
 20
128.360844
 11
125.446151
 21
127.621792
  0
LINE
  8
1
 62
7
  6
CONTINUOUS
 10
149.682379
 20
130.250855
 11
149.155366
 21
130.250855
  0
LINE
  8
1
 62
7
  6
CONTINUOUS
 10
121.448512
 20
132.321904
 11
179.948512
 21
132.321904
  0
LINE
  8
1
 62
7
  6
CONTINUOUS
 10
179.948512
 20
121.321904
 11
121.448512
 21
121.321904
  0
LINE
  8
1
 62
7
  6
CONTINUOUS
 10
179.748512
 20
121.821904
 11
151.148512
 21
121.821904
  0
LINE
  8
1
 62
7
  6
CONTINUOUS
 10
150.948512
 20
122.021904
 11
150.948512
 21
131.821904
  0
LINE
  8
1
 62
7
  6
CONTINUOUS
 10
121.648512
 20
131.821904
 11
150.248512
 21
131.821904
  0
LINE
  8
1
 62
7
  6
CONTINUOUS
 10
150.448512
 20
131.621904
 11
150.448512
 21
121.821904
  0
LINE
  8
1
 62
7
  6
CONTINUOUS
 10
150.948512
 20
131.821904
 11
179.948512
 21
131.821904
  0
LINE
  8
1
 62
7
  6
CONTINUOUS
 10
121.448512
 20
121.821904
 11
150.448512
 21
121.821904
  0
LINE
  8
1
 62
7
  6
CONTINUOUS
 10
121.448512
 20
121.821904
 11
121.448512
 21
131.621904
  0
LINE
  8
1
 62
7
  6
CONTINUOUS
 10
176.807894
 20
127.321904
 11
165.407894
 21
127.321904
  0
LINE
  8
1
 62
7
  6
CONTINUOUS
 10
165.107894
 20
127.021904
 11
165.107894
 21
124.121904
  0
LINE
  8
1
 62
7
  6
CONTINUOUS
 10
165.407894
 20
123.821904
 11
176.807894
 21
123.821904
  0
LINE
  8
1
 62
7
  6
CONTINUOUS
 10
177.107894
 20
124.121904
 11
177.107894
 21
127.021904
  0
LINE
  8
1
 62
7
  6
CONTINUOUS
 10
180.448512
 20
131.821904
 11
180.448512
 21
121.821904
  0
LINE
  8
1
 62
7
  6
CONTINUOUS
 10
120.948512
 20
131.821904
 11
120.948512
 21
121.821904
  0
LINE
  8
1
 62
7
  6
CONTINUOUS
 10
149.698512
 20
154.091336
 11
180.898512
 21
154.091336
  0
LINE
  8
1
 62
7
  6
CONTINUOUS
 10
149.698512
 20
152.091336
 11
180.898512
 21
152.091336
  0
LINE
  8
1
 62
7
  6
CONTINUOUS
 10
152.198512
 20
150.091336
 11
180.898512
 21
150.091336
  0
LINE
  8
1
 62
7
  6
CONTINUOUS
 10
152.198512
 20
148.091336
 11
180.898512
 21
148.091336
  0
LINE
  8
1
 62
7
  6
CONTINUOUS
 10
152.198512
 20
150.091336
 11
180.898512
 21
150.091336
  0
LINE
  8
1
 62
7
  6
CONTINUOUS
 10
152.198512
 20
148.091336
 11
180.898512
 21
148.091336
  0
LINE
  8
1
 62
7
  6
CONTINUOUS
 10
154.698512
 20
146.091336
 11
180.898512
 21
146.091336
  0
LINE
  8
1
 62
7
  6
CONTINUOUS
 10
154.698512
 20
144.091336
 11
180.898512
 21
144.091336
  0
LINE
  8
1
 62
7
  6
CONTINUOUS
 10
157.198512
 20
142.091336
 11
180.898512
 21
142.091336
  0
LINE
  8
1
 62
7
  6
CONTINUOUS
 10
157.198512
 20
140.091336
 11
180.898512
 21
140.091336
  0
LINE
  8
1
 62
7
  6
CONTINUOUS
 10
159.698512
 20
138.091336
 11
180.898512
 21
138.091336
  0
LINE
  8
1
 62
7
  6
CONTINUOUS
 10
159.698512
 20
136.091336
 11
180.898512
 21
136.091336
  0
LINE
  8
1
 62
7
  6
CONTINUOUS
 10
262.216692
 20
139.391336
 11
307.216692
 21
139.391336
  0
LINE
  8
1
 62
7
  6
CONTINUOUS
 10
277.216692
 20
124.391336
 11
283.216692
 21
124.391336
  0
LINE
  8
1
 62
7
  6
CONTINUOUS
 10
277.216692
 20
154.391336
 11
283.216692
 21
154.391336
  0
LINE
  8
1
 62
7
  6
CONTINUOUS
 10
280.216692
 20
157.391336
 11
280.216692
 21
121.391336
  0
LINE
  8
1
 62
7
  6
CONTINUOUS
 10
150.698512
 20
86.478290
 11
150.698512
 21
40.478290
  0
LINE
  8
1
 62
7
  6
CONTINUOUS
 10
150.698512
 20
172.191336
 11
150.698512
 21
106.591336
  0
LINE
  8
1
 62
7
  6
CONTINUOUS
 10
109.198512
 20
139.391336
 11
192.198512
 21
139.391336
  0
LINE
  8
1
 62
7
  6
CONTINUOUS
 10
15.017551
 20
139.391336
 11
61.017551
 21
139.391336
  0
LINE
  8
1
 62
7
  6
CONTINUOUS
 10
113.698512
 20
114.391336
 11
121.698512
 21
114.391336
  0
LINE
  8
1
 62
7
  6
CONTINUOUS
 10
117.698512
 20
110.391336
 11
117.698512
 21
118.391336
  0
LINE
  8
1
 62
7
  6
CONTINUOUS
 10
183.698512
 20
168.391336
 11
183.698512
 21
160.391336
  0
LINE
  8
1
 62
7
  6
CONTINUOUS
 10
117.698512
 20
166.891336
 11
117.698512
 21
161.891336
  0
LINE
  8
1
 62
7
  6
CONTINUOUS
 10
115.198512
 20
164.391336
 11
120.198512
 21
164.391336
  0
LINE
  8
1
 62
7
  6
CONTINUOUS
 10
178.702141
 20
118.121336
 11
178.702141
 21
112.121336
  0
LINE
  8
1
 62
7
  6
CONTINUOUS
 10
155.702141
 20
118.121336
 11
155.702141
 21
112.121336
  0
LINE
  8
1
 62
7
  6
CONTINUOUS
 10
155.702141
 20
112.121336
 11
178.702141
 21
112.121336
  0
LINE
  8
1
 62
7
  6
CONTINUOUS
 10
155.702141
 20
117.121336
 11
178.702141
 21
117.121336
  0
LINE
  8
1
 62
7
  6
CONTINUOUS
 10
155.702141
 20
118.121336
 11
178.702141
 21
118.121336
  0
LINE
  8
1
 62
7
  6
CONTINUOUS
 10
176.878512
 20
114.801336
 11
177.518512
 21
115.441336
  0
LINE
  8
1
 62
7
  6
CONTINUOUS
 10
176.878512
 20
115.441336
 11
177.518512
 21
114.801336
  0
LINE
  8
1
 62
7
  6
CONTINUOUS
 10
175.018512
 20
115.441336
 11
174.378512
 21
114.801336
  0
LINE
  8
1
 62
7
  6
CONTINUOUS
 10
174.378512
 20
115.441336
 11
175.018512
 21
114.801336
  0
LINE
  8
1
 62
7
  6
CONTINUOUS
 10
171.878512
 20
114.801336
 11
172.518512
 21
115.441336
  0
LINE
  8
1
 62
7
  6
CONTINUOUS
 10
171.878512
 20
115.441336
 11
172.518512
 21
114.801336
  0
LINE
  8
1
 62
7
  6
CONTINUOUS
 10
170.018512
 20
115.441336
 11
169.378512
 21
114.801336
  0
LINE
  8
1
 62
7
  6
CONTINUOUS
 10
169.378512
 20
115.441336
 11
170.018512
 21
114.801336
  0
LINE
  8
1
 62
7
  6
CONTINUOUS
 10
166.878512
 20
114.801336
 11
167.518512
 21
115.441336
  0
LINE
  8
1
 62
7
  6
CONTINUOUS
 10
166.878512
 20
115.441336
 11
167.518512
 21
114.801336
  0
LINE
  8
1
 62
7
  6
CONTINUOUS
 10
164.378512
 20
114.801336
 11
165.018512
 21
115.441336
  0
LINE
  8
1
 62
7
  6
CONTINUOUS
 10
164.378512
 20
115.441336
 11
165.018512
 21
114.801336
  0
LINE
  8
1
 62
7
  6
CONTINUOUS
 10
161.878512
 20
114.801336
 11
162.518512
 21
115.441336
  0
LINE
  8
1
 62
7
  6
CONTINUOUS
 10
161.878512
 20
115.441336
 11
162.518512
 21
114.801336
  0
LINE
  8
1
 62
7
  6
CONTINUOUS
 10
159.378512
 20
115.441336
 11
160.018512
 21
114.801336
  0
LINE
  8
1
 62
7
  6
CONTINUOUS
 10
159.378512
 20
114.801336
 11
160.018512
 21
115.441336
  0
LINE
  8
1
 62
7
  6
CONTINUOUS
 10
156.878512
 20
114.801336
 11
157.518512
 21
115.441336
  0
LINE
  8
1
 62
7
  6
CONTINUOUS
 10
156.878512
 20
115.441336
 11
157.518512
 21
114.801336
  0
LINE
  8
1
 62
7
  6
CONTINUOUS
 10
165.018512
 20
115.441336
 11
165.018512
 21
114.801336
  0
LINE
  8
1
 62
7
  6
CONTINUOUS
 10
175.018512
 20
115.441336
 11
175.018512
 21
114.801336
  0
LINE
  8
1
 62
7
  6
CONTINUOUS
 10
177.518512
 20
115.441336
 11
177.518512
 21
114.801336
  0
LINE
  8
1
 62
7
  6
CONTINUOUS
 10
176.878512
 20
115.441336
 11
176.878512
 21
114.801336
  0
LINE
  8
1
 62
7
  6
CONTINUOUS
 10
174.378512
 20
115.441336
 11
174.378512
 21
114.801336
  0
LINE
  8
1
 62
7
  6
CONTINUOUS
 10
172.518512
 20
115.441336
 11
172.518512
 21
114.801336
  0
LINE
  8
1
 62
7
  6
CONTINUOUS
 10
171.878512
 20
115.441336
 11
171.878512
 21
114.801336
  0
LINE
  8
1
 62
7
  6
CONTINUOUS
 10
170.018512
 20
115.441336
 11
170.018512
 21
114.801336
  0
LINE
  8
1
 62
7
  6
CONTINUOUS
 10
169.378512
 20
115.441336
 11
169.378512
 21
114.801336
  0
LINE
  8
1
 62
7
  6
CONTINUOUS
 10
167.518512
 20
115.441336
 11
167.518512
 21
114.801336
  0
LINE
  8
1
 62
7
  6
CONTINUOUS
 10
166.878512
 20
115.441336
 11
166.878512
 21
114.801336
  0
LINE
  8
1
 62
7
  6
CONTINUOUS
 10
164.378512
 20
115.441336
 11
164.378512
 21
114.801336
  0
LINE
  8
1
 62
7
  6
CONTINUOUS
 10
162.518512
 20
115.441336
 11
162.518512
 21
114.801336
  0
LINE
  8
1
 62
7
  6
CONTINUOUS
 10
161.878512
 20
115.441336
 11
161.878512
 21
114.801336
  0
LINE
  8
1
 62
7
  6
CONTINUOUS
 10
160.018512
 20
115.441336
 11
160.018512
 21
114.801336
  0
LINE
  8
1
 62
7
  6
CONTINUOUS
 10
159.378512
 20
115.441336
 11
159.378512
 21
114.801336
  0
LINE
  8
1
 62
7
  6
CONTINUOUS
 10
157.518512
 20
115.441336
 11
157.518512
 21
114.801336
  0
LINE
  8
1
 62
7
  6
CONTINUOUS
 10
156.878512
 20
115.441336
 11
156.878512
 21
114.801336
  0
LINE
  8
1
 62
7
  6
CONTINUOUS
 10
157.518512
 20
114.801336
 11
156.878512
 21
114.801336
  0
LINE
  8
1
 62
7
  6
CONTINUOUS
 10
160.018512
 20
114.801336
 11
159.378512
 21
114.801336
  0
LINE
  8
1
 62
7
  6
CONTINUOUS
 10
162.518512
 20
114.801336
 11
161.878512
 21
114.801336
  0
LINE
  8
1
 62
7
  6
CONTINUOUS
 10
165.018512
 20
114.801336
 11
164.378512
 21
114.801336
  0
LINE
  8
1
 62
7
  6
CONTINUOUS
 10
167.518512
 20
114.801336
 11
166.878512
 21
114.801336
  0
LINE
  8
1
 62
7
  6
CONTINUOUS
 10
170.018512
 20
114.801336
 11
169.378512
 21
114.801336
  0
LINE
  8
1
 62
7
  6
CONTINUOUS
 10
172.518512
 20
114.801336
 11
171.878512
 21
114.801336
  0
LINE
  8
1
 62
7
  6
CONTINUOUS
 10
175.018512
 20
114.801336
 11
174.378512
 21
114.801336
  0
LINE
  8
1
 62
7
  6
CONTINUOUS
 10
177.518512
 20
114.801336
 11
176.878512
 21
114.801336
  0
LINE
  8
1
 62
7
  6
CONTINUOUS
 10
176.878512
 20
115.441336
 11
177.518512
 21
115.441336
  0
LINE
  8
1
 62
7
  6
CONTINUOUS
 10
174.378512
 20
115.441336
 11
175.018512
 21
115.441336
  0
LINE
  8
1
 62
7
  6
CONTINUOUS
 10
171.878512
 20
115.441336
 11
172.518512
 21
115.441336
  0
LINE
  8
1
 62
7
  6
CONTINUOUS
 10
169.378512
 20
115.441336
 11
170.018512
 21
115.441336
  0
LINE
  8
1
 62
7
  6
CONTINUOUS
 10
166.878512
 20
115.441336
 11
167.518512
 21
115.441336
  0
LINE
  8
1
 62
7
  6
CONTINUOUS
 10
164.378512
 20
115.441336
 11
165.018512
 21
115.441336
  0
LINE
  8
1
 62
7
  6
CONTINUOUS
 10
161.878512
 20
115.441336
 11
162.518512
 21
115.441336
  0
LINE
  8
1
 62
7
  6
CONTINUOUS
 10
159.378512
 20
115.441336
 11
160.018512
 21
115.441336
  0
LINE
  8
1
 62
7
  6
CONTINUOUS
 10
156.878512
 20
115.441336
 11
157.518512
 21
115.441336
  0
LINE
  8
1
 62
7
  6
CONTINUOUS
 10
134.648512
 20
114.121336
 11
136.148512
 21
114.121336
  0
LINE
  8
1
 62
7
  6
CONTINUOUS
 10
134.648512
 20
116.121336
 11
136.148512
 21
116.121336
  0
LINE
  8
1
 62
7
  6
CONTINUOUS
 10
136.148512
 20
113.621336
 11
136.148512
 21
116.621336
  0
LINE
  8
1
 62
7
  6
CONTINUOUS
 10
134.648512
 20
116.621336
 11
134.648512
 21
113.621336
  0
LINE
  8
1
 62
7
  6
CONTINUOUS
 10
135.773512
 20
113.621336
 11
136.148512
 21
113.621336
  0
LINE
  8
1
 62
7
  6
CONTINUOUS
 10
134.648512
 20
113.621336
 11
135.023512
 21
113.621336
  0
LINE
  8
1
 62
7
  6
CONTINUOUS
 10
135.773512
 20
116.621336
 11
136.148512
 21
116.621336
  0
LINE
  8
1
 62
7
  6
CONTINUOUS
 10
134.648512
 20
116.621336
 11
135.023512
 21
116.621336
  0
LINE
  8
1
 62
7
  6
CONTINUOUS
 10
178.702141
 20
54.478290
 11
180.198512
 21
54.478290
  0
LINE
  8
1
 62
7
  6
CONTINUOUS
 10
180.198512
 20
54.478290
 11
187.198512
 21
54.478290
  0
LINE
  8
1
 62
7
  6
CONTINUOUS
 10
176.878512
 20
48.478290
 11
176.398512
 21
49.478290
  0
LINE
  8
1
 62
7
  6
CONTINUOUS
 10
177.518512
 20
48.478290
 11
177.998512
 21
49.478290
  0
LINE
  8
1
 62
7
  6
CONTINUOUS
 10
176.878512
 20
48.478290
 11
176.878512
 21
47.978290
  0
LINE
  8
1
 62
7
  6
CONTINUOUS
 10
177.518512
 20
48.478290
 11
176.878512
 21
48.478290
  0
LINE
  8
1
 62
7
  6
CONTINUOUS
 10
177.518512
 20
47.978290
 11
177.518512
 21
48.478290
  0
LINE
  8
1
 62
7
  6
CONTINUOUS
 10
176.878512
 20
47.978290
 11
177.518512
 21
47.978290
  0
LINE
  8
1
 62
7
  6
CONTINUOUS
 10
174.378512
 20
48.478290
 11
173.898512
 21
49.478290
  0
LINE
  8
1
 62
7
  6
CONTINUOUS
 10
175.018512
 20
48.478290
 11
175.498512
 21
49.478290
  0
LINE
  8
1
 62
7
  6
CONTINUOUS
 10
174.378512
 20
48.478290
 11
174.378512
 21
47.978290
  0
LINE
  8
1
 62
7
  6
CONTINUOUS
 10
175.018512
 20
48.478290
 11
174.378512
 21
48.478290
  0
LINE
  8
1
 62
7
  6
CONTINUOUS
 10
175.018512
 20
47.978290
 11
175.018512
 21
48.478290
  0
LINE
  8
1
 62
7
  6
CONTINUOUS
 10
174.378512
 20
47.978290
 11
175.018512
 21
47.978290
  0
LINE
  8
1
 62
7
  6
CONTINUOUS
 10
171.878512
 20
48.478290
 11
171.398512
 21
49.478290
  0
LINE
  8
1
 62
7
  6
CONTINUOUS
 10
172.518512
 20
48.478290
 11
172.998512
 21
49.478290
  0
LINE
  8
1
 62
7
  6
CONTINUOUS
 10
171.878512
 20
48.478290
 11
171.878512
 21
47.978290
  0
LINE
  8
1
 62
7
  6
CONTINUOUS
 10
172.518512
 20
48.478290
 11
171.878512
 21
48.478290
  0
LINE
  8
1
 62
7
  6
CONTINUOUS
 10
172.518512
 20
47.978290
 11
172.518512
 21
48.478290
  0
LINE
  8
1
 62
7
  6
CONTINUOUS
 10
171.878512
 20
47.978290
 11
172.518512
 21
47.978290
  0
LINE
  8
1
 62
7
  6
CONTINUOUS
 10
169.378512
 20
48.478290
 11
168.898512
 21
49.478290
  0
LINE
  8
1
 62
7
  6
CONTINUOUS
 10
170.018512
 20
48.478290
 11
170.498512
 21
49.478290
  0
LINE
  8
1
 62
7
  6
CONTINUOUS
 10
169.378512
 20
48.478290
 11
169.378512
 21
47.978290
  0
LINE
  8
1
 62
7
  6
CONTINUOUS
 10
170.018512
 20
48.478290
 11
169.378512
 21
48.478290
  0
LINE
  8
1
 62
7
  6
CONTINUOUS
 10
170.018512
 20
47.978290
 11
170.018512
 21
48.478290
  0
LINE
  8
1
 62
7
  6
CONTINUOUS
 10
169.378512
 20
47.978290
 11
170.018512
 21
47.978290
  0
LINE
  8
1
 62
7
  6
CONTINUOUS
 10
166.878512
 20
48.478290
 11
166.398512
 21
49.478290
  0
LINE
  8
1
 62
7
  6
CONTINUOUS
 10
167.518512
 20
48.478290
 11
167.998512
 21
49.478290
  0
LINE
  8
1
 62
7
  6
CONTINUOUS
 10
166.878512
 20
48.478290
 11
166.878512
 21
47.978290
  0
LINE
  8
1
 62
7
  6
CONTINUOUS
 10
167.518512
 20
48.478290
 11
166.878512
 21
48.478290
  0
LINE
  8
1
 62
7
  6
CONTINUOUS
 10
167.518512
 20
47.978290
 11
167.518512
 21
48.478290
  0
LINE
  8
1
 62
7
  6
CONTINUOUS
 10
166.878512
 20
47.978290
 11
167.518512
 21
47.978290
  0
LINE
  8
1
 62
7
  6
CONTINUOUS
 10
164.378512
 20
48.478290
 11
163.898512
 21
49.478290
  0
LINE
  8
1
 62
7
  6
CONTINUOUS
 10
165.018512
 20
48.478290
 11
165.498512
 21
49.478290
  0
LINE
  8
1
 62
7
  6
CONTINUOUS
 10
164.378512
 20
48.478290
 11
164.378512
 21
47.978290
  0
LINE
  8
1
 62
7
  6
CONTINUOUS
 10
165.018512
 20
48.478290
 11
164.378512
 21
48.478290
  0
LINE
  8
1
 62
7
  6
CONTINUOUS
 10
165.018512
 20
47.978290
 11
165.018512
 21
48.478290
  0
LINE
  8
1
 62
7
  6
CONTINUOUS
 10
164.378512
 20
47.978290
 11
165.018512
 21
47.978290
  0
LINE
  8
1
 62
7
  6
CONTINUOUS
 10
161.878512
 20
48.478290
 11
161.398512
 21
49.478290
  0
LINE
  8
1
 62
7
  6
CONTINUOUS
 10
162.518512
 20
48.478290
 11
162.998512
 21
49.478290
  0
LINE
  8
1
 62
7
  6
CONTINUOUS
 10
161.878512
 20
48.478290
 11
161.878512
 21
47.978290
  0
LINE
  8
1
 62
7
  6
CONTINUOUS
 10
162.518512
 20
48.478290
 11
161.878512
 21
48.478290
  0
LINE
  8
1
 62
7
  6
CONTINUOUS
 10
162.518512
 20
47.978290
 11
162.518512
 21
48.478290
  0
LINE
  8
1
 62
7
  6
CONTINUOUS
 10
161.878512
 20
47.978290
 11
162.518512
 21
47.978290
  0
LINE
  8
1
 62
7
  6
CONTINUOUS
 10
159.378512
 20
48.478290
 11
158.898512
 21
49.478290
  0
LINE
  8
1
 62
7
  6
CONTINUOUS
 10
160.018512
 20
48.478290
 11
160.498512
 21
49.478290
  0
LINE
  8
1
 62
7
  6
CONTINUOUS
 10
159.378512
 20
48.478290
 11
159.378512
 21
47.978290
  0
LINE
  8
1
 62
7
  6
CONTINUOUS
 10
160.018512
 20
48.478290
 11
159.378512
 21
48.478290
  0
LINE
  8
1
 62
7
  6
CONTINUOUS
 10
160.018512
 20
47.978290
 11
160.018512
 21
48.478290
  0
LINE
  8
1
 62
7
  6
CONTINUOUS
 10
159.378512
 20
47.978290
 11
160.018512
 21
47.978290
  0
LINE
  8
1
 62
7
  6
CONTINUOUS
 10
156.878512
 20
48.478290
 11
156.398512
 21
49.478290
  0
LINE
  8
1
 62
7
  6
CONTINUOUS
 10
157.518512
 20
48.478290
 11
157.998512
 21
49.478290
  0
LINE
  8
1
 62
7
  6
CONTINUOUS
 10
156.878512
 20
48.478290
 11
156.878512
 21
47.978290
  0
LINE
  8
1
 62
7
  6
CONTINUOUS
 10
157.518512
 20
48.478290
 11
156.878512
 21
48.478290
  0
LINE
  8
1
 62
7
  6
CONTINUOUS
 10
157.518512
 20
47.978290
 11
157.518512
 21
48.478290
  0
LINE
  8
1
 62
7
  6
CONTINUOUS
 10
156.878512
 20
47.978290
 11
157.518512
 21
47.978290
  0
LINE
  8
1
 62
7
  6
CONTINUOUS
 10
154.373512
 20
54.478290
 11
155.702141
 21
54.478290
  0
LINE
  8
1
 62
7
  6
CONTINUOUS
 10
114.498512
 20
80.478290
 11
114.498512
 21
81.478290
  0
LINE
  8
1
 62
7
  6
CONTINUOUS
 10
114.498512
 20
81.478290
 11
186.898512
 21
81.478290
  0
LINE
  8
1
 62
7
  6
CONTINUOUS
 10
186.898512
 20
81.478290
 11
186.898512
 21
80.478290
  0
LINE
  8
1
 62
7
  6
CONTINUOUS
 10
186.898512
 20
80.478290
 11
114.498512
 21
80.478290
  0
LINE
  8
1
 62
7
  6
CONTINUOUS
 10
114.498512
 20
112.191336
 11
114.498512
 21
166.591336
  0
LINE
  8
1
 62
7
  6
CONTINUOUS
 10
115.498512
 20
111.191336
 11
119.898512
 21
111.191336
  0
LINE
  8
1
 62
7
  6
CONTINUOUS
 10
186.898512
 20
166.591336
 11
186.898512
 21
112.191336
  0
LINE
  8
1
 62
7
  6
CONTINUOUS
 10
121.898512
 20
119.691336
 11
179.498512
 21
119.691336
  0
LINE
  8
1
 62
7
  6
CONTINUOUS
 10
181.498512
 20
111.191336
 11
185.898512
 21
111.191336
  0
LINE
  8
1
 62
7
  6
CONTINUOUS
 10
180.498512
 20
118.691336
 11
180.498512
 21
112.191336
  0
LINE
  8
1
 62
7
  6
CONTINUOUS
 10
120.898512
 20
118.691336
 11
120.898512
 21
112.191336
  0
LINE
  8
1
 62
7
  6
CONTINUOUS
 10
180.498512
 20
166.591336
 11
180.498512
 21
160.091336
  0
LINE
  8
1
 62
7
  6
CONTINUOUS
 10
179.498512
 20
159.091336
 11
121.898512
 21
159.091336
  0
LINE
  8
1
 62
7
  6
CONTINUOUS
 10
120.898512
 20
166.591336
 11
120.898512
 21
160.091336
  0
LINE
  8
1
 62
7
  6
CONTINUOUS
 10
185.898512
 20
167.591336
 11
181.498512
 21
167.591336
  0
LINE
  8
1
 62
7
  6
CONTINUOUS
 10
119.898512
 20
167.591336
 11
115.498512
 21
167.591336
  0
LINE
  8
1
 62
7
  6
CONTINUOUS
 10
180.498512
 20
81.478290
 11
180.498512
 21
80.478290
  0
LINE
  8
1
 62
7
  6
CONTINUOUS
 10
120.898512
 20
81.478290
 11
120.898512
 21
80.478290
  0
LINE
  8
1
 62
7
  6
CONTINUOUS
 10
266.216692
 20
167.591336
 11
266.216692
 21
111.191336
  0
LINE
  8
1
 62
7
  6
CONTINUOUS
 10
267.216692
 20
167.591336
 11
267.216692
 21
111.191336
  0
LINE
  8
1
 62
7
  6
CONTINUOUS
 10
266.216692
 20
167.591336
 11
267.216692
 21
167.591336
  0
LINE
  8
1
 62
7
  6
CONTINUOUS
 10
266.216692
 20
111.191336
 11
267.216692
 21
111.191336
  0
LINE
  8
1
 62
7
  6
CONTINUOUS
 10
120.198512
 20
110.891336
 11
115.198512
 21
110.891336
  0
LINE
  8
1
 62
7
  6
CONTINUOUS
 10
121.184370
 20
159.391336
 11
180.212655
 21
159.391336
  0
LINE
  8
1
 62
7
  6
CONTINUOUS
 10
115.198512
 20
167.891336
 11
119.398512
 21
167.891336
  0
LINE
  8
1
 62
7
  6
CONTINUOUS
 10
180.198512
 20
111.891336
 11
180.198512
 21
113.291336
  0
LINE
  8
1
 62
7
  6
CONTINUOUS
 10
180.198512
 20
118.391336
 11
180.198512
 21
115.491336
  0
LINE
  8
1
 62
7
  6
CONTINUOUS
 10
179.198512
 20
119.391336
 11
122.198512
 21
119.391336
  0
LINE
  8
1
 62
7
  6
CONTINUOUS
 10
186.198512
 20
110.891336
 11
181.198512
 21
110.891336
  0
LINE
  8
1
 62
7
  6
CONTINUOUS
 10
114.198512
 20
111.891336
 11
114.198512
 21
166.891336
  0
LINE
  8
1
 62
7
  6
CONTINUOUS
 10
187.198512
 20
166.891336
 11
187.198512
 21
111.891336
  0
LINE
  8
1
 62
7
  6
CONTINUOUS
 10
121.198512
 20
113.291336
 11
121.198512
 21
111.891336
  0
LINE
  8
1
 62
7
  6
CONTINUOUS
 10
121.198512
 20
115.491336
 11
121.198512
 21
118.391336
  0
LINE
  8
1
 62
7
  6
CONTINUOUS
 10
267.216692
 20
167.891336
 11
267.216692
 21
110.891336
  0
LINE
  8
1
 62
7
  6
CONTINUOUS
 10
293.216692
 20
167.891336
 11
293.216692
 21
110.891336
  0
LINE
  8
1
 62
7
  6
CONTINUOUS
 10
267.216692
 20
167.891336
 11
293.216692
 21
167.891336
  0
LINE
  8
1
 62
7
  6
CONTINUOUS
 10
267.216692
 20
110.891336
 11
293.216692
 21
110.891336
  0
LINE
  8
1
 62
7
  6
CONTINUOUS
 10
114.198512
 20
80.478290
 11
187.198512
 21
80.478290
  0
LINE
  8
1
 62
7
  6
CONTINUOUS
 10
114.198512
 20
54.478290
 11
123.148512
 21
54.478290
  0
LINE
  8
1
 62
7
  6
CONTINUOUS
 10
187.198512
 20
80.478290
 11
187.198512
 21
54.478290
  0
LINE
  8
1
 62
7
  6
CONTINUOUS
 10
180.198512
 20
80.478290
 11
180.198512
 21
54.478290
  0
LINE
  8
1
 62
7
  6
CONTINUOUS
 10
121.198512
 20
80.478290
 11
121.198512
 21
54.478290
  0
LINE
  8
1
 62
7
  6
CONTINUOUS
 10
114.198512
 20
80.478290
 11
114.198512
 21
54.478290
  0
LINE
  8
1
 62
7
  6
CONTINUOUS
 10
149.048512
 20
159.391336
 11
180.212655
 21
159.391336
  0
LINE
  8
1
 62
7
  6
CONTINUOUS
 10
180.348512
 20
164.391336
 11
177.873192
 21
164.391336
  0
LINE
  8
1
 62
7
  6
CONTINUOUS
 10
149.048512
 20
159.391336
 11
149.048512
 21
164.391336
  0
LINE
  8
1
 62
7
  6
CONTINUOUS
 10
172.898512
 20
164.391336
 11
172.898512
 21
161.391336
  0
LINE
  8
1
 62
7
  6
CONTINUOUS
 10
172.898512
 20
161.391336
 11
180.348512
 21
161.391336
  0
LINE
  8
1
 62
7
  6
CONTINUOUS
 10
156.498512
 20
161.391336
 11
156.498512
 21
164.391336
  0
LINE
  8
1
 62
7
  6
CONTINUOUS
 10
149.048512
 20
161.391336
 11
156.498512
 21
161.391336
  0
LINE
  8
1
 62
7
  6
CONTINUOUS
 10
156.498512
 20
161.391336
 11
172.898512
 21
161.391336
  0
LINE
  8
1
 62
7
  6
CONTINUOUS
 10
121.298512
 20
159.391336
 11
131.298512
 21
159.391336
  0
LINE
  8
1
 62
7
  6
CONTINUOUS
 10
121.298512
 20
159.391336
 11
121.298512
 21
163.891336
  0
LINE
  8
1
 62
7
  6
CONTINUOUS
 10
131.298512
 20
159.391336
 11
131.298512
 21
163.891336
  0
LINE
  8
1
 62
7
  6
CONTINUOUS
 10
131.298512
 20
163.891336
 11
129.098512
 21
163.891336
  0
LINE
  8
1
 62
7
  6
CONTINUOUS
 10
123.348512
 20
161.866336
 11
129.248512
 21
161.866336
  0
LINE
  8
1
 62
7
  6
CONTINUOUS
 10
123.348512
 20
162.566336
 11
123.348512
 21
161.866336
  0
LINE
  8
1
 62
7
  6
CONTINUOUS
 10
129.248512
 20
162.566336
 11
123.348512
 21
162.566336
  0
LINE
  8
1
 62
7
  6
CONTINUOUS
 10
129.248512
 20
161.866336
 11
129.248512
 21
162.566336
  0
LINE
  8
1
 62
7
  6
CONTINUOUS
 10
124.588512
 20
162.566336
 11
128.008512
 21
162.566336
  0
LINE
  8
1
 62
7
  6
CONTINUOUS
 10
128.008512
 20
162.566336
 11
129.098512
 21
162.566336
  0
LINE
  8
1
 62
7
  6
CONTINUOUS
 10
126.661012
 20
164.777628
 11
126.661012
 21
164.952628
  0
LINE
  8
1
 62
7
  6
CONTINUOUS
 10
125.936012
 20
164.777628
 11
126.661012
 21
164.777628
  0
LINE
  8
1
 62
7
  6
CONTINUOUS
 10
125.936012
 20
164.952628
 11
125.936012
 21
164.777628
  0
LINE
  8
1
 62
7
  6
CONTINUOUS
 10
129.098512
 20
162.566336
 11
129.098512
 21
164.065053
  0
LINE
  8
1
 62
7
  6
CONTINUOUS
 10
123.498512
 20
162.566336
 11
124.588512
 21
162.566336
  0
LINE
  8
1
 62
7
  6
CONTINUOUS
 10
123.498512
 20
164.065053
 11
123.498512
 21
162.566336
  0
LINE
  8
1
 62
7
  6
CONTINUOUS
 10
149.548512
 20
161.391336
 11
155.448512
 21
161.391336
  0
LINE
  8
1
 62
7
  6
CONTINUOUS
 10
149.548512
 20
162.091336
 11
149.548512
 21
161.391336
  0
LINE
  8
1
 62
7
  6
CONTINUOUS
 10
155.448512
 20
162.091336
 11
149.548512
 21
162.091336
  0
LINE
  8
1
 62
7
  6
CONTINUOUS
 10
155.448512
 20
161.391336
 11
155.448512
 21
162.091336
  0
LINE
  8
1
 62
7
  6
CONTINUOUS
 10
150.788512
 20
162.091336
 11
154.208512
 21
162.091336
  0
LINE
  8
1
 62
7
  6
CONTINUOUS
 10
154.208512
 20
162.091336
 11
155.298512
 21
162.091336
  0
LINE
  8
1
 62
7
  6
CONTINUOUS
 10
152.861012
 20
164.302628
 11
152.861012
 21
164.477628
  0
LINE
  8
1
 62
7
  6
CONTINUOUS
 10
152.136012
 20
164.302628
 11
152.861012
 21
164.302628
  0
LINE
  8
1
 62
7
  6
CONTINUOUS
 10
152.136012
 20
164.477628
 11
152.136012
 21
164.302628
  0
LINE
  8
1
 62
7
  6
CONTINUOUS
 10
155.298512
 20
162.091336
 11
155.298512
 21
163.590053
  0
LINE
  8
1
 62
7
  6
CONTINUOUS
 10
149.698512
 20
162.091336
 11
150.788512
 21
162.091336
  0
LINE
  8
1
 62
7
  6
CONTINUOUS
 10
149.698512
 20
163.590053
 11
149.698512
 21
162.091336
  0
LINE
  8
1
 62
7
  6
CONTINUOUS
 10
173.948512
 20
161.391336
 11
179.848512
 21
161.391336
  0
LINE
  8
1
 62
7
  6
CONTINUOUS
 10
173.948512
 20
162.091336
 11
173.948512
 21
161.391336
  0
LINE
  8
1
 62
7
  6
CONTINUOUS
 10
179.848512
 20
162.091336
 11
173.948512
 21
162.091336
  0
LINE
  8
1
 62
7
  6
CONTINUOUS
 10
179.848512
 20
161.391336
 11
179.848512
 21
162.091336
  0
LINE
  8
1
 62
7
  6
CONTINUOUS
 10
175.188512
 20
162.091336
 11
178.608512
 21
162.091336
  0
LINE
  8
1
 62
7
  6
CONTINUOUS
 10
178.608512
 20
162.091336
 11
179.698512
 21
162.091336
  0
LINE
  8
1
 62
7
  6
CONTINUOUS
 10
177.261012
 20
164.302628
 11
177.261012
 21
164.477628
  0
LINE
  8
1
 62
7
  6
CONTINUOUS
 10
176.536012
 20
164.302628
 11
177.261012
 21
164.302628
  0
LINE
  8
1
 62
7
  6
CONTINUOUS
 10
176.536012
 20
164.477628
 11
176.536012
 21
164.302628
  0
LINE
  8
1
 62
7
  6
CONTINUOUS
 10
179.698512
 20
162.091336
 11
179.698512
 21
163.590053
  0
LINE
  8
1
 62
7
  6
CONTINUOUS
 10
174.098512
 20
162.091336
 11
175.188512
 21
162.091336
  0
LINE
  8
1
 62
7
  6
CONTINUOUS
 10
174.098512
 20
163.590053
 11
174.098512
 21
162.091336
  0
LINE
  8
1
 62
7
  6
CONTINUOUS
 10
175.923833
 20
164.391336
 11
153.473192
 21
164.391336
  0
LINE
  8
1
 62
7
  6
CONTINUOUS
 10
151.523833
 20
164.391336
 11
149.048512
 21
164.391336
  0
LINE
  8
1
 62
7
  6
CONTINUOUS
 10
129.248512
 20
161.866336
 11
131.298512
 21
161.866336
  0
LINE
  8
1
 62
7
  6
CONTINUOUS
 10
123.348512
 20
161.866336
 11
121.298512
 21
161.866336
  0
LINE
  8
1
 62
7
  6
CONTINUOUS
 10
123.498512
 20
163.891336
 11
121.298512
 21
163.891336
  0
LINE
  8
1
 62
7
  6
CONTINUOUS
 10
155.702141
 20
58.178290
 11
155.702141
 21
51.078290
  0
LINE
  8
1
 62
7
  6
CONTINUOUS
 10
178.702141
 20
58.178290
 11
178.702141
 21
51.078290
  0
LINE
  8
1
 62
7
  6
CONTINUOUS
 10
178.702141
 20
58.178290
 11
155.702141
 21
58.178290
  0
LINE
  8
1
 62
7
  6
CONTINUOUS
 10
155.702141
 20
53.178290
 11
178.702141
 21
53.178290
  0
LINE
  8
1
 62
7
  6
CONTINUOUS
 10
178.702141
 20
51.078290
 11
155.702141
 21
51.078290
  0
LINE
  8
1
 62
7
  6
CONTINUOUS
 10
176.878512
 20
57.437271
 11
176.878512
 21
53.178290
  0
LINE
  8
1
 62
7
  6
CONTINUOUS
 10
177.518512
 20
57.437271
 11
177.518512
 21
53.178290
  0
LINE
  8
1
 62
7
  6
CONTINUOUS
 10
176.878512
 20
57.437271
 11
177.518512
 21
57.437271
  0
LINE
  8
1
 62
7
  6
CONTINUOUS
 10
174.378512
 20
57.437271
 11
174.378512
 21
53.178290
  0
LINE
  8
1
 62
7
  6
CONTINUOUS
 10
175.018512
 20
57.437271
 11
175.018512
 21
53.178290
  0
LINE
  8
1
 62
7
  6
CONTINUOUS
 10
174.378512
 20
57.437271
 11
175.018512
 21
57.437271
  0
LINE
  8
1
 62
7
  6
CONTINUOUS
 10
171.878512
 20
57.437271
 11
171.878512
 21
53.178290
  0
LINE
  8
1
 62
7
  6
CONTINUOUS
 10
172.518512
 20
57.437271
 11
172.518512
 21
53.178290
  0
LINE
  8
1
 62
7
  6
CONTINUOUS
 10
171.878512
 20
57.437271
 11
172.518512
 21
57.437271
  0
LINE
  8
1
 62
7
  6
CONTINUOUS
 10
169.378512
 20
57.437271
 11
169.378512
 21
53.178290
  0
LINE
  8
1
 62
7
  6
CONTINUOUS
 10
170.018512
 20
57.437271
 11
170.018512
 21
53.178290
  0
LINE
  8
1
 62
7
  6
CONTINUOUS
 10
169.378512
 20
57.437271
 11
170.018512
 21
57.437271
  0
LINE
  8
1
 62
7
  6
CONTINUOUS
 10
166.878512
 20
57.437271
 11
166.878512
 21
53.178290
  0
LINE
  8
1
 62
7
  6
CONTINUOUS
 10
167.518512
 20
57.437271
 11
167.518512
 21
53.178290
  0
LINE
  8
1
 62
7
  6
CONTINUOUS
 10
166.878512
 20
57.437271
 11
167.518512
 21
57.437271
  0
LINE
  8
1
 62
7
  6
CONTINUOUS
 10
164.378512
 20
57.437271
 11
164.378512
 21
53.178290
  0
LINE
  8
1
 62
7
  6
CONTINUOUS
 10
165.018512
 20
57.437271
 11
165.018512
 21
53.178290
  0
LINE
  8
1
 62
7
  6
CONTINUOUS
 10
164.378512
 20
57.437271
 11
165.018512
 21
57.437271
  0
LINE
  8
1
 62
7
  6
CONTINUOUS
 10
161.878512
 20
57.437271
 11
161.878512
 21
53.178290
  0
LINE
  8
1
 62
7
  6
CONTINUOUS
 10
162.518512
 20
57.437271
 11
162.518512
 21
53.178290
  0
LINE
  8
1
 62
7
  6
CONTINUOUS
 10
161.878512
 20
57.437271
 11
162.518512
 21
57.437271
  0
LINE
  8
1
 62
7
  6
CONTINUOUS
 10
159.378512
 20
57.437271
 11
159.378512
 21
53.178290
  0
LINE
  8
1
 62
7
  6
CONTINUOUS
 10
160.018512
 20
57.437271
 11
160.018512
 21
53.178290
  0
LINE
  8
1
 62
7
  6
CONTINUOUS
 10
159.378512
 20
57.437271
 11
160.018512
 21
57.437271
  0
LINE
  8
1
 62
7
  6
CONTINUOUS
 10
156.878512
 20
57.437271
 11
156.878512
 21
53.178290
  0
LINE
  8
1
 62
7
  6
CONTINUOUS
 10
157.518512
 20
57.437271
 11
157.518512
 21
53.178290
  0
LINE
  8
1
 62
7
  6
CONTINUOUS
 10
156.878512
 20
57.437271
 11
157.518512
 21
57.437271
  0
LINE
  8
1
 62
7
  6
CONTINUOUS
 10
300.216692
 20
166.101336
 11
300.216692
 21
162.681336
  0
LINE
  8
1
 62
7
  6
CONTINUOUS
 10
300.216692
 20
162.681336
 11
300.216692
 21
161.591336
  0
LINE
  8
1
 62
7
  6
CONTINUOUS
 10
302.427984
 20
164.028836
 11
302.602984
 21
164.028836
  0
LINE
  8
1
 62
7
  6
CONTINUOUS
 10
302.427984
 20
164.753836
 11
302.427984
 21
164.028836
  0
LINE
  8
1
 62
7
  6
CONTINUOUS
 10
302.602984
 20
164.753836
 11
302.427984
 21
164.753836
  0
LINE
  8
1
 62
7
  6
CONTINUOUS
 10
300.216692
 20
161.591336
 11
301.715409
 21
161.591336
  0
LINE
  8
1
 62
7
  6
CONTINUOUS
 10
300.216692
 20
167.191336
 11
300.216692
 21
166.101336
  0
LINE
  8
1
 62
7
  6
CONTINUOUS
 10
301.715409
 20
167.191336
 11
300.216692
 21
167.191336
  0
LINE
  8
1
 62
7
  6
CONTINUOUS
 10
266.216692
 20
162.681336
 11
266.216692
 21
166.101336
  0
LINE
  8
1
 62
7
  6
CONTINUOUS
 10
266.216692
 20
166.101336
 11
266.216692
 21
167.191336
  0
LINE
  8
1
 62
7
  6
CONTINUOUS
 10
264.005399
 20
164.753836
 11
263.830399
 21
164.753836
  0
LINE
  8
1
 62
7
  6
CONTINUOUS
 10
264.005399
 20
164.028836
 11
264.005399
 21
164.753836
  0
LINE
  8
1
 62
7
  6
CONTINUOUS
 10
263.830399
 20
164.028836
 11
264.005399
 21
164.028836
  0
LINE
  8
1
 62
7
  6
CONTINUOUS
 10
266.216692
 20
167.191336
 11
264.717974
 21
167.191336
  0
LINE
  8
1
 62
7
  6
CONTINUOUS
 10
266.216692
 20
161.591336
 11
266.216692
 21
162.681336
  0
LINE
  8
1
 62
7
  6
CONTINUOUS
 10
264.717974
 20
161.591336
 11
266.216692
 21
161.591336
  0
LINE
  8
1
 62
7
  6
CONTINUOUS
 10
266.216692
 20
112.681336
 11
266.216692
 21
116.101336
  0
LINE
  8
1
 62
7
  6
CONTINUOUS
 10
266.216692
 20
116.101336
 11
266.216692
 21
117.191336
  0
LINE
  8
1
 62
7
  6
CONTINUOUS
 10
264.005399
 20
114.753836
 11
263.830399
 21
114.753836
  0
LINE
  8
1
 62
7
  6
CONTINUOUS
 10
264.005399
 20
114.028836
 11
264.005399
 21
114.753836
  0
LINE
  8
1
 62
7
  6
CONTINUOUS
 10
263.830399
 20
114.028836
 11
264.005399
 21
114.028836
  0
LINE
  8
1
 62
7
  6
CONTINUOUS
 10
266.216692
 20
117.191336
 11
264.717974
 21
117.191336
  0
LINE
  8
1
 62
7
  6
CONTINUOUS
 10
266.216692
 20
111.591336
 11
266.216692
 21
112.681336
  0
LINE
  8
1
 62
7
  6
CONTINUOUS
 10
264.717974
 20
111.591336
 11
266.216692
 21
111.591336
  0
LINE
  8
1
 62
7
  6
CONTINUOUS
 10
181.988512
 20
81.478290
 11
185.408512
 21
81.478290
  0
LINE
  8
1
 62
7
  6
CONTINUOUS
 10
185.408512
 20
81.478290
 11
186.498512
 21
81.478290
  0
LINE
  8
1
 62
7
  6
CONTINUOUS
 10
184.061012
 20
83.689582
 11
184.061012
 21
83.864582
  0
LINE
  8
1
 62
7
  6
CONTINUOUS
 10
183.336012
 20
83.689582
 11
184.061012
 21
83.689582
  0
LINE
  8
1
 62
7
  6
CONTINUOUS
 10
183.336012
 20
83.864582
 11
183.336012
 21
83.689582
  0
LINE
  8
1
 62
7
  6
CONTINUOUS
 10
186.498512
 20
81.478290
 11
186.498512
 21
82.977008
  0
LINE
  8
1
 62
7
  6
CONTINUOUS
 10
180.898512
 20
81.478290
 11
181.988512
 21
81.478290
  0
LINE
  8
1
 62
7
  6
CONTINUOUS
 10
180.898512
 20
82.977008
 11
180.898512
 21
81.478290
  0
LINE
  8
1
 62
7
  6
CONTINUOUS
 10
115.988512
 20
81.478290
 11
119.408512
 21
81.478290
  0
LINE
  8
1
 62
7
  6
CONTINUOUS
 10
119.408512
 20
81.478290
 11
120.498512
 21
81.478290
  0
LINE
  8
1
 62
7
  6
CONTINUOUS
 10
118.061012
 20
83.689582
 11
118.061012
 21
83.864582
  0
LINE
  8
1
 62
7
  6
CONTINUOUS
 10
117.336012
 20
83.689582
 11
118.061012
 21
83.689582
  0
LINE
  8
1
 62
7
  6
CONTINUOUS
 10
117.336012
 20
83.864582
 11
117.336012
 21
83.689582
  0
LINE
  8
1
 62
7
  6
CONTINUOUS
 10
120.498512
 20
81.478290
 11
120.498512
 21
82.977008
  0
LINE
  8
1
 62
7
  6
CONTINUOUS
 10
114.898512
 20
81.478290
 11
115.988512
 21
81.478290
  0
LINE
  8
1
 62
7
  6
CONTINUOUS
 10
114.898512
 20
82.977008
 11
114.898512
 21
81.478290
  0
LINE
  8
1
 62
7
  6
CONTINUOUS
 10
119.408512
 20
47.478290
 11
115.988512
 21
47.478290
  0
LINE
  8
1
 62
7
  6
CONTINUOUS
 10
115.988512
 20
47.478290
 11
114.898512
 21
47.478290
  0
LINE
  8
1
 62
7
  6
CONTINUOUS
 10
117.336012
 20
45.266998
 11
117.336012
 21
45.091998
  0
LINE
  8
1
 62
7
  6
CONTINUOUS
 10
118.061012
 20
45.266998
 11
117.336012
 21
45.266998
  0
LINE
  8
1
 62
7
  6
CONTINUOUS
 10
118.061012
 20
45.091998
 11
118.061012
 21
45.266998
  0
LINE
  8
1
 62
7
  6
CONTINUOUS
 10
114.898512
 20
47.478290
 11
114.898512
 21
45.979572
  0
LINE
  8
1
 62
7
  6
CONTINUOUS
 10
120.498512
 20
47.478290
 11
119.408512
 21
47.478290
  0
LINE
  8
1
 62
7
  6
CONTINUOUS
 10
120.498512
 20
45.979572
 11
120.498512
 21
47.478290
  0
LINE
  8
1
 62
7
  6
CONTINUOUS
 10
120.998512
 20
49.478290
 11
180.398512
 21
49.478290
  0
LINE
  8
1
 62
7
  6
CONTINUOUS
 10
120.998512
 20
51.078290
 11
180.398512
 21
51.078290
  0
LINE
  8
1
 62
7
  6
CONTINUOUS
 10
114.598512
 20
51.078290
 11
114.598512
 21
49.478290
  0
LINE
  8
1
 62
7
  6
CONTINUOUS
 10
121.152452
 20
111.591336
 11
121.598512
 21
111.591336
  0
LINE
  8
1
 62
7
  6
CONTINUOUS
 10
121.598512
 20
111.591336
 11
180.244573
 21
111.591336
  0
LINE
  8
1
 62
7
  6
CONTINUOUS
 10
120.698512
 20
167.191336
 11
180.698512
 21
167.191336
  0
LINE
  8
1
 62
7
  6
CONTINUOUS
 10
114.398512
 20
54.478290
 11
114.398512
 21
51.078290
  0
LINE
  8
1
 62
7
  6
CONTINUOUS
 10
120.998512
 20
54.478290
 11
120.998512
 21
51.078290
  0
LINE
  8
1
 62
7
  6
CONTINUOUS
 10
115.698512
 20
51.078290
 11
114.398512
 21
51.078290
  0
LINE
  8
1
 62
7
  6
CONTINUOUS
 10
119.698512
 20
51.078290
 11
120.998512
 21
51.078290
  0
LINE
  8
1
 62
7
  6
CONTINUOUS
 10
119.698512
 20
49.478290
 11
120.998512
 21
49.478290
  0
LINE
  8
1
 62
7
  6
CONTINUOUS
 10
115.698512
 20
51.078290
 11
115.698512
 21
49.478290
  0
LINE
  8
1
 62
7
  6
CONTINUOUS
 10
119.698512
 20
51.078290
 11
119.698512
 21
49.478290
  0
LINE
  8
1
 62
7
  6
CONTINUOUS
 10
114.398512
 20
54.478290
 11
120.998512
 21
54.478290
  0
LINE
  8
1
 62
7
  6
CONTINUOUS
 10
114.398512
 20
42.478290
 11
120.998512
 21
42.478290
  0
LINE
  8
1
 62
7
  6
CONTINUOUS
 10
114.398512
 20
47.478290
 11
120.998512
 21
47.478290
  0
LINE
  8
1
 62
7
  6
CONTINUOUS
 10
114.398512
 20
49.478290
 11
115.698512
 21
49.478290
  0
LINE
  8
1
 62
7
  6
CONTINUOUS
 10
120.998512
 20
49.478290
 11
120.998512
 21
47.478290
  0
LINE
  8
1
 62
7
  6
CONTINUOUS
 10
114.398512
 20
49.478290
 11
114.398512
 21
47.478290
  0
LINE
  8
1
 62
7
  6
CONTINUOUS
 10
120.998512
 20
47.478290
 11
120.998512
 21
42.478290
  0
LINE
  8
1
 62
7
  6
CONTINUOUS
 10
114.398512
 20
47.478290
 11
114.398512
 21
42.478290
  0
LINE
  8
1
 62
7
  6
CONTINUOUS
 10
180.398512
 20
42.478290
 11
186.998512
 21
42.478290
  0
LINE
  8
1
 62
7
  6
CONTINUOUS
 10
180.398512
 20
54.478290
 11
186.998512
 21
54.478290
  0
LINE
  8
1
 62
7
  6
CONTINUOUS
 10
180.398512
 20
54.478290
 11
180.398512
 21
42.478290
  0
LINE
  8
1
 62
7
  6
CONTINUOUS
 10
186.998512
 20
54.478290
 11
186.998512
 21
42.478290
  0
LINE
  8
1
 62
7
  6
CONTINUOUS
 10
296.766692
 20
167.549931
 11
298.066692
 21
167.549931
  0
LINE
  8
1
 62
7
  6
CONTINUOUS
 10
298.266692
 20
167.749931
 11
296.566692
 21
167.749931
  0
LINE
  8
1
 62
7
  6
CONTINUOUS
 10
296.616692
 20
167.391336
 11
296.616692
 21
167.399931
  0
LINE
  8
1
 62
7
  6
CONTINUOUS
 10
296.416692
 20
167.391336
 11
296.416692
 21
167.599931
  0
LINE
  8
1
 62
7
  6
CONTINUOUS
 10
296.616692
 20
119.391336
 11
293.216692
 21
119.391336
  0
LINE
  8
1
 62
7
  6
CONTINUOUS
 10
296.616692
 20
167.191336
 11
298.216692
 21
167.191336
  0
LINE
  8
1
 62
7
  6
CONTINUOUS
 10
296.616692
 20
167.191336
 11
296.616692
 21
119.391336
  0
LINE
  8
1
 62
7
  6
CONTINUOUS
 10
298.416692
 20
167.391336
 11
298.416692
 21
167.599931
  0
LINE
  8
1
 62
7
  6
CONTINUOUS
 10
293.216692
 20
117.591336
 11
293.216692
 21
111.391336
  0
LINE
  8
1
 62
7
  6
CONTINUOUS
 10
298.216692
 20
117.591336
 11
293.216692
 21
117.591336
  0
LINE
  8
1
 62
7
  6
CONTINUOUS
 10
298.216692
 20
119.391336
 11
298.216692
 21
117.591336
  0
LINE
  8
1
 62
7
  6
CONTINUOUS
 10
296.416692
 20
167.391336
 11
293.216692
 21
167.391336
  0
LINE
  8
1
 62
7
  6
CONTINUOUS
 10
296.616692
 20
160.691336
 11
296.616692
 21
167.391336
  0
LINE
  8
1
 62
7
  6
CONTINUOUS
 10
293.216692
 20
167.391336
 11
293.216692
 21
160.691336
  0
LINE
  8
1
 62
7
  6
CONTINUOUS
 10
293.216692
 20
160.691336
 11
296.616692
 21
160.691336
  0
LINE
  8
1
 62
7
  6
CONTINUOUS
 10
298.216692
 20
167.391336
 11
298.216692
 21
167.399931
  0
LINE
  8
1
 62
7
  6
CONTINUOUS
 10
298.216692
 20
167.391336
 11
298.216692
 21
119.391336
  0
LINE
  8
1
 62
7
  6
CONTINUOUS
 10
305.216692
 20
111.391336
 11
305.216692
 21
117.591336
  0
LINE
  8
1
 62
7
  6
CONTINUOUS
 10
293.216692
 20
111.391336
 11
305.216692
 21
111.391336
  0
LINE
  8
1
 62
7
  6
CONTINUOUS
 10
305.216692
 20
117.591336
 11
302.216692
 21
117.591336
  0
LINE
  8
1
 62
7
  6
CONTINUOUS
 10
298.216692
 20
119.391336
 11
296.616692
 21
119.391336
  0
LINE
  8
1
 62
7
  6
CONTINUOUS
 10
302.216692
 20
155.191336
 11
302.216692
 21
117.591336
  0
LINE
  8
1
 62
7
  6
CONTINUOUS
 10
300.216692
 20
167.391336
 11
298.416692
 21
167.391336
  0
LINE
  8
1
 62
7
  6
CONTINUOUS
 10
300.216692
 20
160.191336
 11
300.216692
 21
167.391336
  0
LINE
  8
1
 62
7
  6
CONTINUOUS
 10
300.216692
 20
160.191336
 11
305.216692
 21
160.191336
  0
LINE
  8
1
 62
7
  6
CONTINUOUS
 10
305.216692
 20
155.191336
 11
302.216692
 21
155.191336
  0
LINE
  8
1
 62
7
  6
CONTINUOUS
 10
305.216692
 20
160.191336
 11
305.216692
 21
155.191336
  0
LINE
  8
1
 62
7
  6
CONTINUOUS
 10
182.968779
 20
165.644328
 11
183.579819
 21
165.033288
  0
LINE
  8
1
 62
7
  6
CONTINUOUS
 10
184.428246
 20
165.644328
 11
183.817206
 21
165.033288
  0
LINE
  8
1
 62
7
  6
CONTINUOUS
 10
182.445520
 20
163.661602
 11
183.056560
 21
164.272642
  0
LINE
  8
1
 62
7
  6
CONTINUOUS
 10
182.445520
 20
165.121069
 11
183.056560
 21
164.510029
  0
LINE
  8
1
 62
7
  6
CONTINUOUS
 10
183.817206
 20
163.749383
 11
183.823341
 21
163.743248
  0
LINE
  8
1
 62
7
  6
CONTINUOUS
 10
183.823341
 20
163.743248
 11
184.428246
 21
163.138343
  0
LINE
  8
1
 62
7
  6
CONTINUOUS
 10
182.968779
 20
163.138343
 11
183.579819
 21
163.749383
  0
LINE
  8
1
 62
7
  6
CONTINUOUS
 10
184.951505
 20
165.121069
 11
184.340465
 21
164.510029
  0
LINE
  8
1
 62
7
  6
CONTINUOUS
 10
184.951505
 20
163.661602
 11
184.340465
 21
164.272642
  0
LINE
  8
1
 62
7
  6
CONTINUOUS
 10
116.968779
 20
115.644328
 11
117.579819
 21
115.033288
  0
LINE
  8
1
 62
7
  6
CONTINUOUS
 10
118.428246
 20
115.644328
 11
117.817206
 21
115.033288
  0
LINE
  8
1
 62
7
  6
CONTINUOUS
 10
116.445520
 20
113.661602
 11
117.056560
 21
114.272642
  0
LINE
  8
1
 62
7
  6
CONTINUOUS
 10
116.445520
 20
115.121069
 11
117.056560
 21
114.510029
  0
LINE
  8
1
 62
7
  6
CONTINUOUS
 10
117.817206
 20
113.749383
 11
117.823341
 21
113.743248
  0
LINE
  8
1
 62
7
  6
CONTINUOUS
 10
117.823341
 20
113.743248
 11
118.428246
 21
113.138343
  0
LINE
  8
1
 62
7
  6
CONTINUOUS
 10
116.968779
 20
113.138343
 11
117.579819
 21
113.749383
  0
LINE
  8
1
 62
7
  6
CONTINUOUS
 10
118.951505
 20
115.121069
 11
118.340465
 21
114.510029
  0
LINE
  8
1
 62
7
  6
CONTINUOUS
 10
118.951505
 20
113.661602
 11
118.340465
 21
114.272642
  0
LINE
  8
1
 62
7
  6
CONTINUOUS
 10
305.216692
 20
167.491336
 11
298.416692
 21
167.491336
  0
LINE
  8
1
 62
7
  6
CONTINUOUS
 10
296.416692
 20
167.491336
 11
293.216692
 21
167.491336
  0
LINE
  8
1
 62
7
  6
CONTINUOUS
 10
305.216692
 20
161.291336
 11
300.216692
 21
161.291336
  0
LINE
  8
1
 62
7
  6
CONTINUOUS
 10
305.216692
 20
167.491336
 11
305.216692
 21
161.291336
  0
LINE
  8
1
 62
7
  6
CONTINUOUS
 10
56.017551
 20
111.191336
 11
56.017551
 21
167.591336
  0
LINE
  8
1
 62
7
  6
CONTINUOUS
 10
55.017551
 20
111.191336
 11
55.017551
 21
167.591336
  0
LINE
  8
1
 62
7
  6
CONTINUOUS
 10
55.017551
 20
167.591336
 11
56.017551
 21
167.591336
  0
LINE
  8
1
 62
7
  6
CONTINUOUS
 10
55.017551
 20
111.191336
 11
56.017551
 21
111.191336
  0
LINE
  8
1
 62
7
  6
CONTINUOUS
 10
55.017551
 20
110.891336
 11
55.017551
 21
167.891336
  0
LINE
  8
1
 62
7
  6
CONTINUOUS
 10
29.017551
 20
110.891336
 11
29.017551
 21
167.891336
  0
LINE
  8
1
 62
7
  6
CONTINUOUS
 10
29.017551
 20
167.891336
 11
55.017551
 21
167.891336
  0
LINE
  8
1
 62
7
  6
CONTINUOUS
 10
29.017551
 20
110.891336
 11
55.017551
 21
110.891336
  0
LINE
  8
1
 62
7
  6
CONTINUOUS
 10
22.017551
 20
112.681336
 11
22.017551
 21
116.101336
  0
LINE
  8
1
 62
7
  6
CONTINUOUS
 10
22.017551
 20
116.101336
 11
22.017551
 21
117.191336
  0
LINE
  8
1
 62
7
  6
CONTINUOUS
 10
19.806259
 20
114.753836
 11
19.631259
 21
114.753836
  0
LINE
  8
1
 62
7
  6
CONTINUOUS
 10
19.806259
 20
114.028836
 11
19.806259
 21
114.753836
  0
LINE
  8
1
 62
7
  6
CONTINUOUS
 10
19.631259
 20
114.028836
 11
19.806259
 21
114.028836
  0
LINE
  8
1
 62
7
  6
CONTINUOUS
 10
22.017551
 20
117.191336
 11
20.518833
 21
117.191336
  0
LINE
  8
1
 62
7
  6
CONTINUOUS
 10
22.017551
 20
111.591336
 11
22.017551
 21
112.681336
  0
LINE
  8
1
 62
7
  6
CONTINUOUS
 10
20.518833
 20
111.591336
 11
22.017551
 21
111.591336
  0
LINE
  8
1
 62
7
  6
CONTINUOUS
 10
56.017551
 20
166.101336
 11
56.017551
 21
162.681336
  0
LINE
  8
1
 62
7
  6
CONTINUOUS
 10
56.017551
 20
167.191336
 11
56.017551
 21
166.101336
  0
LINE
  8
1
 62
7
  6
CONTINUOUS
 10
58.403843
 20
164.753836
 11
58.228843
 21
164.753836
  0
LINE
  8
1
 62
7
  6
CONTINUOUS
 10
58.228843
 20
164.753836
 11
58.228843
 21
164.028836
  0
LINE
  8
1
 62
7
  6
CONTINUOUS
 10
58.228843
 20
164.028836
 11
58.403843
 21
164.028836
  0
LINE
  8
1
 62
7
  6
CONTINUOUS
 10
57.516269
 20
167.191336
 11
56.017551
 21
167.191336
  0
LINE
  8
1
 62
7
  6
CONTINUOUS
 10
56.017551
 20
162.681336
 11
56.017551
 21
161.591336
  0
LINE
  8
1
 62
7
  6
CONTINUOUS
 10
56.017551
 20
161.591336
 11
57.516269
 21
161.591336
  0
LINE
  8
1
 62
7
  6
CONTINUOUS
 10
56.017551
 20
116.101336
 11
56.017551
 21
112.681336
  0
LINE
  8
1
 62
7
  6
CONTINUOUS
 10
56.017551
 20
117.191336
 11
56.017551
 21
116.101336
  0
LINE
  8
1
 62
7
  6
CONTINUOUS
 10
58.403843
 20
114.753836
 11
58.228843
 21
114.753836
  0
LINE
  8
1
 62
7
  6
CONTINUOUS
 10
58.228843
 20
114.753836
 11
58.228843
 21
114.028836
  0
LINE
  8
1
 62
7
  6
CONTINUOUS
 10
58.228843
 20
114.028836
 11
58.403843
 21
114.028836
  0
LINE
  8
1
 62
7
  6
CONTINUOUS
 10
57.516269
 20
117.191336
 11
56.017551
 21
117.191336
  0
LINE
  8
1
 62
7
  6
CONTINUOUS
 10
56.017551
 20
112.681336
 11
56.017551
 21
111.591336
  0
LINE
  8
1
 62
7
  6
CONTINUOUS
 10
56.017551
 20
111.591336
 11
57.516269
 21
111.591336
  0
LINE
  8
1
 62
7
  6
CONTINUOUS
 10
25.467551
 20
111.232740
 11
24.167551
 21
111.232740
  0
LINE
  8
1
 62
7
  6
CONTINUOUS
 10
23.967551
 20
111.032740
 11
25.667551
 21
111.032740
  0
LINE
  8
1
 62
7
  6
CONTINUOUS
 10
25.617551
 20
111.391336
 11
25.617551
 21
111.382740
  0
LINE
  8
1
 62
7
  6
CONTINUOUS
 10
25.817551
 20
111.391336
 11
25.817551
 21
111.182740
  0
LINE
  8
1
 62
7
  6
CONTINUOUS
 10
25.617551
 20
159.391336
 11
29.017551
 21
159.391336
  0
LINE
  8
1
 62
7
  6
CONTINUOUS
 10
25.617551
 20
111.591336
 11
24.017551
 21
111.591336
  0
LINE
  8
1
 62
7
  6
CONTINUOUS
 10
25.617551
 20
111.591336
 11
25.617551
 21
159.391336
  0
LINE
  8
1
 62
7
  6
CONTINUOUS
 10
23.817551
 20
111.391336
 11
23.817551
 21
111.182740
  0
LINE
  8
1
 62
7
  6
CONTINUOUS
 10
29.017551
 20
161.191336
 11
29.017551
 21
167.391336
  0
LINE
  8
1
 62
7
  6
CONTINUOUS
 10
24.017551
 20
161.191336
 11
29.017551
 21
161.191336
  0
LINE
  8
1
 62
7
  6
CONTINUOUS
 10
24.017551
 20
159.391336
 11
24.017551
 21
161.191336
  0
LINE
  8
1
 62
7
  6
CONTINUOUS
 10
25.817551
 20
111.391336
 11
29.017551
 21
111.391336
  0
LINE
  8
1
 62
7
  6
CONTINUOUS
 10
25.617551
 20
118.091336
 11
25.617551
 21
111.391336
  0
LINE
  8
1
 62
7
  6
CONTINUOUS
 10
29.017551
 20
111.391336
 11
29.017551
 21
118.091336
  0
LINE
  8
1
 62
7
  6
CONTINUOUS
 10
29.017551
 20
118.091336
 11
25.617551
 21
118.091336
  0
LINE
  8
1
 62
7
  6
CONTINUOUS
 10
24.017551
 20
111.391336
 11
24.017551
 21
111.382740
  0
LINE
  8
1
 62
7
  6
CONTINUOUS
 10
24.017551
 20
111.391336
 11
24.017551
 21
159.391336
  0
LINE
  8
1
 62
7
  6
CONTINUOUS
 10
17.017551
 20
167.391336
 11
17.017551
 21
161.191336
  0
LINE
  8
1
 62
7
  6
CONTINUOUS
 10
29.017551
 20
167.391336
 11
17.017551
 21
167.391336
  0
LINE
  8
1
 62
7
  6
CONTINUOUS
 10
17.017551
 20
161.191336
 11
20.017551
 21
161.191336
  0
LINE
  8
1
 62
7
  6
CONTINUOUS
 10
24.017551
 20
159.391336
 11
25.617551
 21
159.391336
  0
LINE
  8
1
 62
7
  6
CONTINUOUS
 10
20.017551
 20
123.591336
 11
20.017551
 21
161.191336
  0
LINE
  8
1
 62
7
  6
CONTINUOUS
 10
22.017551
 20
111.391336
 11
23.817551
 21
111.391336
  0
LINE
  8
1
 62
7
  6
CONTINUOUS
 10
22.017551
 20
118.591336
 11
22.017551
 21
111.391336
  0
LINE
  8
1
 62
7
  6
CONTINUOUS
 10
22.017551
 20
118.591336
 11
17.017551
 21
118.591336
  0
LINE
  8
1
 62
7
  6
CONTINUOUS
 10
17.017551
 20
123.591336
 11
20.017551
 21
123.591336
  0
LINE
  8
1
 62
7
  6
CONTINUOUS
 10
17.017551
 20
118.591336
 11
17.017551
 21
123.591336
  0
LINE
  8
1
 62
7
  6
CONTINUOUS
 10
17.017551
 20
111.291336
 11
23.817551
 21
111.291336
  0
LINE
  8
1
 62
7
  6
CONTINUOUS
 10
25.817551
 20
111.291336
 11
29.017551
 21
111.291336
  0
LINE
  8
1
 62
7
  6
CONTINUOUS
 10
17.017551
 20
117.491336
 11
22.017551
 21
117.491336
  0
LINE
  8
1
 62
7
  6
CONTINUOUS
 10
17.017551
 20
111.291336
 11
17.017551
 21
117.491336
  0
LINE
  8
1
 62
7
  6
CONTINUOUS
 10
123.498512
 20
51.078290
 11
148.998512
 21
51.078290
  0
LINE
  8
1
 62
7
  6
CONTINUOUS
 10
134.548512
 20
51.078290
 11
136.248512
 21
51.078290
  0
LINE
  8
1
 62
7
  6
CONTINUOUS
 10
134.648512
 20
51.078290
 11
134.648512
 21
51.678290
  0
LINE
  8
1
 62
7
  6
CONTINUOUS
 10
136.148512
 20
51.078290
 11
136.148512
 21
51.678290
  0
LINE
  8
1
 62
7
  6
CONTINUOUS
 10
134.648512
 20
51.678290
 11
136.148512
 21
51.678290
  0
LINE
  8
1
 62
7
  6
CONTINUOUS
 10
134.648512
 20
51.678290
 11
134.648512
 21
52.578290
  0
LINE
  8
1
 62
7
  6
CONTINUOUS
 10
136.148512
 20
51.678290
 11
136.148512
 21
52.578290
  0
LINE
  8
1
 62
7
  6
CONTINUOUS
 10
134.648512
 20
52.578290
 11
136.148512
 21
52.578290
  0
LINE
  8
1
 62
7
  6
CONTINUOUS
 10
132.748512
 20
112.421336
 11
132.748512
 21
117.821336
  0
LINE
  8
1
 62
7
  6
CONTINUOUS
 10
123.148512
 20
112.421336
 11
123.148512
 21
117.821336
  0
LINE
  8
1
 62
7
  6
CONTINUOUS
 10
123.148512
 20
117.821336
 11
132.748512
 21
117.821336
  0
LINE
  8
1
 62
7
  6
CONTINUOUS
 10
123.148512
 20
112.421336
 11
125.648512
 21
112.421336
  0
LINE
  8
1
 62
7
  6
CONTINUOUS
 10
132.748512
 20
116.821336
 11
134.148512
 21
116.821336
  0
LINE
  8
1
 62
7
  6
CONTINUOUS
 10
132.748512
 20
113.421336
 11
134.148512
 21
113.421336
  0
LINE
  8
1
 62
7
  6
CONTINUOUS
 10
134.148512
 20
113.421336
 11
134.148512
 21
116.821336
  0
LINE
  8
1
 62
7
  6
CONTINUOUS
 10
126.448512
 20
112.421336
 11
132.748512
 21
112.421336
  0
LINE
  8
1
 62
7
  6
CONTINUOUS
 10
123.748512
 20
113.321336
 11
123.748512
 21
116.921336
  0
LINE
  8
1
 62
7
  6
CONTINUOUS
 10
127.348512
 20
113.321336
 11
127.348512
 21
116.921336
  0
LINE
  8
1
 62
7
  6
CONTINUOUS
 10
132.148512
 20
113.321336
 11
132.148512
 21
116.921336
  0
LINE
  8
1
 62
7
  6
CONTINUOUS
 10
128.548512
 20
114.371336
 11
128.548512
 21
115.871336
  0
LINE
  8
1
 62
7
  6
CONTINUOUS
 10
129.648512
 20
113.321336
 11
128.548512
 21
114.371336
  0
LINE
  8
1
 62
7
  6
CONTINUOUS
 10
128.548512
 20
115.871336
 11
129.648512
 21
116.921336
  0
LINE
  8
1
 62
7
  6
CONTINUOUS
 10
129.648512
 20
116.921336
 11
132.148512
 21
116.921336
  0
LINE
  8
1
 62
7
  6
CONTINUOUS
 10
123.748512
 20
116.921336
 11
127.348512
 21
116.921336
  0
LINE
  8
1
 62
7
  6
CONTINUOUS
 10
123.748512
 20
113.321336
 11
127.348512
 21
113.321336
  0
LINE
  8
1
 62
7
  6
CONTINUOUS
 10
129.648512
 20
113.321336
 11
132.148512
 21
113.321336
  0
LINE
  8
1
 62
7
  6
CONTINUOUS
 10
129.048512
 20
114.521336
 11
130.948512
 21
114.521336
  0
LINE
  8
1
 62
7
  6
CONTINUOUS
 10
129.048512
 20
115.721336
 11
130.948512
 21
115.721336
  0
LINE
  8
1
 62
7
  6
CONTINUOUS
 10
130.948512
 20
114.521336
 11
130.948512
 21
115.721336
  0
LINE
  8
1
 62
7
  6
CONTINUOUS
 10
129.048512
 20
114.721336
 11
129.748512
 21
114.721336
  0
LINE
  8
1
 62
7
  6
CONTINUOUS
 10
129.048512
 20
115.521336
 11
129.748512
 21
115.521336
  0
LINE
  8
1
 62
7
  6
CONTINUOUS
 10
129.048512
 20
115.521336
 11
129.048512
 21
115.721336
  0
LINE
  8
1
 62
7
  6
CONTINUOUS
 10
129.048512
 20
114.521336
 11
129.048512
 21
114.721336
  0
LINE
  8
1
 62
7
  6
CONTINUOUS
 10
129.748512
 20
114.721336
 11
129.748512
 21
115.521336
  0
LINE
  8
1
 62
7
  6
CONTINUOUS
 10
124.948512
 20
114.521336
 11
126.848512
 21
114.521336
  0
LINE
  8
1
 62
7
  6
CONTINUOUS
 10
124.948512
 20
115.721336
 11
126.848512
 21
115.721336
  0
LINE
  8
1
 62
7
  6
CONTINUOUS
 10
124.948512
 20
115.721336
 11
124.948512
 21
114.521336
  0
LINE
  8
1
 62
7
  6
CONTINUOUS
 10
126.148512
 20
114.721336
 11
126.848512
 21
114.721336
  0
LINE
  8
1
 62
7
  6
CONTINUOUS
 10
126.148512
 20
115.521336
 11
126.848512
 21
115.521336
  0
LINE
  8
1
 62
7
  6
CONTINUOUS
 10
126.848512
 20
115.721336
 11
126.848512
 21
115.521336
  0
LINE
  8
1
 62
7
  6
CONTINUOUS
 10
126.848512
 20
114.721336
 11
126.848512
 21
114.521336
  0
LINE
  8
1
 62
7
  6
CONTINUOUS
 10
126.148512
 20
115.521336
 11
126.148512
 21
114.721336
  0
LINE
  8
1
 62
7
  6
CONTINUOUS
 10
139.198512
 20
114.921336
 11
139.198512
 21
115.321336
  0
LINE
  8
1
 62
7
  6
CONTINUOUS
 10
139.598512
 20
114.921336
 11
139.598512
 21
115.321336
  0
LINE
  8
1
 62
7
  6
CONTINUOUS
 10
139.198512
 20
115.321336
 11
139.598512
 21
115.321336
  0
LINE
  8
1
 62
7
  6
CONTINUOUS
 10
139.198512
 20
114.921336
 11
139.598512
 21
114.921336
  0
LINE
  8
1
 62
7
  6
CONTINUOUS
 10
139.198512
 20
114.921336
 11
139.598512
 21
115.321336
  0
LINE
  8
1
 62
7
  6
CONTINUOUS
 10
139.198512
 20
115.321336
 11
139.598512
 21
114.921336
  0
LINE
  8
1
 62
7
  6
CONTINUOUS
 10
140.698512
 20
114.921336
 11
140.698512
 21
115.321336
  0
LINE
  8
1
 62
7
  6
CONTINUOUS
 10
141.098512
 20
114.921336
 11
141.098512
 21
115.321336
  0
LINE
  8
1
 62
7
  6
CONTINUOUS
 10
140.698512
 20
115.321336
 11
141.098512
 21
115.321336
  0
LINE
  8
1
 62
7
  6
CONTINUOUS
 10
140.698512
 20
114.921336
 11
141.098512
 21
114.921336
  0
LINE
  8
1
 62
7
  6
CONTINUOUS
 10
140.698512
 20
114.921336
 11
141.098512
 21
115.321336
  0
LINE
  8
1
 62
7
  6
CONTINUOUS
 10
140.698512
 20
115.321336
 11
141.098512
 21
114.921336
  0
LINE
  8
1
 62
7
  6
CONTINUOUS
 10
142.198512
 20
114.921336
 11
142.198512
 21
115.321336
  0
LINE
  8
1
 62
7
  6
CONTINUOUS
 10
142.598512
 20
114.921336
 11
142.598512
 21
115.321336
  0
LINE
  8
1
 62
7
  6
CONTINUOUS
 10
142.198512
 20
115.321336
 11
142.598512
 21
115.321336
  0
LINE
  8
1
 62
7
  6
CONTINUOUS
 10
142.198512
 20
114.921336
 11
142.598512
 21
114.921336
  0
LINE
  8
1
 62
7
  6
CONTINUOUS
 10
142.198512
 20
114.921336
 11
142.598512
 21
115.321336
  0
LINE
  8
1
 62
7
  6
CONTINUOUS
 10
142.198512
 20
115.321336
 11
142.598512
 21
114.921336
  0
LINE
  8
1
 62
7
  6
CONTINUOUS
 10
143.698512
 20
114.921336
 11
143.698512
 21
115.321336
  0
LINE
  8
1
 62
7
  6
CONTINUOUS
 10
144.098512
 20
114.921336
 11
144.098512
 21
115.321336
  0
LINE
  8
1
 62
7
  6
CONTINUOUS
 10
143.698512
 20
115.321336
 11
144.098512
 21
115.321336
  0
LINE
  8
1
 62
7
  6
CONTINUOUS
 10
143.698512
 20
114.921336
 11
144.098512
 21
114.921336
  0
LINE
  8
1
 62
7
  6
CONTINUOUS
 10
143.698512
 20
114.921336
 11
144.098512
 21
115.321336
  0
LINE
  8
1
 62
7
  6
CONTINUOUS
 10
143.698512
 20
115.321336
 11
144.098512
 21
114.921336
  0
LINE
  8
1
 62
7
  6
CONTINUOUS
 10
145.198512
 20
114.921336
 11
145.198512
 21
115.321336
  0
LINE
  8
1
 62
7
  6
CONTINUOUS
 10
145.598512
 20
114.921336
 11
145.598512
 21
115.321336
  0
LINE
  8
1
 62
7
  6
CONTINUOUS
 10
145.198512
 20
115.321336
 11
145.598512
 21
115.321336
  0
LINE
  8
1
 62
7
  6
CONTINUOUS
 10
145.198512
 20
114.921336
 11
145.598512
 21
114.921336
  0
LINE
  8
1
 62
7
  6
CONTINUOUS
 10
145.198512
 20
114.921336
 11
145.598512
 21
115.321336
  0
LINE
  8
1
 62
7
  6
CONTINUOUS
 10
145.198512
 20
115.321336
 11
145.598512
 21
114.921336
  0
LINE
  8
1
 62
7
  6
CONTINUOUS
 10
146.698512
 20
114.921336
 11
146.698512
 21
115.321336
  0
LINE
  8
1
 62
7
  6
CONTINUOUS
 10
147.098512
 20
114.921336
 11
147.098512
 21
115.321336
  0
LINE
  8
1
 62
7
  6
CONTINUOUS
 10
146.698512
 20
115.321336
 11
147.098512
 21
115.321336
  0
LINE
  8
1
 62
7
  6
CONTINUOUS
 10
146.698512
 20
114.921336
 11
147.098512
 21
114.921336
  0
LINE
  8
1
 62
7
  6
CONTINUOUS
 10
146.698512
 20
114.921336
 11
147.098512
 21
115.321336
  0
LINE
  8
1
 62
7
  6
CONTINUOUS
 10
146.698512
 20
115.321336
 11
147.098512
 21
114.921336
  0
LINE
  8
1
 62
7
  6
CONTINUOUS
 10
148.198512
 20
114.921336
 11
148.198512
 21
115.321336
  0
LINE
  8
1
 62
7
  6
CONTINUOUS
 10
148.598512
 20
114.921336
 11
148.598512
 21
115.321336
  0
LINE
  8
1
 62
7
  6
CONTINUOUS
 10
148.198512
 20
115.321336
 11
148.598512
 21
115.321336
  0
LINE
  8
1
 62
7
  6
CONTINUOUS
 10
148.198512
 20
114.921336
 11
148.598512
 21
114.921336
  0
LINE
  8
1
 62
7
  6
CONTINUOUS
 10
148.198512
 20
114.921336
 11
148.598512
 21
115.321336
  0
LINE
  8
1
 62
7
  6
CONTINUOUS
 10
148.198512
 20
115.321336
 11
148.598512
 21
114.921336
  0
LINE
  8
1
 62
7
  6
CONTINUOUS
 10
149.698512
 20
114.921336
 11
149.698512
 21
115.321336
  0
LINE
  8
1
 62
7
  6
CONTINUOUS
 10
150.098512
 20
114.921336
 11
150.098512
 21
115.321336
  0
LINE
  8
1
 62
7
  6
CONTINUOUS
 10
149.698512
 20
115.321336
 11
150.098512
 21
115.321336
  0
LINE
  8
1
 62
7
  6
CONTINUOUS
 10
149.698512
 20
114.921336
 11
150.098512
 21
114.921336
  0
LINE
  8
1
 62
7
  6
CONTINUOUS
 10
149.698512
 20
114.921336
 11
150.098512
 21
115.321336
  0
LINE
  8
1
 62
7
  6
CONTINUOUS
 10
149.698512
 20
115.321336
 11
150.098512
 21
114.921336
  0
LINE
  8
1
 62
7
  6
CONTINUOUS
 10
151.198512
 20
114.921336
 11
151.198512
 21
115.321336
  0
LINE
  8
1
 62
7
  6
CONTINUOUS
 10
151.598512
 20
114.921336
 11
151.598512
 21
115.321336
  0
LINE
  8
1
 62
7
  6
CONTINUOUS
 10
151.198512
 20
115.321336
 11
151.598512
 21
115.321336
  0
LINE
  8
1
 62
7
  6
CONTINUOUS
 10
151.198512
 20
114.921336
 11
151.598512
 21
114.921336
  0
LINE
  8
1
 62
7
  6
CONTINUOUS
 10
151.198512
 20
114.921336
 11
151.598512
 21
115.321336
  0
LINE
  8
1
 62
7
  6
CONTINUOUS
 10
151.198512
 20
115.321336
 11
151.598512
 21
114.921336
  0
LINE
  8
1
 62
7
  6
CONTINUOUS
 10
152.698512
 20
114.921336
 11
152.698512
 21
115.321336
  0
LINE
  8
1
 62
7
  6
CONTINUOUS
 10
153.098512
 20
114.921336
 11
153.098512
 21
115.321336
  0
LINE
  8
1
 62
7
  6
CONTINUOUS
 10
152.698512
 20
115.321336
 11
153.098512
 21
115.321336
  0
LINE
  8
1
 62
7
  6
CONTINUOUS
 10
152.698512
 20
114.921336
 11
153.098512
 21
114.921336
  0
LINE
  8
1
 62
7
  6
CONTINUOUS
 10
152.698512
 20
114.921336
 11
153.098512
 21
115.321336
  0
LINE
  8
1
 62
7
  6
CONTINUOUS
 10
152.698512
 20
115.321336
 11
153.098512
 21
114.921336
  0
LINE
  8
1
 62
7
  6
CONTINUOUS
 10
154.373512
 20
113.371336
 11
154.373512
 21
116.871336
  0
LINE
  8
1
 62
7
  6
CONTINUOUS
 10
137.923512
 20
113.371336
 11
137.923512
 21
116.871336
  0
LINE
  8
1
 62
7
  6
CONTINUOUS
 10
137.923512
 20
116.871336
 11
154.373512
 21
116.871336
  0
LINE
  8
1
 62
7
  6
CONTINUOUS
 10
137.923512
 20
113.371336
 11
154.373512
 21
113.371336
  0
LINE
  8
1
 62
7
  6
CONTINUOUS
 10
153.973512
 20
113.771336
 11
153.973512
 21
116.471336
  0
LINE
  8
1
 62
7
  6
CONTINUOUS
 10
138.323512
 20
113.771336
 11
138.323512
 21
116.471336
  0
LINE
  8
1
 62
7
  6
CONTINUOUS
 10
138.323512
 20
116.471336
 11
153.973512
 21
116.471336
  0
LINE
  8
1
 62
7
  6
CONTINUOUS
 10
138.323512
 20
113.771336
 11
153.973512
 21
113.771336
  0
LINE
  8
1
 62
7
  6
CONTINUOUS
 10
152.148512
 20
116.471336
 11
152.148512
 21
116.871336
  0
LINE
  8
1
 62
7
  6
CONTINUOUS
 10
140.148512
 20
116.471336
 11
140.148512
 21
116.871336
  0
LINE
  8
1
 62
7
  6
CONTINUOUS
 10
123.148512
 20
51.078290
 11
123.148512
 21
63.878290
  0
LINE
  8
1
 62
7
  6
CONTINUOUS
 10
132.748512
 20
51.078290
 11
132.748512
 21
63.878290
  0
LINE
  8
1
 62
7
  6
CONTINUOUS
 10
123.148512
 20
63.878290
 11
132.748512
 21
63.878290
  0
LINE
  8
1
 62
7
  6
CONTINUOUS
 10
132.748512
 20
60.878290
 11
134.148512
 21
60.878290
  0
LINE
  8
1
 62
7
  6
CONTINUOUS
 10
132.748512
 20
63.878290
 11
134.148512
 21
61.378290
  0
LINE
  8
1
 62
7
  6
CONTINUOUS
 10
134.148512
 20
61.378290
 11
134.148512
 21
60.878290
  0
LINE
  8
1
 62
7
  6
CONTINUOUS
 10
137.923512
 20
51.078290
 11
137.923512
 21
56.378290
  0
LINE
  8
1
 62
7
  6
CONTINUOUS
 10
154.373512
 20
51.078290
 11
154.373512
 21
56.378290
  0
LINE
  8
1
 62
7
  6
CONTINUOUS
 10
137.923512
 20
56.378290
 11
154.373512
 21
56.378290
  0
LINE
  8
1
 62
7
  6
CONTINUOUS
 10
125.078512
 20
48.478290
 11
124.598512
 21
49.478290
  0
LINE
  8
1
 62
7
  6
CONTINUOUS
 10
125.718512
 20
48.478290
 11
126.198512
 21
49.478290
  0
LINE
  8
1
 62
7
  6
CONTINUOUS
 10
125.078512
 20
48.478290
 11
125.078512
 21
47.978290
  0
LINE
  8
1
 62
7
  6
CONTINUOUS
 10
125.718512
 20
48.478290
 11
125.078512
 21
48.478290
  0
LINE
  8
1
 62
7
  6
CONTINUOUS
 10
125.718512
 20
47.978290
 11
125.718512
 21
48.478290
  0
LINE
  8
1
 62
7
  6
CONTINUOUS
 10
125.078512
 20
47.978290
 11
125.718512
 21
47.978290
  0
LINE
  8
1
 62
7
  6
CONTINUOUS
 10
130.578512
 20
48.478290
 11
130.098512
 21
49.478290
  0
LINE
  8
1
 62
7
  6
CONTINUOUS
 10
131.218512
 20
48.478290
 11
131.698512
 21
49.478290
  0
LINE
  8
1
 62
7
  6
CONTINUOUS
 10
130.578512
 20
48.478290
 11
130.578512
 21
47.978290
  0
LINE
  8
1
 62
7
  6
CONTINUOUS
 10
131.218512
 20
48.478290
 11
130.578512
 21
48.478290
  0
LINE
  8
1
 62
7
  6
CONTINUOUS
 10
131.218512
 20
47.978290
 11
131.218512
 21
48.478290
  0
LINE
  8
1
 62
7
  6
CONTINUOUS
 10
130.578512
 20
47.978290
 11
131.218512
 21
47.978290
  0
LINE
  8
1
 62
7
  6
CONTINUOUS
 10
139.278512
 20
48.678290
 11
138.798512
 21
49.478290
  0
LINE
  8
1
 62
7
  6
CONTINUOUS
 10
139.518512
 20
48.678290
 11
139.998512
 21
49.478290
  0
LINE
  8
1
 62
7
  6
CONTINUOUS
 10
139.278512
 20
48.678290
 11
139.278512
 21
48.178290
  0
LINE
  8
1
 62
7
  6
CONTINUOUS
 10
139.518512
 20
48.678290
 11
139.278512
 21
48.678290
  0
LINE
  8
1
 62
7
  6
CONTINUOUS
 10
139.518512
 20
48.178290
 11
139.518512
 21
48.678290
  0
LINE
  8
1
 62
7
  6
CONTINUOUS
 10
139.278512
 20
48.178290
 11
139.518512
 21
48.178290
  0
LINE
  8
1
 62
7
  6
CONTINUOUS
 10
140.778512
 20
48.678290
 11
140.298512
 21
49.478290
  0
LINE
  8
1
 62
7
  6
CONTINUOUS
 10
141.018512
 20
48.678290
 11
141.498512
 21
49.478290
  0
LINE
  8
1
 62
7
  6
CONTINUOUS
 10
140.778512
 20
48.678290
 11
140.778512
 21
48.178290
  0
LINE
  8
1
 62
7
  6
CONTINUOUS
 10
141.018512
 20
48.678290
 11
140.778512
 21
48.678290
  0
LINE
  8
1
 62
7
  6
CONTINUOUS
 10
141.018512
 20
48.178290
 11
141.018512
 21
48.678290
  0
LINE
  8
1
 62
7
  6
CONTINUOUS
 10
140.778512
 20
48.178290
 11
141.018512
 21
48.178290
  0
LINE
  8
1
 62
7
  6
CONTINUOUS
 10
142.278512
 20
48.678290
 11
141.798512
 21
49.478290
  0
LINE
  8
1
 62
7
  6
CONTINUOUS
 10
142.518512
 20
48.678290
 11
142.998512
 21
49.478290
  0
LINE
  8
1
 62
7
  6
CONTINUOUS
 10
142.278512
 20
48.678290
 11
142.278512
 21
48.178290
  0
LINE
  8
1
 62
7
  6
CONTINUOUS
 10
142.518512
 20
48.678290
 11
142.278512
 21
48.678290
  0
LINE
  8
1
 62
7
  6
CONTINUOUS
 10
142.518512
 20
48.178290
 11
142.518512
 21
48.678290
  0
LINE
  8
1
 62
7
  6
CONTINUOUS
 10
142.278512
 20
48.178290
 11
142.518512
 21
48.178290
  0
LINE
  8
1
 62
7
  6
CONTINUOUS
 10
143.778512
 20
48.678290
 11
143.298512
 21
49.478290
  0
LINE
  8
1
 62
7
  6
CONTINUOUS
 10
144.018512
 20
48.678290
 11
144.498512
 21
49.478290
  0
LINE
  8
1
 62
7
  6
CONTINUOUS
 10
143.778512
 20
48.678290
 11
143.778512
 21
48.178290
  0
LINE
  8
1
 62
7
  6
CONTINUOUS
 10
144.018512
 20
48.678290
 11
143.778512
 21
48.678290
  0
LINE
  8
1
 62
7
  6
CONTINUOUS
 10
144.018512
 20
48.178290
 11
144.018512
 21
48.678290
  0
LINE
  8
1
 62
7
  6
CONTINUOUS
 10
143.778512
 20
48.178290
 11
144.018512
 21
48.178290
  0
LINE
  8
1
 62
7
  6
CONTINUOUS
 10
145.278512
 20
48.678290
 11
144.798512
 21
49.478290
  0
LINE
  8
1
 62
7
  6
CONTINUOUS
 10
145.518512
 20
48.678290
 11
145.998512
 21
49.478290
  0
LINE
  8
1
 62
7
  6
CONTINUOUS
 10
145.278512
 20
48.678290
 11
145.278512
 21
48.178290
  0
LINE
  8
1
 62
7
  6
CONTINUOUS
 10
145.518512
 20
48.678290
 11
145.278512
 21
48.678290
  0
LINE
  8
1
 62
7
  6
CONTINUOUS
 10
145.518512
 20
48.178290
 11
145.518512
 21
48.678290
  0
LINE
  8
1
 62
7
  6
CONTINUOUS
 10
145.278512
 20
48.178290
 11
145.518512
 21
48.178290
  0
LINE
  8
1
 62
7
  6
CONTINUOUS
 10
146.778512
 20
48.678290
 11
146.298512
 21
49.478290
  0
LINE
  8
1
 62
7
  6
CONTINUOUS
 10
147.018512
 20
48.678290
 11
147.498512
 21
49.478290
  0
LINE
  8
1
 62
7
  6
CONTINUOUS
 10
146.778512
 20
48.678290
 11
146.778512
 21
48.178290
  0
LINE
  8
1
 62
7
  6
CONTINUOUS
 10
147.018512
 20
48.678290
 11
146.778512
 21
48.678290
  0
LINE
  8
1
 62
7
  6
CONTINUOUS
 10
147.018512
 20
48.178290
 11
147.018512
 21
48.678290
  0
LINE
  8
1
 62
7
  6
CONTINUOUS
 10
146.778512
 20
48.178290
 11
147.018512
 21
48.178290
  0
LINE
  8
1
 62
7
  6
CONTINUOUS
 10
148.278512
 20
48.678290
 11
147.798512
 21
49.478290
  0
LINE
  8
1
 62
7
  6
CONTINUOUS
 10
148.518512
 20
48.678290
 11
148.998512
 21
49.478290
  0
LINE
  8
1
 62
7
  6
CONTINUOUS
 10
148.278512
 20
48.678290
 11
148.278512
 21
48.178290
  0
LINE
  8
1
 62
7
  6
CONTINUOUS
 10
148.518512
 20
48.678290
 11
148.278512
 21
48.678290
  0
LINE
  8
1
 62
7
  6
CONTINUOUS
 10
148.518512
 20
48.178290
 11
148.518512
 21
48.678290
  0
LINE
  8
1
 62
7
  6
CONTINUOUS
 10
148.278512
 20
48.178290
 11
148.518512
 21
48.178290
  0
LINE
  8
1
 62
7
  6
CONTINUOUS
 10
149.778512
 20
48.678290
 11
149.298512
 21
49.478290
  0
LINE
  8
1
 62
7
  6
CONTINUOUS
 10
150.018512
 20
48.678290
 11
150.498512
 21
49.478290
  0
LINE
  8
1
 62
7
  6
CONTINUOUS
 10
149.778512
 20
48.678290
 11
149.778512
 21
48.178290
  0
LINE
  8
1
 62
7
  6
CONTINUOUS
 10
150.018512
 20
48.678290
 11
149.778512
 21
48.678290
  0
LINE
  8
1
 62
7
  6
CONTINUOUS
 10
150.018512
 20
48.178290
 11
150.018512
 21
48.678290
  0
LINE
  8
1
 62
7
  6
CONTINUOUS
 10
149.778512
 20
48.178290
 11
150.018512
 21
48.178290
  0
LINE
  8
1
 62
7
  6
CONTINUOUS
 10
151.278512
 20
48.678290
 11
150.798512
 21
49.478290
  0
LINE
  8
1
 62
7
  6
CONTINUOUS
 10
151.518512
 20
48.678290
 11
151.998512
 21
49.478290
  0
LINE
  8
1
 62
7
  6
CONTINUOUS
 10
151.278512
 20
48.678290
 11
151.278512
 21
48.178290
  0
LINE
  8
1
 62
7
  6
CONTINUOUS
 10
151.518512
 20
48.678290
 11
151.278512
 21
48.678290
  0
LINE
  8
1
 62
7
  6
CONTINUOUS
 10
151.518512
 20
48.178290
 11
151.518512
 21
48.678290
  0
LINE
  8
1
 62
7
  6
CONTINUOUS
 10
151.278512
 20
48.178290
 11
151.518512
 21
48.178290
  0
LINE
  8
1
 62
7
  6
CONTINUOUS
 10
152.778512
 20
48.678290
 11
152.298512
 21
49.478290
  0
LINE
  8
1
 62
7
  6
CONTINUOUS
 10
153.018512
 20
48.678290
 11
153.498512
 21
49.478290
  0
LINE
  8
1
 62
7
  6
CONTINUOUS
 10
152.778512
 20
48.678290
 11
152.778512
 21
48.178290
  0
LINE
  8
1
 62
7
  6
CONTINUOUS
 10
153.018512
 20
48.678290
 11
152.778512
 21
48.678290
  0
LINE
  8
1
 62
7
  6
CONTINUOUS
 10
153.018512
 20
48.178290
 11
153.018512
 21
48.678290
  0
LINE
  8
1
 62
7
  6
CONTINUOUS
 10
152.778512
 20
48.178290
 11
153.018512
 21
48.178290
  0
LINE
  8
1
 62
7
  6
CONTINUOUS
 10
132.748512
 20
54.478290
 11
137.923512
 21
54.478290
  0
LINE
  8
1
 62
7
  6
CONTINUOUS
 10
293.128186
 20
181.712032
 11
349.534655
 21
181.712032
  0
ARC
  8
1
 62
7
  6
CONTINUOUS
 10
139.998512
 20
161.141336
 40
4.800000
 50
54.314665
 51
72.417224
  0
ARC
  8
1
 62
7
  6
CONTINUOUS
 10
139.998512
 20
161.141336
 40
4.800000
 50
94.331149
 51
107.582776
  0
ARC
  8
1
 62
7
  6
CONTINUOUS
 10
139.998512
 20
161.141336
 40
4.800000
 50
107.582776
 51
125.685335
  0
ARC
  8
1
 62
7
  6
CONTINUOUS
 10
139.998512
 20
161.141336
 40
4.800000
 50
72.417224
 51
85.668851
  0
ARC
  8
1
 62
7
  6
CONTINUOUS
 10
134.038304
 20
128.677422
 40
1.584889
 50
-67.495567
 51
83.107070
  0
ARC
  8
1
 62
7
  6
CONTINUOUS
 10
133.299711
 20
128.572405
 40
0.999802
 50
-72.343794
 51
72.343794
  0
ARC
  8
1
 62
7
  6
CONTINUOUS
 10
123.748646
 20
128.585978
 40
1.716801
 50
104.127549
 51
-122.952814
  0
ARC
  8
1
 62
7
  6
CONTINUOUS
 10
124.204712
 20
126.268308
 40
1.836597
 50
-91.300987
 51
47.472421
  0
ARC
  8
1
 62
7
  6
CONTINUOUS
 10
124.101789
 20
128.892431
 40
0.591389
 50
74.292119
 51
-115.988954
  0
ARC
  8
1
 62
7
  6
CONTINUOUS
 10
123.872644
 20
126.594554
 40
2.181779
 50
-143.243695
 51
-82.351917
  0
ARC
  8
1
 62
7
  6
CONTINUOUS
 10
124.069231
 20
128.492583
 40
0.988117
 50
37.021554
 51
78.756281
  0
ARC
  8
1
 62
7
  6
CONTINUOUS
 10
123.835749
 20
126.020355
 40
0.684040
 50
-105.917925
 51
60.110482
  0
ARC
  8
1
 62
7
  6
CONTINUOUS
 10
125.113248
 20
128.557576
 40
3.514934
 50
-131.026079
 51
-114.634151
  0
ARC
  8
1
 62
7
  6
CONTINUOUS
 10
124.154643
 20
128.280866
 40
2.021123
 50
37.491802
 51
77.084354
  0
ARC
  8
1
 62
7
  6
CONTINUOUS
 10
123.968002
 20
127.035598
 40
3.278022
 50
78.769874
 51
101.230126
  0
ARC
  8
1
 62
7
  6
CONTINUOUS
 10
135.398512
 20
116.621336
 40
0.375000
 50
180.000000
 51
0.000000
  0
ARC
  8
1
 62
7
  6
CONTINUOUS
 10
135.398512
 20
113.621336
 40
0.375000
 50
0.000000
 51
180.000000
  0
ARC
  8
1
 62
7
  6
CONTINUOUS
 10
126.298512
 20
160.166336
 40
4.800000
 50
54.314665
 51
72.417224
  0
ARC
  8
1
 62
7
  6
CONTINUOUS
 10
126.298512
 20
160.166336
 40
4.800000
 50
94.331149
 51
107.582776
  0
ARC
  8
1
 62
7
  6
CONTINUOUS
 10
126.298512
 20
160.166336
 40
4.800000
 50
107.582776
 51
125.685335
  0
ARC
  8
1
 62
7
  6
CONTINUOUS
 10
126.298512
 20
160.166336
 40
4.800000
 50
72.417224
 51
85.668851
  0
ARC
  8
1
 62
7
  6
CONTINUOUS
 10
152.498512
 20
159.691336
 40
4.800000
 50
54.314665
 51
72.417224
  0
ARC
  8
1
 62
7
  6
CONTINUOUS
 10
152.498512
 20
159.691336
 40
4.800000
 50
94.331149
 51
107.582776
  0
ARC
  8
1
 62
7
  6
CONTINUOUS
 10
152.498512
 20
159.691336
 40
4.800000
 50
107.582776
 51
125.685335
  0
ARC
  8
1
 62
7
  6
CONTINUOUS
 10
152.498512
 20
159.691336
 40
4.800000
 50
72.417224
 51
85.668851
  0
ARC
  8
1
 62
7
  6
CONTINUOUS
 10
176.898512
 20
159.691336
 40
4.800000
 50
54.314665
 51
72.417224
  0
ARC
  8
1
 62
7
  6
CONTINUOUS
 10
176.898512
 20
159.691336
 40
4.800000
 50
94.331149
 51
107.582776
  0
ARC
  8
1
 62
7
  6
CONTINUOUS
 10
176.898512
 20
159.691336
 40
4.800000
 50
107.582776
 51
125.685335
  0
ARC
  8
1
 62
7
  6
CONTINUOUS
 10
176.898512
 20
159.691336
 40
4.800000
 50
72.417224
 51
85.668851
  0
ARC
  8
1
 62
7
  6
CONTINUOUS
 10
297.816692
 20
164.391336
 40
4.800000
 50
-35.685335
 51
-17.582776
  0
ARC
  8
1
 62
7
  6
CONTINUOUS
 10
297.816692
 20
164.391336
 40
4.800000
 50
4.331149
 51
17.582776
  0
ARC
  8
1
 62
7
  6
CONTINUOUS
 10
297.816692
 20
164.391336
 40
4.800000
 50
17.582776
 51
35.685335
  0
ARC
  8
1
 62
7
  6
CONTINUOUS
 10
297.816692
 20
164.391336
 40
4.800000
 50
-17.582776
 51
-4.331149
  0
ARC
  8
1
 62
7
  6
CONTINUOUS
 10
268.616692
 20
164.391336
 40
4.800000
 50
144.314665
 51
162.417224
  0
ARC
  8
1
 62
7
  6
CONTINUOUS
 10
268.616692
 20
164.391336
 40
4.800000
 50
-175.668851
 51
-162.417224
  0
ARC
  8
1
 62
7
  6
CONTINUOUS
 10
268.616692
 20
164.391336
 40
4.800000
 50
-162.417224
 51
-144.314665
  0
ARC
  8
1
 62
7
  6
CONTINUOUS
 10
268.616692
 20
164.391336
 40
4.800000
 50
162.417224
 51
175.668851
  0
ARC
  8
1
 62
7
  6
CONTINUOUS
 10
268.616692
 20
114.391336
 40
4.800000
 50
144.314665
 51
162.417224
  0
ARC
  8
1
 62
7
  6
CONTINUOUS
 10
268.616692
 20
114.391336
 40
4.800000
 50
-175.668851
 51
-162.417224
  0
ARC
  8
1
 62
7
  6
CONTINUOUS
 10
268.616692
 20
114.391336
 40
4.800000
 50
-162.417224
 51
-144.314665
  0
ARC
  8
1
 62
7
  6
CONTINUOUS
 10
268.616692
 20
114.391336
 40
4.800000
 50
162.417224
 51
175.668851
  0
ARC
  8
1
 62
7
  6
CONTINUOUS
 10
183.698512
 20
79.078290
 40
4.800000
 50
54.314665
 51
72.417224
  0
ARC
  8
1
 62
7
  6
CONTINUOUS
 10
183.698512
 20
79.078290
 40
4.800000
 50
94.331149
 51
107.582776
  0
ARC
  8
1
 62
7
  6
CONTINUOUS
 10
183.698512
 20
79.078290
 40
4.800000
 50
107.582776
 51
125.685335
  0
ARC
  8
1
 62
7
  6
CONTINUOUS
 10
183.698512
 20
79.078290
 40
4.800000
 50
72.417224
 51
85.668851
  0
ARC
  8
1
 62
7
  6
CONTINUOUS
 10
117.698512
 20
79.078290
 40
4.800000
 50
54.314665
 51
72.417224
  0
ARC
  8
1
 62
7
  6
CONTINUOUS
 10
117.698512
 20
79.078290
 40
4.800000
 50
94.331149
 51
107.582776
  0
ARC
  8
1
 62
7
  6
CONTINUOUS
 10
117.698512
 20
79.078290
 40
4.800000
 50
107.582776
 51
125.685335
  0
ARC
  8
1
 62
7
  6
CONTINUOUS
 10
117.698512
 20
79.078290
 40
4.800000
 50
72.417224
 51
85.668851
  0
ARC
  8
1
 62
7
  6
CONTINUOUS
 10
117.698512
 20
49.878290
 40
4.800000
 50
-125.685335
 51
-107.582776
  0
ARC
  8
1
 62
7
  6
CONTINUOUS
 10
117.698512
 20
49.878290
 40
4.800000
 50
-85.668851
 51
-72.417224
  0
ARC
  8
1
 62
7
  6
CONTINUOUS
 10
117.698512
 20
49.878290
 40
4.800000
 50
-72.417224
 51
-54.314665
  0
ARC
  8
1
 62
7
  6
CONTINUOUS
 10
117.698512
 20
49.878290
 40
4.800000
 50
-107.582776
 51
-94.331149
  0
ARC
  8
1
 62
7
  6
CONTINUOUS
 10
183.698512
 20
164.391336
 40
1.450000
 50
30.216198
 51
59.783802
  0
ARC
  8
1
 62
7
  6
CONTINUOUS
 10
183.698512
 20
164.391336
 40
0.635000
 50
82.541551
 51
97.458449
  0
ARC
  8
1
 62
7
  6
CONTINUOUS
 10
183.698512
 20
164.391336
 40
1.450000
 50
120.216198
 51
149.783802
  0
ARC
  8
1
 62
7
  6
CONTINUOUS
 10
183.698512
 20
164.391336
 40
0.635000
 50
172.541551
 51
-172.541551
  0
ARC
  8
1
 62
7
  6
CONTINUOUS
 10
183.698512
 20
164.391336
 40
1.450000
 50
-149.783802
 51
-120.216198
  0
ARC
  8
1
 62
7
  6
CONTINUOUS
 10
183.698512
 20
164.391336
 40
0.635000
 50
-97.458449
 51
-82.541551
  0
ARC
  8
1
 62
7
  6
CONTINUOUS
 10
183.698512
 20
164.391336
 40
1.450000
 50
-59.783802
 51
-30.216198
  0
ARC
  8
1
 62
7
  6
CONTINUOUS
 10
183.698512
 20
164.391336
 40
0.635000
 50
-7.458449
 51
7.458449
  0
ARC
  8
1
 62
7
  6
CONTINUOUS
 10
117.698512
 20
114.391336
 40
1.450000
 50
30.216198
 51
59.783802
  0
ARC
  8
1
 62
7
  6
CONTINUOUS
 10
117.698512
 20
114.391336
 40
0.635000
 50
82.541551
 51
97.458449
  0
ARC
  8
1
 62
7
  6
CONTINUOUS
 10
117.698512
 20
114.391336
 40
1.450000
 50
120.216198
 51
149.783802
  0
ARC
  8
1
 62
7
  6
CONTINUOUS
 10
117.698512
 20
114.391336
 40
0.635000
 50
172.541551
 51
-172.541551
  0
ARC
  8
1
 62
7
  6
CONTINUOUS
 10
117.698512
 20
114.391336
 40
1.450000
 50
-149.783802
 51
-120.216198
  0
ARC
  8
1
 62
7
  6
CONTINUOUS
 10
117.698512
 20
114.391336
 40
0.635000
 50
-97.458449
 51
-82.541551
  0
ARC
  8
1
 62
7
  6
CONTINUOUS
 10
117.698512
 20
114.391336
 40
1.450000
 50
-59.783802
 51
-30.216198
  0
ARC
  8
1
 62
7
  6
CONTINUOUS
 10
117.698512
 20
114.391336
 40
0.635000
 50
-7.458449
 51
7.458449
  0
ARC
  8
1
 62
7
  6
CONTINUOUS
 10
24.417551
 20
114.391336
 40
4.800000
 50
144.314665
 51
162.417224
  0
ARC
  8
1
 62
7
  6
CONTINUOUS
 10
24.417551
 20
114.391336
 40
4.800000
 50
-175.668851
 51
-162.417224
  0
ARC
  8
1
 62
7
  6
CONTINUOUS
 10
24.417551
 20
114.391336
 40
4.800000
 50
-162.417224
 51
-144.314665
  0
ARC
  8
1
 62
7
  6
CONTINUOUS
 10
24.417551
 20
114.391336
 40
4.800000
 50
162.417224
 51
175.668851
  0
ARC
  8
1
 62
7
  6
CONTINUOUS
 10
53.617551
 20
164.391336
 40
4.800000
 50
17.582776
 51
35.685335
  0
ARC
  8
1
 62
7
  6
CONTINUOUS
 10
53.617551
 20
164.391336
 40
4.800000
 50
-17.582776
 51
-4.331149
  0
ARC
  8
1
 62
7
  6
CONTINUOUS
 10
53.617551
 20
164.391336
 40
4.800000
 50
-35.685335
 51
-17.582776
  0
ARC
  8
1
 62
7
  6
CONTINUOUS
 10
53.617551
 20
164.391336
 40
4.800000
 50
4.331149
 51
17.582776
  0
ARC
  8
1
 62
7
  6
CONTINUOUS
 10
53.617551
 20
114.391336
 40
4.800000
 50
17.582776
 51
35.685335
  0
ARC
  8
1
 62
7
  6
CONTINUOUS
 10
53.617551
 20
114.391336
 40
4.800000
 50
-17.582776
 51
-4.331149
  0
ARC
  8
1
 62
7
  6
CONTINUOUS
 10
53.617551
 20
114.391336
 40
4.800000
 50
-35.685335
 51
-17.582776
  0
ARC
  8
1
 62
7
  6
CONTINUOUS
 10
53.617551
 20
114.391336
 40
4.800000
 50
4.331149
 51
17.582776
  0
ARC
  8
1
 62
7
  6
CONTINUOUS
 10
126.048512
 20
112.421336
 40
0.400000
 50
180.000000
 51
0.000000
  0
CIRCLE
  8
1
 62
7
  6
CONTINUOUS
 10
117.698512
 20
164.391336
 40
1.750000
  0
CIRCLE
  8
1
 62
7
  6
CONTINUOUS
 10
183.698512
 20
114.391336
 40
1.750000
  0
CIRCLE
  8
1
 62
7
  6
CONTINUOUS
 10
280.216692
 20
154.391336
 40
1.000000
  0
CIRCLE
  8
1
 62
7
  6
CONTINUOUS
 10
280.216692
 20
124.391336
 40
1.000000
  0
CIRCLE
  8
1
 62
7
  6
CONTINUOUS
 10
183.698512
 20
164.391336
 40
2.800000
  0
CIRCLE
  8
1
 62
7
  6
CONTINUOUS
 10
117.698512
 20
114.391336
 40
2.800000
  0
CIRCLE
  8
1
 62
7
  6
CONTINUOUS
 10
280.216692
 20
154.391336
 40
1.500000
  0
CIRCLE
  8
1
 62
7
  6
CONTINUOUS
 10
280.216692
 20
124.391336
 40
1.500000
  0
ARC
  8
1
 62
7
  6
CONTINUOUS
 10
174.601615
 20
23.911955
 40
77.209517
 50
20.647358
 51
21.763238
  0
ARC
  8
1
 62
7
  6
CONTINUOUS
 10
223.797658
 20
42.442565
 40
24.639240
 50
17.216873
 51
20.663436
  0
ARC
  8
1
 62
7
  6
CONTINUOUS
 10
234.219914
 20
45.665963
 40
13.729902
 50
11.206069
 51
17.241561
  0
ARC
  8
1
 62
7
  6
CONTINUOUS
 10
238.743209
 20
46.560641
 40
9.118976
 50
2.343152
 51
11.215041
  0
ARC
  8
1
 62
7
  6
CONTINUOUS
 10
240.880782
 20
46.654714
 40
6.979347
 50
-9.244672
 51
2.288963
  0
ARC
  8
1
 62
7
  6
CONTINUOUS
 10
238.823361
 20
47.115337
 40
9.084892
 50
-19.565970
 51
-10.027446
  0
ARC
  8
1
 62
7
  6
CONTINUOUS
 10
221.482177
 20
53.231605
 40
27.473061
 50
-22.726311
 51
-19.473517
  0
ARC
  8
1
 62
7
  6
CONTINUOUS
 10
280.616563
 20
28.461967
 40
36.639424
 50
157.271850
 51
159.700293
  0
ARC
  8
1
 62
7
  6
CONTINUOUS
 10
255.556908
 20
37.731669
 40
9.920260
 50
159.700293
 51
168.298584
  0
ARC
  8
1
 62
7
  6
CONTINUOUS
 10
250.613842
 20
38.755456
 40
4.872286
 50
168.298584
 51
-175.031499
  0
ARC
  8
1
 62
7
  6
CONTINUOUS
 10
250.136737
 20
38.713979
 40
4.393382
 50
-175.031499
 51
-157.672252
  0
ARC
  8
1
 62
7
  6
CONTINUOUS
 10
263.726420
 20
44.295204
 40
19.084520
 50
-157.672252
 51
-153.462328
  0
ARC
  8
1
 62
7
  6
CONTINUOUS
 10
266.543173
 20
45.701898
 40
22.232994
 50
-153.462328
 51
-149.732342
  0
ARC
  8
1
 62
7
  6
CONTINUOUS
 10
232.448584
 20
26.260156
 40
17.017799
 50
24.131043
 51
28.942381
  0
ARC
  8
1
 62
7
  6
CONTINUOUS
 10
241.904943
 20
30.479994
 40
6.662646
 50
12.530143
 51
24.259323
  0
ARC
  8
1
 62
7
  6
CONTINUOUS
 10
243.261588
 20
30.869261
 40
5.254560
 50
-3.181078
 51
11.595994
  0
ARC
  8
1
 62
7
  6
CONTINUOUS
 10
241.294917
 20
30.989145
 40
7.224860
 50
-14.248795
 51
-3.264869
  0
ARC
  8
1
 62
7
  6
CONTINUOUS
 10
237.003254
 20
32.070607
 40
11.650682
 50
-21.345794
 51
-14.208826
  0
ARC
  8
1
 62
7
  6
CONTINUOUS
 10
227.303035
 20
35.839028
 40
22.057170
 50
-25.223820
 51
-21.291427
  0
ARC
  8
1
 62
7
  6
CONTINUOUS
 10
182.957604
 20
56.687361
 40
71.058903
 50
-26.443347
 51
-25.193501
  0
ARC
  8
1
 62
7
  6
CONTINUOUS
 10
173.161615
 20
23.911955
 40
77.209517
 50
20.647358
 51
21.763238
  0
ARC
  8
1
 62
7
  6
CONTINUOUS
 10
222.357658
 20
42.442565
 40
24.639240
 50
17.216873
 51
20.663436
  0
ARC
  8
1
 62
7
  6
CONTINUOUS
 10
232.779914
 20
45.665963
 40
13.729902
 50
11.206069
 51
17.241561
  0
ARC
  8
1
 62
7
  6
CONTINUOUS
 10
237.303209
 20
46.560641
 40
9.118976
 50
2.343152
 51
11.215041
  0
ARC
  8
1
 62
7
  6
CONTINUOUS
 10
239.440782
 20
46.654714
 40
6.979347
 50
-9.244672
 51
2.288963
  0
ARC
  8
1
 62
7
  6
CONTINUOUS
 10
237.383361
 20
47.115337
 40
9.084892
 50
-19.565970
 51
-10.027446
  0
ARC
  8
1
 62
7
  6
CONTINUOUS
 10
220.042177
 20
53.231605
 40
27.473061
 50
-22.726311
 51
-19.473517
  0
ARC
  8
1
 62
7
  6
CONTINUOUS
 10
279.176563
 20
28.461967
 40
36.639424
 50
157.271850
 51
159.700293
  0
ARC
  8
1
 62
7
  6
CONTINUOUS
 10
254.116908
 20
37.731669
 40
9.920260
 50
159.700293
 51
168.298584
  0
ARC
  8
1
 62
7
  6
CONTINUOUS
 10
249.173842
 20
38.755456
 40
4.872286
 50
168.298584
 51
-175.031499
  0
ARC
  8
1
 62
7
  6
CONTINUOUS
 10
248.696737
 20
38.713979
 40
4.393382
 50
-175.031499
 51
-157.672252
  0
ARC
  8
1
 62
7
  6
CONTINUOUS
 10
262.286420
 20
44.295204
 40
19.084520
 50
-157.672252
 51
-153.462328
  0
ARC
  8
1
 62
7
  6
CONTINUOUS
 10
265.103173
 20
45.701898
 40
22.232994
 50
-153.462328
 51
-149.732342
  0
ARC
  8
1
 62
7
  6
CONTINUOUS
 10
231.008584
 20
26.260156
 40
17.017799
 50
24.131043
 51
28.942381
  0
ARC
  8
1
 62
7
  6
CONTINUOUS
 10
240.464943
 20
30.479994
 40
6.662646
 50
12.530143
 51
24.259323
  0
ARC
  8
1
 62
7
  6
CONTINUOUS
 10
241.821588
 20
30.869261
 40
5.254560
 50
-3.181078
 51
11.595994
  0
ARC
  8
1
 62
7
  6
CONTINUOUS
 10
239.854917
 20
30.989145
 40
7.224860
 50
-14.248795
 51
-3.264869
  0
ARC
  8
1
 62
7
  6
CONTINUOUS
 10
235.563254
 20
32.070607
 40
11.650682
 50
-21.345794
 51
-14.208826
  0
ARC
  8
1
 62
7
  6
CONTINUOUS
 10
225.863035
 20
35.839028
 40
22.057170
 50
-25.223820
 51
-21.291427
  0
ARC
  8
1
 62
7
  6
CONTINUOUS
 10
181.517604
 20
56.687361
 40
71.058903
 50
-26.443347
 51
-25.193501
  0
ARC
  8
1
 62
7
  6
CONTINUOUS
 10
311.504349
 20
37.056518
 40
14.010136
 50
47.127481
 51
48.348926
  0
ARC
  8
1
 62
7
  6
CONTINUOUS
 10
318.194728
 20
44.258012
 40
4.180455
 50
43.229718
 51
47.175410
  0
ARC
  8
1
 62
7
  6
CONTINUOUS
 10
319.766340
 20
45.730229
 40
2.027002
 50
35.753586
 51
43.335991
  0
ARC
  8
1
 62
7
  6
CONTINUOUS
 10
320.522539
 20
46.271277
 40
1.097187
 50
23.117829
 51
35.898030
  0
ARC
  8
1
 62
7
  6
CONTINUOUS
 10
320.901428
 20
46.433525
 40
0.685021
 50
4.034161
 51
23.079478
  0
ARC
  8
1
 62
7
  6
CONTINUOUS
 10
320.723727
 20
46.454076
 40
0.861468
 50
-21.957652
 51
1.838713
  0
ARC
  8
1
 62
7
  6
CONTINUOUS
 10
319.139981
 20
47.064982
 40
2.558889
 50
-30.478925
 51
-21.384313
  0
ARC
  8
1
 62
7
  6
CONTINUOUS
 10
432.177061
 20
-18.828176
 40
128.281837
 50
149.765416
 51
149.958013
  0
ARC
  8
1
 62
7
  6
CONTINUOUS
 10
323.456107
 20
44.048170
 40
2.688523
 50
149.958013
 51
158.802396
  0
ARC
  8
1
 62
7
  6
CONTINUOUS
 10
321.856878
 20
44.668393
 40
0.973235
 50
158.802396
 51
-179.073680
  0
ARC
  8
1
 62
7
  6
CONTINUOUS
 10
321.609661
 20
44.664396
 40
0.725987
 50
-179.073680
 51
-150.559830
  0
ARC
  8
1
 62
7
  6
CONTINUOUS
 10
326.553244
 20
47.454530
 40
6.402592
 50
-150.559830
 51
-147.040267
  0
ARC
  8
1
 62
7
  6
CONTINUOUS
 10
323.933047
 20
45.755571
 40
3.279790
 50
-147.040267
 51
-139.828205
  0
ARC
  8
1
 62
7
  6
CONTINUOUS
 10
318.931273
 20
41.739169
 40
3.137000
 50
30.043510
 51
37.292749
  0
ARC
  8
1
 62
7
  6
CONTINUOUS
 10
320.740976
 20
42.776349
 40
1.051199
 50
11.011887
 51
30.491022
  0
ARC
  8
1
 62
7
  6
CONTINUOUS
 10
320.994796
 20
42.851412
 40
0.788118
 50
-10.704457
 51
9.179736
  0
ARC
  8
1
 62
7
  6
CONTINUOUS
 10
320.582205
 20
42.931965
 40
1.208494
 50
-24.559468
 51
-10.823719
  0
ARC
  8
1
 62
7
  6
CONTINUOUS
 10
319.669456
 20
43.343332
 40
2.209652
 50
-32.629215
 51
-24.424072
  0
ARC
  8
1
 62
7
  6
CONTINUOUS
 10
317.683410
 20
44.604133
 40
4.562090
 50
-36.781938
 51
-32.515449
  0
ARC
  8
1
 62
7
  6
CONTINUOUS
 10
309.057456
 20
51.035343
 40
15.321619
 50
-38.048122
 51
-36.729260
  0
ARC
  8
1
 62
7
  6
CONTINUOUS
 10
310.812955
 20
37.056518
 40
14.010136
 50
47.127481
 51
48.348926
  0
ARC
  8
1
 62
7
  6
CONTINUOUS
 10
317.503334
 20
44.258012
 40
4.180455
 50
43.229718
 51
47.175410
  0
ARC
  8
1
 62
7
  6
CONTINUOUS
 10
319.074946
 20
45.730229
 40
2.027002
 50
35.753586
 51
43.335991
  0
ARC
  8
1
 62
7
  6
CONTINUOUS
 10
319.831145
 20
46.271277
 40
1.097187
 50
23.117829
 51
35.898030
  0
ARC
  8
1
 62
7
  6
CONTINUOUS
 10
320.210034
 20
46.433525
 40
0.685021
 50
4.034161
 51
23.079478
  0
ARC
  8
1
 62
7
  6
CONTINUOUS
 10
320.032334
 20
46.454076
 40
0.861468
 50
-21.957652
 51
1.838713
  0
ARC
  8
1
 62
7
  6
CONTINUOUS
 10
318.448587
 20
47.064982
 40
2.558889
 50
-30.478925
 51
-21.384313
  0
ARC
  8
1
 62
7
  6
CONTINUOUS
 10
431.485667
 20
-18.828176
 40
128.281837
 50
149.765416
 51
149.958013
  0
ARC
  8
1
 62
7
  6
CONTINUOUS
 10
322.764713
 20
44.048170
 40
2.688523
 50
149.958013
 51
158.802396
  0
ARC
  8
1
 62
7
  6
CONTINUOUS
 10
321.165484
 20
44.668393
 40
0.973235
 50
158.802396
 51
-179.073680
  0
ARC
  8
1
 62
7
  6
CONTINUOUS
 10
320.918268
 20
44.664396
 40
0.725987
 50
-179.073680
 51
-150.559830
  0
ARC
  8
1
 62
7
  6
CONTINUOUS
 10
325.861850
 20
47.454530
 40
6.402592
 50
-150.559830
 51
-147.040267
  0
ARC
  8
1
 62
7
  6
CONTINUOUS
 10
323.241653
 20
45.755571
 40
3.279790
 50
-147.040267
 51
-139.828205
  0
ARC
  8
1
 62
7
  6
CONTINUOUS
 10
318.239879
 20
41.739169
 40
3.137000
 50
30.043510
 51
37.292749
  0
ARC
  8
1
 62
7
  6
CONTINUOUS
 10
320.049582
 20
42.776349
 40
1.051199
 50
11.011887
 51
30.491022
  0
ARC
  8
1
 62
7
  6
CONTINUOUS
 10
320.303402
 20
42.851412
 40
0.788118
 50
-10.704457
 51
9.179736
  0
ARC
  8
1
 62
7
  6
CONTINUOUS
 10
319.890811
 20
42.931965
 40
1.208494
 50
-24.559468
 51
-10.823719
  0
ARC
  8
1
 62
7
  6
CONTINUOUS
 10
318.978062
 20
43.343332
 40
2.209652
 50
-32.629215
 51
-24.424072
  0
ARC
  8
1
 62
7
  6
CONTINUOUS
 10
316.992016
 20
44.604133
 40
4.562090
 50
-36.781938
 51
-32.515449
  0
ARC
  8
1
 62
7
  6
CONTINUOUS
 10
308.366062
 20
51.035343
 40
15.321619
 50
-38.048122
 51
-36.729260
  0
ARC
  8
1
 62
7
  6
CONTINUOUS
 10
349.443924
 20
48.281717
 40
0.360000
 50
180.000000
 51
-90.000000
  0
ARC
  8
1
 62
7
  6
CONTINUOUS
 10
347.532184
 20
48.281717
 40
0.360000
 50
-90.000000
 51
0.000000
  0
ARC
  8
1
 62
7
  6
CONTINUOUS
 10
347.676184
 20
48.785717
 40
0.216000
 50
0.000000
 51
90.000000
  0
ARC
  8
1
 62
7
  6
CONTINUOUS
 10
182.198512
 20
166.891336
 40
1.000000
 50
90.000000
 51
135.581133
  0
ARC
  8
1
 62
7
  6
CONTINUOUS
 10
119.398512
 20
166.891336
 40
1.000000
 50
42.085612
 51
90.000000
  0
ARC
  8
1
 62
7
  6
CONTINUOUS
 10
120.498512
 20
137.091336
 40
1.000000
 50
90.000000
 51
180.000000
  0
ARC
  8
1
 62
7
  6
CONTINUOUS
 10
120.498512
 20
137.091336
 40
1.000000
 50
180.000000
 51
-90.000000
  0
ARC
  8
1
 62
7
  6
CONTINUOUS
 10
120.498512
 20
137.091336
 40
1.000000
 50
90.000000
 51
180.000000
  0
ARC
  8
1
 62
7
  6
CONTINUOUS
 10
120.498512
 20
137.091336
 40
1.000000
 50
180.000000
 51
-90.000000
  0
ARC
  8
1
 62
7
  6
CONTINUOUS
 10
120.498512
 20
137.091336
 40
1.000000
 50
90.000000
 51
180.000000
  0
ARC
  8
1
 62
7
  6
CONTINUOUS
 10
120.498512
 20
137.091336
 40
1.000000
 50
180.000000
 51
-90.000000
  0
ARC
  8
1
 62
7
  6
CONTINUOUS
 10
120.498512
 20
137.091336
 40
1.000000
 50
90.000000
 51
180.000000
  0
ARC
  8
1
 62
7
  6
CONTINUOUS
 10
120.498512
 20
137.091336
 40
1.000000
 50
180.000000
 51
-90.000000
  0
ARC
  8
1
 62
7
  6
CONTINUOUS
 10
120.498512
 20
137.091336
 40
1.000000
 50
90.000000
 51
180.000000
  0
ARC
  8
1
 62
7
  6
CONTINUOUS
 10
120.498512
 20
137.091336
 40
1.000000
 50
180.000000
 51
-90.000000
  0
ARC
  8
1
 62
7
  6
CONTINUOUS
 10
120.498512
 20
141.091336
 40
1.000000
 50
90.000000
 51
180.000000
  0
ARC
  8
1
 62
7
  6
CONTINUOUS
 10
120.498512
 20
141.091336
 40
1.000000
 50
180.000000
 51
-90.000000
  0
ARC
  8
1
 62
7
  6
CONTINUOUS
 10
120.498512
 20
141.091336
 40
1.000000
 50
90.000000
 51
180.000000
  0
ARC
  8
1
 62
7
  6
CONTINUOUS
 10
120.498512
 20
141.091336
 40
1.000000
 50
180.000000
 51
-90.000000
  0
ARC
  8
1
 62
7
  6
CONTINUOUS
 10
120.498512
 20
141.091336
 40
1.000000
 50
90.000000
 51
180.000000
  0
ARC
  8
1
 62
7
  6
CONTINUOUS
 10
120.498512
 20
141.091336
 40
1.000000
 50
180.000000
 51
-90.000000
  0
ARC
  8
1
 62
7
  6
CONTINUOUS
 10
120.498512
 20
145.091336
 40
1.000000
 50
90.000000
 51
180.000000
  0
ARC
  8
1
 62
7
  6
CONTINUOUS
 10
120.498512
 20
145.091336
 40
1.000000
 50
180.000000
 51
-90.000000
  0
ARC
  8
1
 62
7
  6
CONTINUOUS
 10
120.498512
 20
145.091336
 40
1.000000
 50
90.000000
 51
180.000000
  0
ARC
  8
1
 62
7
  6
CONTINUOUS
 10
120.498512
 20
145.091336
 40
1.000000
 50
180.000000
 51
-90.000000
  0
ARC
  8
1
 62
7
  6
CONTINUOUS
 10
120.498512
 20
149.091336
 40
1.000000
 50
90.000000
 51
180.000000
  0
ARC
  8
1
 62
7
  6
CONTINUOUS
 10
120.498512
 20
149.091336
 40
1.000000
 50
180.000000
 51
-90.000000
  0
ARC
  8
1
 62
7
  6
CONTINUOUS
 10
141.698512
 20
153.091336
 40
1.000000
 50
0.000000
 51
90.000000
  0
ARC
  8
1
 62
7
  6
CONTINUOUS
 10
141.698512
 20
153.091336
 40
1.000000
 50
-90.000000
 51
0.000000
  0
ARC
  8
1
 62
7
  6
CONTINUOUS
 10
141.698512
 20
153.091336
 40
1.000000
 50
0.000000
 51
90.000000
  0
ARC
  8
1
 62
7
  6
CONTINUOUS
 10
141.698512
 20
153.091336
 40
1.000000
 50
-90.000000
 51
0.000000
  0
ARC
  8
1
 62
7
  6
CONTINUOUS
 10
141.698512
 20
153.091336
 40
1.000000
 50
0.000000
 51
90.000000
  0
ARC
  8
1
 62
7
  6
CONTINUOUS
 10
141.698512
 20
153.091336
 40
1.000000
 50
-90.000000
 51
0.000000
  0
ARC
  8
1
 62
7
  6
CONTINUOUS
 10
141.698512
 20
153.091336
 40
1.000000
 50
0.000000
 51
90.000000
  0
ARC
  8
1
 62
7
  6
CONTINUOUS
 10
141.698512
 20
153.091336
 40
1.000000
 50
-90.000000
 51
0.000000
  0
ARC
  8
1
 62
7
  6
CONTINUOUS
 10
141.698512
 20
153.091336
 40
1.000000
 50
0.000000
 51
90.000000
  0
ARC
  8
1
 62
7
  6
CONTINUOUS
 10
141.698512
 20
153.091336
 40
1.000000
 50
-90.000000
 51
0.000000
  0
ARC
  8
1
 62
7
  6
CONTINUOUS
 10
144.198512
 20
149.091336
 40
1.000000
 50
0.000000
 51
90.000000
  0
ARC
  8
1
 62
7
  6
CONTINUOUS
 10
144.198512
 20
149.091336
 40
1.000000
 50
-90.000000
 51
0.000000
  0
ARC
  8
1
 62
7
  6
CONTINUOUS
 10
144.198512
 20
149.091336
 40
1.000000
 50
0.000000
 51
90.000000
  0
ARC
  8
1
 62
7
  6
CONTINUOUS
 10
144.198512
 20
149.091336
 40
1.000000
 50
-90.000000
 51
0.000000
  0
ARC
  8
1
 62
7
  6
CONTINUOUS
 10
144.198512
 20
149.091336
 40
1.000000
 50
0.000000
 51
90.000000
  0
ARC
  8
1
 62
7
  6
CONTINUOUS
 10
144.198512
 20
149.091336
 40
1.000000
 50
-90.000000
 51
0.000000
  0
ARC
  8
1
 62
7
  6
CONTINUOUS
 10
144.198512
 20
149.091336
 40
1.000000
 50
0.000000
 51
90.000000
  0
ARC
  8
1
 62
7
  6
CONTINUOUS
 10
144.198512
 20
149.091336
 40
1.000000
 50
-90.000000
 51
0.000000
  0
ARC
  8
1
 62
7
  6
CONTINUOUS
 10
146.698512
 20
145.091336
 40
1.000000
 50
0.000000
 51
90.000000
  0
ARC
  8
1
 62
7
  6
CONTINUOUS
 10
146.698512
 20
145.091336
 40
1.000000
 50
-90.000000
 51
0.000000
  0
ARC
  8
1
 62
7
  6
CONTINUOUS
 10
146.698512
 20
145.091336
 40
1.000000
 50
0.000000
 51
90.000000
  0
ARC
  8
1
 62
7
  6
CONTINUOUS
 10
146.698512
 20
145.091336
 40
1.000000
 50
-90.000000
 51
0.000000
  0
ARC
  8
1
 62
7
  6
CONTINUOUS
 10
146.698512
 20
145.091336
 40
1.000000
 50
0.000000
 51
90.000000
  0
ARC
  8
1
 62
7
  6
CONTINUOUS
 10
146.698512
 20
145.091336
 40
1.000000
 50
-90.000000
 51
0.000000
  0
ARC
  8
1
 62
7
  6
CONTINUOUS
 10
149.198512
 20
141.091336
 40
1.000000
 50
0.000000
 51
90.000000
  0
ARC
  8
1
 62
7
  6
CONTINUOUS
 10
149.198512
 20
141.091336
 40
1.000000
 50
-90.000000
 51
0.000000
  0
ARC
  8
1
 62
7
  6
CONTINUOUS
 10
120.498512
 20
137.091336
 40
1.000000
 50
90.000000
 51
180.000000
  0
ARC
  8
1
 62
7
  6
CONTINUOUS
 10
120.498512
 20
137.091336
 40
1.000000
 50
180.000000
 51
-90.000000
  0
ARC
  8
1
 62
7
  6
CONTINUOUS
 10
151.698512
 20
137.091336
 40
1.000000
 50
0.000000
 51
90.000000
  0
ARC
  8
1
 62
7
  6
CONTINUOUS
 10
151.698512
 20
137.091336
 40
1.000000
 50
-90.000000
 51
0.000000
  0
ARC
  8
1
 62
7
  6
CONTINUOUS
 10
120.498512
 20
141.091336
 40
1.000000
 50
90.000000
 51
180.000000
  0
ARC
  8
1
 62
7
  6
CONTINUOUS
 10
120.498512
 20
141.091336
 40
1.000000
 50
180.000000
 51
-90.000000
  0
ARC
  8
1
 62
7
  6
CONTINUOUS
 10
149.198512
 20
141.091336
 40
1.000000
 50
0.000000
 51
90.000000
  0
ARC
  8
1
 62
7
  6
CONTINUOUS
 10
149.198512
 20
141.091336
 40
1.000000
 50
-90.000000
 51
0.000000
  0
ARC
  8
1
 62
7
  6
CONTINUOUS
 10
120.498512
 20
141.091336
 40
1.000000
 50
90.000000
 51
180.000000
  0
ARC
  8
1
 62
7
  6
CONTINUOUS
 10
120.498512
 20
141.091336
 40
1.000000
 50
180.000000
 51
-90.000000
  0
ARC
  8
1
 62
7
  6
CONTINUOUS
 10
149.198512
 20
141.091336
 40
1.000000
 50
0.000000
 51
90.000000
  0
ARC
  8
1
 62
7
  6
CONTINUOUS
 10
149.198512
 20
141.091336
 40
1.000000
 50
-90.000000
 51
0.000000
  0
ARC
  8
1
 62
7
  6
CONTINUOUS
 10
120.498512
 20
145.091336
 40
1.000000
 50
90.000000
 51
180.000000
  0
ARC
  8
1
 62
7
  6
CONTINUOUS
 10
120.498512
 20
145.091336
 40
1.000000
 50
180.000000
 51
-90.000000
  0
ARC
  8
1
 62
7
  6
CONTINUOUS
 10
146.698512
 20
145.091336
 40
1.000000
 50
0.000000
 51
90.000000
  0
ARC
  8
1
 62
7
  6
CONTINUOUS
 10
146.698512
 20
145.091336
 40
1.000000
 50
-90.000000
 51
0.000000
  0
ARC
  8
1
 62
7
  6
CONTINUOUS
 10
120.498512
 20
149.091336
 40
1.000000
 50
90.000000
 51
180.000000
  0
ARC
  8
1
 62
7
  6
CONTINUOUS
 10
120.498512
 20
149.091336
 40
1.000000
 50
180.000000
 51
-90.000000
  0
ARC
  8
1
 62
7
  6
CONTINUOUS
 10
144.198512
 20
149.091336
 40
1.000000
 50
0.000000
 51
90.000000
  0
ARC
  8
1
 62
7
  6
CONTINUOUS
 10
144.198512
 20
149.091336
 40
1.000000
 50
-90.000000
 51
0.000000
  0
ARC
  8
1
 62
7
  6
CONTINUOUS
 10
120.498512
 20
153.091336
 40
1.000000
 50
90.000000
 51
180.000000
  0
ARC
  8
1
 62
7
  6
CONTINUOUS
 10
120.498512
 20
153.091336
 40
1.000000
 50
180.000000
 51
-90.000000
  0
ARC
  8
1
 62
7
  6
CONTINUOUS
 10
141.698512
 20
153.091336
 40
1.000000
 50
0.000000
 51
90.000000
  0
ARC
  8
1
 62
7
  6
CONTINUOUS
 10
141.698512
 20
153.091336
 40
1.000000
 50
-90.000000
 51
0.000000
  0
ARC
  8
1
 62
7
  6
CONTINUOUS
 10
150.248512
 20
131.621904
 40
0.200000
 50
0.000000
 51
90.000000
  0
ARC
  8
1
 62
7
  6
CONTINUOUS
 10
121.648512
 20
131.621904
 40
0.200000
 50
90.000000
 51
180.000000
  0
ARC
  8
1
 62
7
  6
CONTINUOUS
 10
151.148512
 20
122.021904
 40
0.200000
 50
180.000000
 51
-90.000000
  0
ARC
  8
1
 62
7
  6
CONTINUOUS
 10
179.748512
 20
122.021904
 40
0.200000
 50
-90.000000
 51
0.000000
  0
ARC
  8
1
 62
7
  6
CONTINUOUS
 10
176.807894
 20
124.121904
 40
0.300000
 50
-90.000000
 51
0.000000
  0
ARC
  8
1
 62
7
  6
CONTINUOUS
 10
176.807894
 20
127.021904
 40
0.300000
 50
0.000000
 51
90.000000
  0
ARC
  8
1
 62
7
  6
CONTINUOUS
 10
165.407894
 20
127.021904
 40
0.300000
 50
90.000000
 51
180.000000
  0
ARC
  8
1
 62
7
  6
CONTINUOUS
 10
165.407894
 20
124.121904
 40
0.300000
 50
180.000000
 51
-90.000000
  0
ARC
  8
1
 62
7
  6
CONTINUOUS
 10
179.948512
 20
131.821904
 40
0.500000
 50
0.000000
 51
90.000000
  0
ARC
  8
1
 62
7
  6
CONTINUOUS
 10
121.448512
 20
131.821904
 40
0.500000
 50
90.000000
 51
180.000000
  0
ARC
  8
1
 62
7
  6
CONTINUOUS
 10
121.448512
 20
121.821904
 40
0.500000
 50
180.000000
 51
-90.000000
  0
ARC
  8
1
 62
7
  6
CONTINUOUS
 10
179.948512
 20
121.821904
 40
0.500000
 50
-90.000000
 51
0.000000
  0
ARC
  8
1
 62
7
  6
CONTINUOUS
 10
149.698512
 20
153.091336
 40
1.000000
 50
90.000000
 51
180.000000
  0
ARC
  8
1
 62
7
  6
CONTINUOUS
 10
149.698512
 20
153.091336
 40
1.000000
 50
180.000000
 51
-90.000000
  0
ARC
  8
1
 62
7
  6
CONTINUOUS
 10
149.698512
 20
153.091336
 40
1.000000
 50
90.000000
 51
180.000000
  0
ARC
  8
1
 62
7
  6
CONTINUOUS
 10
149.698512
 20
153.091336
 40
1.000000
 50
180.000000
 51
-90.000000
  0
ARC
  8
1
 62
7
  6
CONTINUOUS
 10
149.698512
 20
153.091336
 40
1.000000
 50
90.000000
 51
180.000000
  0
ARC
  8
1
 62
7
  6
CONTINUOUS
 10
149.698512
 20
153.091336
 40
1.000000
 50
180.000000
 51
-90.000000
  0
ARC
  8
1
 62
7
  6
CONTINUOUS
 10
149.698512
 20
153.091336
 40
1.000000
 50
90.000000
 51
180.000000
  0
ARC
  8
1
 62
7
  6
CONTINUOUS
 10
149.698512
 20
153.091336
 40
1.000000
 50
180.000000
 51
-90.000000
  0
ARC
  8
1
 62
7
  6
CONTINUOUS
 10
149.698512
 20
153.091336
 40
1.000000
 50
90.000000
 51
180.000000
  0
ARC
  8
1
 62
7
  6
CONTINUOUS
 10
149.698512
 20
153.091336
 40
1.000000
 50
180.000000
 51
-90.000000
  0
ARC
  8
1
 62
7
  6
CONTINUOUS
 10
149.698512
 20
153.091336
 40
1.000000
 50
90.000000
 51
180.000000
  0
ARC
  8
1
 62
7
  6
CONTINUOUS
 10
149.698512
 20
153.091336
 40
1.000000
 50
180.000000
 51
-90.000000
  0
ARC
  8
1
 62
7
  6
CONTINUOUS
 10
180.898512
 20
153.091336
 40
1.000000
 50
0.000000
 51
90.000000
  0
ARC
  8
1
 62
7
  6
CONTINUOUS
 10
180.898512
 20
153.091336
 40
1.000000
 50
-90.000000
 51
0.000000
  0
ARC
  8
1
 62
7
  6
CONTINUOUS
 10
152.198512
 20
149.091336
 40
1.000000
 50
90.000000
 51
180.000000
  0
ARC
  8
1
 62
7
  6
CONTINUOUS
 10
152.198512
 20
149.091336
 40
1.000000
 50
180.000000
 51
-90.000000
  0
ARC
  8
1
 62
7
  6
CONTINUOUS
 10
152.198512
 20
149.091336
 40
1.000000
 50
90.000000
 51
180.000000
  0
ARC
  8
1
 62
7
  6
CONTINUOUS
 10
152.198512
 20
149.091336
 40
1.000000
 50
180.000000
 51
-90.000000
  0
ARC
  8
1
 62
7
  6
CONTINUOUS
 10
152.198512
 20
149.091336
 40
1.000000
 50
90.000000
 51
180.000000
  0
ARC
  8
1
 62
7
  6
CONTINUOUS
 10
152.198512
 20
149.091336
 40
1.000000
 50
180.000000
 51
-90.000000
  0
ARC
  8
1
 62
7
  6
CONTINUOUS
 10
180.898512
 20
149.091336
 40
1.000000
 50
0.000000
 51
90.000000
  0
ARC
  8
1
 62
7
  6
CONTINUOUS
 10
180.898512
 20
149.091336
 40
1.000000
 50
-90.000000
 51
0.000000
  0
ARC
  8
1
 62
7
  6
CONTINUOUS
 10
152.198512
 20
149.091336
 40
1.000000
 50
90.000000
 51
180.000000
  0
ARC
  8
1
 62
7
  6
CONTINUOUS
 10
152.198512
 20
149.091336
 40
1.000000
 50
180.000000
 51
-90.000000
  0
ARC
  8
1
 62
7
  6
CONTINUOUS
 10
180.898512
 20
149.091336
 40
1.000000
 50
0.000000
 51
90.000000
  0
ARC
  8
1
 62
7
  6
CONTINUOUS
 10
180.898512
 20
149.091336
 40
1.000000
 50
-90.000000
 51
0.000000
  0
ARC
  8
1
 62
7
  6
CONTINUOUS
 10
152.198512
 20
149.091336
 40
1.000000
 50
90.000000
 51
180.000000
  0
ARC
  8
1
 62
7
  6
CONTINUOUS
 10
152.198512
 20
149.091336
 40
1.000000
 50
180.000000
 51
-90.000000
  0
ARC
  8
1
 62
7
  6
CONTINUOUS
 10
180.898512
 20
149.091336
 40
1.000000
 50
0.000000
 51
90.000000
  0
ARC
  8
1
 62
7
  6
CONTINUOUS
 10
180.898512
 20
149.091336
 40
1.000000
 50
-90.000000
 51
0.000000
  0
ARC
  8
1
 62
7
  6
CONTINUOUS
 10
154.698512
 20
145.091336
 40
1.000000
 50
90.000000
 51
180.000000
  0
ARC
  8
1
 62
7
  6
CONTINUOUS
 10
154.698512
 20
145.091336
 40
1.000000
 50
180.000000
 51
-90.000000
  0
ARC
  8
1
 62
7
  6
CONTINUOUS
 10
154.698512
 20
145.091336
 40
1.000000
 50
90.000000
 51
180.000000
  0
ARC
  8
1
 62
7
  6
CONTINUOUS
 10
154.698512
 20
145.091336
 40
1.000000
 50
180.000000
 51
-90.000000
  0
ARC
  8
1
 62
7
  6
CONTINUOUS
 10
180.898512
 20
145.091336
 40
1.000000
 50
0.000000
 51
90.000000
  0
ARC
  8
1
 62
7
  6
CONTINUOUS
 10
180.898512
 20
145.091336
 40
1.000000
 50
-90.000000
 51
0.000000
  0
ARC
  8
1
 62
7
  6
CONTINUOUS
 10
180.898512
 20
145.091336
 40
1.000000
 50
0.000000
 51
90.000000
  0
ARC
  8
1
 62
7
  6
CONTINUOUS
 10
180.898512
 20
145.091336
 40
1.000000
 50
-90.000000
 51
0.000000
  0
ARC
  8
1
 62
7
  6
CONTINUOUS
 10
180.898512
 20
145.091336
 40
1.000000
 50
0.000000
 51
90.000000
  0
ARC
  8
1
 62
7
  6
CONTINUOUS
 10
180.898512
 20
145.091336
 40
1.000000
 50
-90.000000
 51
0.000000
  0
ARC
  8
1
 62
7
  6
CONTINUOUS
 10
154.698512
 20
145.091336
 40
1.000000
 50
90.000000
 51
180.000000
  0
ARC
  8
1
 62
7
  6
CONTINUOUS
 10
154.698512
 20
145.091336
 40
1.000000
 50
180.000000
 51
-90.000000
  0
ARC
  8
1
 62
7
  6
CONTINUOUS
 10
180.898512
 20
145.091336
 40
1.000000
 50
0.000000
 51
90.000000
  0
ARC
  8
1
 62
7
  6
CONTINUOUS
 10
180.898512
 20
145.091336
 40
1.000000
 50
-90.000000
 51
0.000000
  0
ARC
  8
1
 62
7
  6
CONTINUOUS
 10
157.198512
 20
141.091336
 40
1.000000
 50
90.000000
 51
180.000000
  0
ARC
  8
1
 62
7
  6
CONTINUOUS
 10
157.198512
 20
141.091336
 40
1.000000
 50
180.000000
 51
-90.000000
  0
ARC
  8
1
 62
7
  6
CONTINUOUS
 10
180.898512
 20
141.091336
 40
1.000000
 50
0.000000
 51
90.000000
  0
ARC
  8
1
 62
7
  6
CONTINUOUS
 10
180.898512
 20
141.091336
 40
1.000000
 50
-90.000000
 51
0.000000
  0
ARC
  8
1
 62
7
  6
CONTINUOUS
 10
180.898512
 20
141.091336
 40
1.000000
 50
0.000000
 51
90.000000
  0
ARC
  8
1
 62
7
  6
CONTINUOUS
 10
180.898512
 20
141.091336
 40
1.000000
 50
-90.000000
 51
0.000000
  0
ARC
  8
1
 62
7
  6
CONTINUOUS
 10
180.898512
 20
141.091336
 40
1.000000
 50
0.000000
 51
90.000000
  0
ARC
  8
1
 62
7
  6
CONTINUOUS
 10
180.898512
 20
141.091336
 40
1.000000
 50
-90.000000
 51
0.000000
  0
ARC
  8
1
 62
7
  6
CONTINUOUS
 10
180.898512
 20
141.091336
 40
1.000000
 50
0.000000
 51
90.000000
  0
ARC
  8
1
 62
7
  6
CONTINUOUS
 10
180.898512
 20
141.091336
 40
1.000000
 50
-90.000000
 51
0.000000
  0
ARC
  8
1
 62
7
  6
CONTINUOUS
 10
157.198512
 20
141.091336
 40
1.000000
 50
90.000000
 51
180.000000
  0
ARC
  8
1
 62
7
  6
CONTINUOUS
 10
157.198512
 20
141.091336
 40
1.000000
 50
180.000000
 51
-90.000000
  0
ARC
  8
1
 62
7
  6
CONTINUOUS
 10
180.898512
 20
141.091336
 40
1.000000
 50
0.000000
 51
90.000000
  0
ARC
  8
1
 62
7
  6
CONTINUOUS
 10
180.898512
 20
141.091336
 40
1.000000
 50
-90.000000
 51
0.000000
  0
ARC
  8
1
 62
7
  6
CONTINUOUS
 10
180.898512
 20
137.091336
 40
1.000000
 50
0.000000
 51
90.000000
  0
ARC
  8
1
 62
7
  6
CONTINUOUS
 10
180.898512
 20
137.091336
 40
1.000000
 50
-90.000000
 51
0.000000
  0
ARC
  8
1
 62
7
  6
CONTINUOUS
 10
180.898512
 20
137.091336
 40
1.000000
 50
0.000000
 51
90.000000
  0
ARC
  8
1
 62
7
  6
CONTINUOUS
 10
180.898512
 20
137.091336
 40
1.000000
 50
-90.000000
 51
0.000000
  0
ARC
  8
1
 62
7
  6
CONTINUOUS
 10
180.898512
 20
137.091336
 40
1.000000
 50
0.000000
 51
90.000000
  0
ARC
  8
1
 62
7
  6
CONTINUOUS
 10
180.898512
 20
137.091336
 40
1.000000
 50
-90.000000
 51
0.000000
  0
ARC
  8
1
 62
7
  6
CONTINUOUS
 10
180.898512
 20
137.091336
 40
1.000000
 50
0.000000
 51
90.000000
  0
ARC
  8
1
 62
7
  6
CONTINUOUS
 10
180.898512
 20
137.091336
 40
1.000000
 50
-90.000000
 51
0.000000
  0
ARC
  8
1
 62
7
  6
CONTINUOUS
 10
180.898512
 20
137.091336
 40
1.000000
 50
0.000000
 51
90.000000
  0
ARC
  8
1
 62
7
  6
CONTINUOUS
 10
180.898512
 20
137.091336
 40
1.000000
 50
-90.000000
 51
0.000000
  0
ARC
  8
1
 62
7
  6
CONTINUOUS
 10
159.698512
 20
137.091336
 40
1.000000
 50
90.000000
 51
180.000000
  0
ARC
  8
1
 62
7
  6
CONTINUOUS
 10
159.698512
 20
137.091336
 40
1.000000
 50
180.000000
 51
-90.000000
  0
ARC
  8
1
 62
7
  6
CONTINUOUS
 10
180.898512
 20
137.091336
 40
1.000000
 50
0.000000
 51
90.000000
  0
ARC
  8
1
 62
7
  6
CONTINUOUS
 10
180.898512
 20
137.091336
 40
1.000000
 50
-90.000000
 51
0.000000
  0
ARC
  8
1
 62
7
  6
CONTINUOUS
 10
185.898512
 20
112.191336
 40
1.000000
 50
-90.000000
 51
0.000000
  0
ARC
  8
1
 62
7
  6
CONTINUOUS
 10
181.498512
 20
112.191336
 40
1.000000
 50
180.000000
 51
-90.000000
  0
ARC
  8
1
 62
7
  6
CONTINUOUS
 10
179.498512
 20
118.691336
 40
1.000000
 50
0.000000
 51
90.000000
  0
ARC
  8
1
 62
7
  6
CONTINUOUS
 10
185.898512
 20
166.591336
 40
1.000000
 50
0.000000
 51
90.000000
  0
ARC
  8
1
 62
7
  6
CONTINUOUS
 10
181.498512
 20
166.591336
 40
1.000000
 50
90.000000
 51
180.000000
  0
ARC
  8
1
 62
7
  6
CONTINUOUS
 10
179.498512
 20
160.091336
 40
1.000000
 50
-90.000000
 51
0.000000
  0
ARC
  8
1
 62
7
  6
CONTINUOUS
 10
121.898512
 20
118.691336
 40
1.000000
 50
90.000000
 51
180.000000
  0
ARC
  8
1
 62
7
  6
CONTINUOUS
 10
119.898512
 20
112.191336
 40
1.000000
 50
-90.000000
 51
0.000000
  0
ARC
  8
1
 62
7
  6
CONTINUOUS
 10
115.498512
 20
112.191336
 40
1.000000
 50
180.000000
 51
-90.000000
  0
ARC
  8
1
 62
7
  6
CONTINUOUS
 10
115.498512
 20
166.591336
 40
1.000000
 50
90.000000
 51
180.000000
  0
ARC
  8
1
 62
7
  6
CONTINUOUS
 10
119.898512
 20
166.591336
 40
1.000000
 50
0.000000
 51
90.000000
  0
ARC
  8
1
 62
7
  6
CONTINUOUS
 10
121.898512
 20
160.091336
 40
1.000000
 50
180.000000
 51
-90.000000
  0
ARC
  8
1
 62
7
  6
CONTINUOUS
 10
180.698512
 20
115.491336
 40
0.500000
 50
180.000000
 51
-113.578178
  0
ARC
  8
1
 62
7
  6
CONTINUOUS
 10
120.698512
 20
113.291336
 40
0.500000
 50
0.000000
 51
66.421822
  0
ARC
  8
1
 62
7
  6
CONTINUOUS
 10
115.198512
 20
166.891336
 40
1.000000
 50
90.000000
 51
180.000000
  0
ARC
  8
1
 62
7
  6
CONTINUOUS
 10
180.698512
 20
113.291336
 40
0.500000
 50
113.578178
 51
180.000000
  0
ARC
  8
1
 62
7
  6
CONTINUOUS
 10
186.198512
 20
111.891336
 40
1.000000
 50
-90.000000
 51
0.000000
  0
ARC
  8
1
 62
7
  6
CONTINUOUS
 10
120.698512
 20
115.491336
 40
0.500000
 50
-66.421822
 51
0.000000
  0
ARC
  8
1
 62
7
  6
CONTINUOUS
 10
120.198512
 20
111.891336
 40
1.000000
 50
-90.000000
 51
0.000000
  0
ARC
  8
1
 62
7
  6
CONTINUOUS
 10
115.198512
 20
111.891336
 40
1.000000
 50
180.000000
 51
-90.000000
  0
ARC
  8
1
 62
7
  6
CONTINUOUS
 10
179.198512
 20
118.391336
 40
1.000000
 50
0.000000
 51
90.000000
  0
ARC
  8
1
 62
7
  6
CONTINUOUS
 10
186.198512
 20
166.891336
 40
1.000000
 50
0.000000
 51
90.000000
  0
ARC
  8
1
 62
7
  6
CONTINUOUS
 10
181.198512
 20
111.891336
 40
1.000000
 50
180.000000
 51
-90.000000
  0
ARC
  8
1
 62
7
  6
CONTINUOUS
 10
122.198512
 20
118.391336
 40
1.000000
 50
90.000000
 51
180.000000
  0
ARC
  8
1
 62
7
  6
CONTINUOUS
 10
296.566692
 20
167.599931
 40
0.150000
 50
90.000000
 51
180.000000
  0
ARC
  8
1
 62
7
  6
CONTINUOUS
 10
296.766692
 20
167.399931
 40
0.150000
 50
90.000000
 51
180.000000
  0
ARC
  8
1
 62
7
  6
CONTINUOUS
 10
298.266692
 20
167.599931
 40
0.150000
 50
0.000000
 51
90.000000
  0
ARC
  8
1
 62
7
  6
CONTINUOUS
 10
298.066692
 20
167.399931
 40
0.150000
 50
0.000000
 51
90.000000
  0
ARC
  8
1
 62
7
  6
CONTINUOUS
 10
183.610460
 20
165.063930
 40
0.043333
 50
-135.000000
 51
-82.541551
  0
ARC
  8
1
 62
7
  6
CONTINUOUS
 10
183.786565
 20
165.063930
 40
0.043333
 50
-97.458449
 51
-45.000000
  0
ARC
  8
1
 62
7
  6
CONTINUOUS
 10
183.025918
 20
164.303283
 40
0.043333
 50
-45.000000
 51
7.458449
  0
ARC
  8
1
 62
7
  6
CONTINUOUS
 10
183.025918
 20
164.479388
 40
0.043333
 50
-7.458449
 51
45.000000
  0
ARC
  8
1
 62
7
  6
CONTINUOUS
 10
183.786565
 20
163.718741
 40
0.043333
 50
45.000000
 51
97.458449
  0
ARC
  8
1
 62
7
  6
CONTINUOUS
 10
183.610460
 20
163.718741
 40
0.043333
 50
82.541551
 51
135.000000
  0
ARC
  8
1
 62
7
  6
CONTINUOUS
 10
184.371107
 20
164.479388
 40
0.043333
 50
135.000000
 51
-172.541551
  0
ARC
  8
1
 62
7
  6
CONTINUOUS
 10
184.371107
 20
164.303283
 40
0.043333
 50
172.541551
 51
-135.000000
  0
ARC
  8
1
 62
7
  6
CONTINUOUS
 10
117.610460
 20
115.063930
 40
0.043333
 50
-135.000000
 51
-82.541551
  0
ARC
  8
1
 62
7
  6
CONTINUOUS
 10
117.786565
 20
115.063930
 40
0.043333
 50
-97.458449
 51
-45.000000
  0
ARC
  8
1
 62
7
  6
CONTINUOUS
 10
117.025918
 20
114.303283
 40
0.043333
 50
-45.000000
 51
7.458449
  0
ARC
  8
1
 62
7
  6
CONTINUOUS
 10
117.025918
 20
114.479388
 40
0.043333
 50
-7.458449
 51
45.000000
  0
ARC
  8
1
 62
7
  6
CONTINUOUS
 10
117.786565
 20
113.718741
 40
0.043333
 50
45.000000
 51
97.458449
  0
ARC
  8
1
 62
7
  6
CONTINUOUS
 10
117.610460
 20
113.718741
 40
0.043333
 50
82.541551
 51
135.000000
  0
ARC
  8
1
 62
7
  6
CONTINUOUS
 10
118.371107
 20
114.479388
 40
0.043333
 50
135.000000
 51
-172.541551
  0
ARC
  8
1
 62
7
  6
CONTINUOUS
 10
118.371107
 20
114.303283
 40
0.043333
 50
172.541551
 51
-135.000000
  0
ARC
  8
1
 62
7
  6
CONTINUOUS
 10
25.667551
 20
111.182740
 40
0.150000
 50
-90.000000
 51
0.000000
  0
ARC
  8
1
 62
7
  6
CONTINUOUS
 10
25.467551
 20
111.382740
 40
0.150000
 50
-90.000000
 51
0.000000
  0
ARC
  8
1
 62
7
  6
CONTINUOUS
 10
23.967551
 20
111.182740
 40
0.150000
 50
180.000000
 51
-90.000000
  0
ARC
  8
1
 62
7
  6
CONTINUOUS
 10
24.167551
 20
111.382740
 40
0.150000
 50
180.000000
 51
-90.000000
  0
LINE
  8
1
 62
7
  6
CONTINUOUS
 10
246.400750
 20
131.821904
 11
188.576407
 21
131.821904
  0
LINE
  8
1
 62
7
  6
CONTINUOUS
 10
188.576407
 20
131.821904
 11
180.448512
 21
126.821904
  0
LINE
  8
1
 62
7
  6
CONTINUOUS
 10
182.953347
 20
128.857411
 11
183.394825
 21
128.139754
  0
LINE
  8
1
 62
7
  6
CONTINUOUS
 10
183.394825
 20
128.139754
 11
180.448512
 21
126.821904
  0
LINE
  8
1
 62
7
  6
CONTINUOUS
 10
180.448512
 20
126.821904
 11
182.953347
 21
128.857411
  0
TEXT
  8
1
 62
7
  6
CONTINUOUS
 10
255.915166
 20
81.752928
 40
3.200000
 41
0.720000
  1
１
  7
KANJI
 50
0.000000
 51
0.000000
  0
TEXT
  8
1
 62
7
  6
CONTINUOUS
 10
205.627166
 20
81.752928
 40
3.200000
 41
0.900000
  1
Ｂ
  7
KANJI
 50
0.000000
 51
0.000000
  0
TEXT
  8
1
 62
7
  6
CONTINUOUS
 10
218.427166
 20
81.752928
 40
3.200000
 41
0.900000
  1
電源ケーブル
  7
KANJI
 50
0.000000
 51
0.000000
  0
TEXT
  8
1
 62
7
  6
CONTINUOUS
 10
204.859584
 20
66.666810
 40
5.000000
 41
0.900000
  1
A
  7
KANJI
 50
0.000000
 51
0.000000
  0
TEXT
  8
1
 62
7
  6
CONTINUOUS
 10
280.675830
 20
66.562570
 40
5.000000
 41
0.900000
  1
B
  7
KANJI
 50
0.000000
 51
0.000000
  0
TEXT
  8
1
 62
7
  6
CONTINUOUS
 10
214.867166
 20
96.752928
 40
3.200000
 41
0.900000
  1
付　属　品
  7
KANJI
 50
0.000000
 51
0.000000
  0
TEXT
  8
1
 62
7
  6
CONTINUOUS
 10
205.627166
 20
86.752928
 40
3.200000
 41
0.900000
  1
Ａ
  7
KANJI
 50
0.000000
 51
0.000000
  0
TEXT
  8
1
 62
7
  6
CONTINUOUS
 10
219.867166
 20
91.752928
 40
3.200000
 41
0.900000
  1
品　　　名
  7
KANJI
 50
0.000000
 51
0.000000
  0
TEXT
  8
1
 62
7
  6
CONTINUOUS
 10
216.987166
 20
86.752928
 40
3.200000
 41
0.900000
  1
Ｉ／Ｏケーブル
  7
KANJI
 50
0.000000
 51
0.000000
  0
TEXT
  8
1
 62
7
  6
CONTINUOUS
 10
254.187166
 20
91.752928
 40
3.200000
 41
0.900000
  1
数量
  7
KANJI
 50
0.000000
 51
0.000000
  0
TEXT
  8
1
 62
7
  6
CONTINUOUS
 10
255.915166
 20
86.752928
 40
3.200000
 41
0.720000
  1
１
  7
KANJI
 50
0.000000
 51
0.000000
  0
TEXT
  8
1
 62
7
  6
CONTINUOUS
 10
193.632955
 20
133.123585
 40
3.200000
 41
0.675000
  1
ドライバ型式，電衣，Ｌｏｔ　Ｎｏ．を表示する
  7
KANJI
 50
0.000000
 51
0.000000
  0
TEXT
  8
1
 62
7
  6
CONTINUOUS
 10
140.618512
 20
125.221904
 40
3.200000
 41
0.900000
  1
ネームプレート
  7
KANJI
 50
0.000000
 51
0.000000
  0
TEXT
  8
1
 62
7
  6
CONTINUOUS
 10
154.211074
 20
126.081247
 40
1.500000
 41
0.900000
  1
DC24V
  7
KANJI
 50
0.000000
 51
0.000000
  0
TEXT
  8
1
 62
7
  6
CONTINUOUS
 10
124.698512
 20
122.338397
 40
1.000000
 41
0.900000
  1
BRUSHLESS DC MOTOR DRIVER
  7
KANJI
 50
0.000000
 51
0.000000
  0
TEXT
  8
1
 62
7
  6
CONTINUOUS
 10
154.211074
 20
123.836890
 40
1.500000
 41
0.900000
  1
LOT NO．
  7
KANJI
 50
0.000000
 51
0.000000
  0
TEXT
  8
1
 62
7
  6
CONTINUOUS
 10
153.590927
 20
122.324000
 40
1.000000
 41
0.900000
  1
JAPAN SERVO  MADE IN JAPAN
  7
KANJI
 50
0.000000
 51
0.000000
  0
TEXT
  8
1
 62
7
  6
CONTINUOUS
 10
298.247949
 20
183.326684
 40
3.500000
 41
0.720000
  1
ドライバ内にネジが５以上入らないこと
  7
KANJI
 50
0.000000
 51
0.000000
  0
LINE
  8
1
 62
7
  6
CONTINUOUS
 10
290.675225
 20
54.231716
 11
297.075225
 21
54.231716
  0
LINE
  8
1
 62
7
  6
CONTINUOUS
 10
283.475225
 20
54.231716
 11
277.075225
 21
54.231716
  0
LINE
  8
1
 62
7
  6
CONTINUOUS
 10
283.475225
 20
54.231716
 11
290.675225
 21
54.231716
  0
LINE
  8
1
 62
7
  6
CONTINUOUS
 10
290.675225
 20
47.481716
 11
290.675225
 21
55.731716
  0
LINE
  8
1
 62
7
  6
CONTINUOUS
 10
283.475225
 20
47.193716
 11
283.475225
 21
55.731716
  0
LINE
  8
1
 62
7
  6
CONTINUOUS
 10
290.675225
 20
54.231716
 11
293.875225
 21
54.647716
  0
LINE
  8
1
 62
7
  6
CONTINUOUS
 10
293.875225
 20
54.647716
 11
293.875225
 21
53.815716
  0
LINE
  8
1
 62
7
  6
CONTINUOUS
 10
293.875225
 20
53.815716
 11
290.675225
 21
54.231716
  0
LINE
  8
1
 62
7
  6
CONTINUOUS
 10
283.475225
 20
54.231716
 11
280.275225
 21
53.815716
  0
LINE
  8
1
 62
7
  6
CONTINUOUS
 10
280.275225
 20
53.815716
 11
280.275225
 21
54.647716
  0
LINE
  8
1
 62
7
  6
CONTINUOUS
 10
280.275225
 20
54.647716
 11
283.475225
 21
54.231716
  0
TEXT
  8
1
 62
7
  6
CONTINUOUS
 10
283.484972
 20
56.231716
 40
3.200000
 41
0.900000
  1
(10)
  7
KANJI
 50
0.000000
 51
0.000000
  0
LINE
  8
1
 62
7
  6
CONTINUOUS
 10
290.675225
 20
54.223350
 11
341.874557
 21
54.223350
  0
LINE
  8
1
 62
7
  6
CONTINUOUS
 10
290.675225
 20
47.481716
 11
290.675225
 21
55.723350
  0
LINE
  8
1
 62
7
  6
CONTINUOUS
 10
341.874557
 20
48.921716
 11
341.874557
 21
55.723350
  0
LINE
  8
1
 62
7
  6
CONTINUOUS
 10
341.874557
 20
54.223350
 11
338.674557
 21
53.807350
  0
LINE
  8
1
 62
7
  6
CONTINUOUS
 10
338.674557
 20
53.807350
 11
338.674557
 21
54.639350
  0
LINE
  8
1
 62
7
  6
CONTINUOUS
 10
338.674557
 20
54.639350
 11
341.874557
 21
54.223350
  0
LINE
  8
1
 62
7
  6
CONTINUOUS
 10
290.675225
 20
54.223350
 11
293.875225
 21
54.639350
  0
LINE
  8
1
 62
7
  6
CONTINUOUS
 10
293.875225
 20
54.639350
 11
293.875225
 21
53.807350
  0
LINE
  8
1
 62
7
  6
CONTINUOUS
 10
293.875225
 20
53.807350
 11
290.675225
 21
54.223350
  0
TEXT
  8
1
 62
7
  6
CONTINUOUS
 10
309.604920
 20
57.023350
 40
3.200000
 41
0.900000
  1
290
  7
KANJI
 50
0.000000
 51
0.000000
  0
TEXT
  8
1
 62
7
  6
CONTINUOUS
 10
318.884920
 20
59.103350
 40
1.920000
 41
0.900000
  1
+20
  7
KANJI
 50
0.000000
 51
0.000000
  0
TEXT
  8
1
 62
7
  6
CONTINUOUS
 10
320.612920
 20
56.223350
 40
1.920000
 41
0.900000
  1
 0
  7
KANJI
 50
0.000000
 51
0.000000
  0
LINE
  8
1
 62
7
  6
CONTINUOUS
 10
217.310913
 20
55.961758
 11
223.710913
 21
55.961758
  0
LINE
  8
1
 62
7
  6
CONTINUOUS
 10
210.110913
 20
55.961758
 11
203.710913
 21
55.961758
  0
LINE
  8
1
 62
7
  6
CONTINUOUS
 10
210.110913
 20
55.961758
 11
217.310913
 21
55.961758
  0
LINE
  8
1
 62
7
  6
CONTINUOUS
 10
217.310913
 20
50.853476
 11
217.310913
 21
57.461758
  0
LINE
  8
1
 62
7
  6
CONTINUOUS
 10
210.110913
 20
50.601476
 11
210.110913
 21
57.461758
  0
LINE
  8
1
 62
7
  6
CONTINUOUS
 10
217.310913
 20
55.961758
 11
220.510913
 21
56.377758
  0
LINE
  8
1
 62
7
  6
CONTINUOUS
 10
220.510913
 20
56.377758
 11
220.510913
 21
55.545758
  0
LINE
  8
1
 62
7
  6
CONTINUOUS
 10
220.510913
 20
55.545758
 11
217.310913
 21
55.961758
  0
LINE
  8
1
 62
7
  6
CONTINUOUS
 10
210.110913
 20
55.961758
 11
206.910913
 21
55.545758
  0
LINE
  8
1
 62
7
  6
CONTINUOUS
 10
206.910913
 20
55.545758
 11
206.910913
 21
56.377758
  0
LINE
  8
1
 62
7
  6
CONTINUOUS
 10
206.910913
 20
56.377758
 11
210.110913
 21
55.961758
  0
TEXT
  8
1
 62
7
  6
CONTINUOUS
 10
210.410537
 20
57.961758
 40
3.200000
 41
0.900000
  1
(10)
  7
KANJI
 50
0.000000
 51
0.000000
  0
LINE
  8
1
 62
7
  6
CONTINUOUS
 10
217.310913
 20
55.961758
 11
266.720724
 21
55.961758
  0
LINE
  8
1
 62
7
  6
CONTINUOUS
 10
266.720724
 20
52.329476
 11
266.720724
 21
57.461758
  0
LINE
  8
1
 62
7
  6
CONTINUOUS
 10
217.310913
 20
50.853476
 11
217.310913
 21
57.461758
  0
LINE
  8
1
 62
7
  6
CONTINUOUS
 10
266.720724
 20
55.961758
 11
263.520724
 21
55.545758
  0
LINE
  8
1
 62
7
  6
CONTINUOUS
 10
263.520724
 20
55.545758
 11
263.520724
 21
56.377758
  0
LINE
  8
1
 62
7
  6
CONTINUOUS
 10
263.520724
 20
56.377758
 11
266.720724
 21
55.961758
  0
LINE
  8
1
 62
7
  6
CONTINUOUS
 10
217.310913
 20
55.961758
 11
220.510913
 21
56.377758
  0
LINE
  8
1
 62
7
  6
CONTINUOUS
 10
220.510913
 20
56.377758
 11
220.510913
 21
55.545758
  0
LINE
  8
1
 62
7
  6
CONTINUOUS
 10
220.510913
 20
55.545758
 11
217.310913
 21
55.961758
  0
TEXT
  8
1
 62
7
  6
CONTINUOUS
 10
233.723870
 20
58.761758
 40
3.200000
 41
0.900000
  1
300
  7
KANJI
 50
0.000000
 51
0.000000
  0
TEXT
  8
1
 62
7
  6
CONTINUOUS
 10
243.003870
 20
60.841758
 40
1.920000
 41
0.900000
  1
+20
  7
KANJI
 50
0.000000
 51
0.000000
  0
TEXT
  8
1
 62
7
  6
CONTINUOUS
 10
244.731870
 20
57.961758
 40
1.920000
 41
0.900000
  1
 0
  7
KANJI
 50
0.000000
 51
0.000000
  0
LINE
  8
1
 62
7
  6
CONTINUOUS
 10
305.216692
 20
146.337509
 11
320.694739
 21
146.337509
  0
LINE
  8
1
 62
7
  6
CONTINUOUS
 10
302.216692
 20
146.337509
 11
305.216692
 21
146.337509
  0
LINE
  8
1
 62
7
  6
CONTINUOUS
 10
295.816692
 20
146.337509
 11
302.216692
 21
146.337509
  0
LINE
  8
1
 62
7
  6
CONTINUOUS
 10
305.216692
 20
154.191335
 11
305.216692
 21
144.837509
  0
LINE
  8
1
 62
7
  6
CONTINUOUS
 10
302.216692
 20
154.191335
 11
302.216692
 21
144.837509
  0
LINE
  8
1
 62
7
  6
CONTINUOUS
 10
302.216692
 20
146.337509
 11
299.016692
 21
145.921509
  0
LINE
  8
1
 62
7
  6
CONTINUOUS
 10
299.016692
 20
145.921509
 11
299.016692
 21
146.753509
  0
LINE
  8
1
 62
7
  6
CONTINUOUS
 10
299.016692
 20
146.753509
 11
302.216692
 21
146.337509
  0
LINE
  8
1
 62
7
  6
CONTINUOUS
 10
305.216692
 20
146.337509
 11
308.416692
 21
146.753509
  0
LINE
  8
1
 62
7
  6
CONTINUOUS
 10
308.416692
 20
146.753509
 11
308.416692
 21
145.921509
  0
LINE
  8
1
 62
7
  6
CONTINUOUS
 10
308.416692
 20
145.921509
 11
305.216692
 21
146.337509
  0
TEXT
  8
1
 62
7
  6
CONTINUOUS
 10
316.694739
 20
148.337509
 40
3.200000
 41
0.900000
  1
3
  7
KANJI
 50
0.000000
 51
0.000000
  0
TEXT
  8
1
 62
7
  6
CONTINUOUS
 10
308.854739
 20
148.337509
 40
3.200000
 41
0.900000
  1
(2-
  7
KANJI
 50
0.000000
 51
0.000000
  0
TEXT
  8
1
 62
7
  6
CONTINUOUS
 10
320.214739
 20
148.337509
 40
3.200000
 41
0.900000
  1
)
  7
KANJI
 50
0.000000
 51
0.000000
  0
LINE
  8
1
 62
7
  6
CONTINUOUS
 10
280.216692
 20
97.664804
 11
305.216692
 21
97.664804
  0
LINE
  8
1
 62
7
  6
CONTINUOUS
 10
305.216692
 20
110.391335
 11
305.216692
 21
96.164804
  0
LINE
  8
1
 62
7
  6
CONTINUOUS
 10
280.216692
 20
120.391335
 11
280.216692
 21
96.164804
  0
LINE
  8
1
 62
7
  6
CONTINUOUS
 10
305.216692
 20
97.664804
 11
302.016692
 21
97.248804
  0
LINE
  8
1
 62
7
  6
CONTINUOUS
 10
302.016692
 20
97.248804
 11
302.016692
 21
98.080804
  0
LINE
  8
1
 62
7
  6
CONTINUOUS
 10
302.016692
 20
98.080804
 11
305.216692
 21
97.664804
  0
LINE
  8
1
 62
7
  6
CONTINUOUS
 10
280.216692
 20
97.664804
 11
283.416692
 21
98.080804
  0
LINE
  8
1
 62
7
  6
CONTINUOUS
 10
283.416692
 20
98.080804
 11
283.416692
 21
97.248804
  0
LINE
  8
1
 62
7
  6
CONTINUOUS
 10
283.416692
 20
97.248804
 11
280.216692
 21
97.664804
  0
TEXT
  8
1
 62
7
  6
CONTINUOUS
 10
285.985526
 20
99.664804
 40
3.200000
 41
0.900000
  1
25
  7
KANJI
 50
0.000000
 51
0.000000
  0
TEXT
  8
1
 62
7
  6
CONTINUOUS
 10
292.385526
 20
100.304804
 40
1.920000
 41
0.900000
  1
±0.5
  7
KANJI
 50
0.000000
 51
0.000000
  0
LINE
  8
1
 62
7
  6
CONTINUOUS
 10
114.198512
 20
201.050827
 11
187.198512
 21
201.050827
  0
LINE
  8
1
 62
7
  6
CONTINUOUS
 10
187.198512
 20
167.891335
 11
187.198512
 21
202.550827
  0
LINE
  8
1
 62
7
  6
CONTINUOUS
 10
114.198512
 20
167.891335
 11
114.198512
 21
202.550827
  0
LINE
  8
1
 62
7
  6
CONTINUOUS
 10
114.198512
 20
201.050827
 11
117.398512
 21
201.466827
  0
LINE
  8
1
 62
7
  6
CONTINUOUS
 10
117.398512
 20
201.466827
 11
117.398512
 21
200.634827
  0
LINE
  8
1
 62
7
  6
CONTINUOUS
 10
117.398512
 20
200.634827
 11
114.198512
 21
201.050827
  0
LINE
  8
1
 62
7
  6
CONTINUOUS
 10
187.198512
 20
201.050827
 11
183.998512
 21
200.634827
  0
LINE
  8
1
 62
7
  6
CONTINUOUS
 10
183.998512
 20
200.634827
 11
183.998512
 21
201.466827
  0
LINE
  8
1
 62
7
  6
CONTINUOUS
 10
183.998512
 20
201.466827
 11
187.198512
 21
201.050827
  0
TEXT
  8
1
 62
7
  6
CONTINUOUS
 10
147.547492
 20
203.050827
 40
3.200000
 41
0.900000
  1
(73)
  7
KANJI
 50
0.000000
 51
0.000000
  0
LINE
  8
1
 62
7
  6
CONTINUOUS
 10
117.698512
 20
185.952186
 11
183.698512
 21
185.952186
  0
LINE
  8
1
 62
7
  6
CONTINUOUS
 10
183.698512
 20
169.391335
 11
183.698512
 21
187.452186
  0
LINE
  8
1
 62
7
  6
CONTINUOUS
 10
117.698512
 20
167.891335
 11
117.698512
 21
187.452186
  0
LINE
  8
1
 62
7
  6
CONTINUOUS
 10
117.698512
 20
185.952186
 11
120.898512
 21
186.368186
  0
LINE
  8
1
 62
7
  6
CONTINUOUS
 10
120.898512
 20
186.368186
 11
120.898512
 21
185.536186
  0
LINE
  8
1
 62
7
  6
CONTINUOUS
 10
120.898512
 20
185.536186
 11
117.698512
 21
185.952186
  0
LINE
  8
1
 62
7
  6
CONTINUOUS
 10
183.698512
 20
185.952186
 11
180.498512
 21
185.536186
  0
LINE
  8
1
 62
7
  6
CONTINUOUS
 10
180.498512
 20
185.536186
 11
180.498512
 21
186.368186
  0
LINE
  8
1
 62
7
  6
CONTINUOUS
 10
180.498512
 20
186.368186
 11
183.698512
 21
185.952186
  0
TEXT
  8
1
 62
7
  6
CONTINUOUS
 10
144.572968
 20
187.952186
 40
3.200000
 41
0.900000
  1
66
  7
KANJI
 50
0.000000
 51
0.000000
  0
TEXT
  8
1
 62
7
  6
CONTINUOUS
 10
150.972968
 20
188.592186
 40
1.920000
 41
0.900000
  1
±0.4
  7
KANJI
 50
0.000000
 51
0.000000
  0
LINE
  8
1
 62
7
  6
CONTINUOUS
 10
114.398512
 20
31.821815
 11
95.504915
 21
31.821815
  0
LINE
  8
1
 62
7
  6
CONTINUOUS
 10
114.398512
 20
31.821815
 11
120.998512
 21
31.821815
  0
LINE
  8
1
 62
7
  6
CONTINUOUS
 10
127.398512
 20
31.821815
 11
120.998512
 21
31.821815
  0
LINE
  8
1
 62
7
  6
CONTINUOUS
 10
120.998512
 20
41.478290
 11
120.998512
 21
30.321815
  0
LINE
  8
1
 62
7
  6
CONTINUOUS
 10
114.398512
 20
41.478290
 11
114.398512
 21
30.321815
  0
LINE
  8
1
 62
7
  6
CONTINUOUS
 10
114.398512
 20
31.821815
 11
111.198512
 21
31.405815
  0
LINE
  8
1
 62
7
  6
CONTINUOUS
 10
111.198512
 20
31.405815
 11
111.198512
 21
32.237815
  0
LINE
  8
1
 62
7
  6
CONTINUOUS
 10
111.198512
 20
32.237815
 11
114.398512
 21
31.821815
  0
LINE
  8
1
 62
7
  6
CONTINUOUS
 10
120.998512
 20
31.821815
 11
124.198512
 21
32.237815
  0
LINE
  8
1
 62
7
  6
CONTINUOUS
 10
124.198512
 20
32.237815
 11
124.198512
 21
31.405815
  0
LINE
  8
1
 62
7
  6
CONTINUOUS
 10
124.198512
 20
31.405815
 11
120.998512
 21
31.821815
  0
TEXT
  8
1
 62
7
  6
CONTINUOUS
 10
103.344915
 20
33.821815
 40
3.200000
 41
0.900000
  1
6.6
  7
KANJI
 50
0.000000
 51
0.000000
  0
TEXT
  8
1
 62
7
  6
CONTINUOUS
 10
95.504915
 20
33.821815
 40
3.200000
 41
0.900000
  1
(2-
  7
KANJI
 50
0.000000
 51
0.000000
  0
TEXT
  8
1
 62
7
  6
CONTINUOUS
 10
110.784915
 20
33.821815
 40
3.200000
 41
0.900000
  1
)
  7
KANJI
 50
0.000000
 51
0.000000
  0
LINE
  8
1
 62
7
  6
CONTINUOUS
 10
111.756709
 20
180.405693
 11
87.276709
 21
180.405693
  0
LINE
  8
1
 62
7
  6
CONTINUOUS
 10
119.976982
 20
158.250401
 11
111.756709
 21
180.405693
  0
LINE
  8
1
 62
7
  6
CONTINUOUS
 10
117.089761
 20
166.032043
 11
115.586596
 21
168.887485
  0
LINE
  8
1
 62
7
  6
CONTINUOUS
 10
115.586596
 20
168.887485
 11
116.366635
 21
169.176903
  0
LINE
  8
1
 62
7
  6
CONTINUOUS
 10
116.366635
 20
169.176903
 11
117.089761
 21
166.032043
  0
LINE
  8
1
 62
7
  6
CONTINUOUS
 10
118.307264
 20
162.750627
 11
119.810429
 21
159.895185
  0
LINE
  8
1
 62
7
  6
CONTINUOUS
 10
119.810429
 20
159.895185
 11
119.030390
 21
159.605767
  0
LINE
  8
1
 62
7
  6
CONTINUOUS
 10
119.030390
 20
159.605767
 11
118.307264
 21
162.750627
  0
TEXT
  8
1
 62
7
  6
CONTINUOUS
 10
96.361154
 20
182.405693
 40
3.200000
 41
0.900000
  1
3.5
  7
KANJI
 50
0.000000
 51
0.000000
  0
TEXT
  8
1
 62
7
  6
CONTINUOUS
 10
87.276709
 20
182.405693
 40
3.200000
 41
0.900000
  1
2-φ
  7
KANJI
 50
0.000000
 51
0.000000
  0
TEXT
  8
1
 62
7
  6
CONTINUOUS
 10
103.801154
 20
182.405693
 40
3.200000
 41
0.900000
  1
穴
  7
KANJI
 50
0.000000
 51
0.000000
  0
LINE
  8
1
 62
7
  6
CONTINUOUS
 10
193.892621
 20
127.744492
 11
219.892621
 21
127.744492
  0
LINE
  8
1
 62
7
  6
CONTINUOUS
 10
219.892621
 20
127.744492
 11
219.892621
 21
121.744492
  0
LINE
  8
1
 62
7
  6
CONTINUOUS
 10
219.892621
 20
121.744492
 11
193.892621
 21
121.744492
  0
LINE
  8
1
 62
7
  6
CONTINUOUS
 10
193.892621
 20
121.744492
 11
193.892621
 21
127.744492
  0
LINE
  8
1
 62
7
  6
CONTINUOUS
 10
199.892621
 20
127.744492
 11
199.892621
 21
121.744492
  0
LINE
  8
1
 62
7
  6
CONTINUOUS
 10
196.892621
 20
122.244492
 11
196.892621
 21
127.244492
  0
LINE
  8
1
 62
7
  6
CONTINUOUS
 10
196.892621
 20
127.244492
 11
195.392621
 21
124.744492
  0
LINE
  8
1
 62
7
  6
CONTINUOUS
 10
195.392621
 20
124.744492
 11
197.892621
 21
124.744492
  0
TEXT
  8
1
 62
7
  6
CONTINUOUS
 10
200.939366
 20
122.744492
 40
4.000000
 41
0.900000
  1
文字ノ向キ
  7
KANJI
 50
0.000000
 51
0.000000
  0
LINE
  8
1
 62
7
  6
CONTINUOUS
 10
323.963686
 20
111.391335
 11
323.963686
 21
93.517814
  0
LINE
  8
1
 62
7
  6
CONTINUOUS
 10
323.963686
 20
111.391335
 11
323.963686
 21
117.591335
  0
LINE
  8
1
 62
7
  6
CONTINUOUS
 10
323.963686
 20
123.991335
 11
323.963686
 21
117.591335
  0
LINE
  8
1
 62
7
  6
CONTINUOUS
 10
306.216692
 20
117.591335
 11
325.463686
 21
117.591335
  0
LINE
  8
1
 62
7
  6
CONTINUOUS
 10
306.216692
 20
111.391335
 11
325.463686
 21
111.391335
  0
LINE
  8
1
 62
7
  6
CONTINUOUS
 10
323.963686
 20
117.591335
 11
323.547686
 21
120.791335
  0
LINE
  8
1
 62
7
  6
CONTINUOUS
 10
323.547686
 20
120.791335
 11
324.379686
 21
120.791335
  0
LINE
  8
1
 62
7
  6
CONTINUOUS
 10
324.379686
 20
120.791335
 11
323.963686
 21
117.591335
  0
LINE
  8
1
 62
7
  6
CONTINUOUS
 10
323.963686
 20
111.391335
 11
324.379686
 21
108.191335
  0
LINE
  8
1
 62
7
  6
CONTINUOUS
 10
324.379686
 20
108.191335
 11
323.547686
 21
108.191335
  0
LINE
  8
1
 62
7
  6
CONTINUOUS
 10
323.547686
 20
108.191335
 11
323.963686
 21
111.391335
  0
TEXT
  8
1
 62
7
  6
CONTINUOUS
 10
321.963686
 20
101.357814
 40
3.200000
 41
0.900000
  1
6.2
  7
KANJI
 50
90.000000
 51
0.000000
  0
TEXT
  8
1
 62
7
  6
CONTINUOUS
 10
321.963686
 20
93.517814
 40
3.200000
 41
0.900000
  1
(2-
  7
KANJI
 50
90.000000
 51
0.000000
  0
TEXT
  8
1
 62
7
  6
CONTINUOUS
 10
321.963686
 20
108.797814
 40
3.200000
 41
0.900000
  1
)
  7
KANJI
 50
90.000000
 51
0.000000
  0
LINE
  8
1
 62
7
  6
CONTINUOUS
 10
323.963686
 20
117.591335
 11
323.963686
 21
155.191335
  0
LINE
  8
1
 62
7
  6
CONTINUOUS
 10
306.216692
 20
155.191335
 11
325.463686
 21
155.191335
  0
LINE
  8
1
 62
7
  6
CONTINUOUS
 10
306.216692
 20
117.591335
 11
325.463686
 21
117.591335
  0
LINE
  8
1
 62
7
  6
CONTINUOUS
 10
323.963686
 20
155.191335
 11
324.379686
 21
151.991335
  0
LINE
  8
1
 62
7
  6
CONTINUOUS
 10
324.379686
 20
151.991335
 11
323.547686
 21
151.991335
  0
LINE
  8
1
 62
7
  6
CONTINUOUS
 10
323.547686
 20
151.991335
 11
323.963686
 21
155.191335
  0
LINE
  8
1
 62
7
  6
CONTINUOUS
 10
323.963686
 20
117.591335
 11
323.547686
 21
120.791335
  0
LINE
  8
1
 62
7
  6
CONTINUOUS
 10
323.547686
 20
120.791335
 11
324.379686
 21
120.791335
  0
LINE
  8
1
 62
7
  6
CONTINUOUS
 10
324.379686
 20
120.791335
 11
323.963686
 21
117.591335
  0
TEXT
  8
1
 62
7
  6
CONTINUOUS
 10
321.963686
 20
130.069047
 40
3.200000
 41
0.900000
  1
37.6
  7
KANJI
 50
90.000000
 51
0.000000
  0
TEXT
  8
1
 62
7
  6
CONTINUOUS
 10
321.963686
 20
122.229047
 40
3.200000
 41
0.900000
  1
(2-
  7
KANJI
 50
90.000000
 51
0.000000
  0
TEXT
  8
1
 62
7
  6
CONTINUOUS
 10
321.963686
 20
140.389047
 40
3.200000
 41
0.900000
  1
)
  7
KANJI
 50
90.000000
 51
0.000000
  0
LINE
  8
1
 62
7
  6
CONTINUOUS
 10
323.963686
 20
160.191335
 11
323.963686
 21
172.789063
  0
LINE
  8
1
 62
7
  6
CONTINUOUS
 10
323.963686
 20
155.191335
 11
323.963686
 21
160.191335
  0
LINE
  8
1
 62
7
  6
CONTINUOUS
 10
323.963686
 20
148.791335
 11
323.963686
 21
155.191335
  0
LINE
  8
1
 62
7
  6
CONTINUOUS
 10
306.216692
 20
160.191335
 11
325.463686
 21
160.191335
  0
LINE
  8
1
 62
7
  6
CONTINUOUS
 10
306.216692
 20
155.191335
 11
325.463686
 21
155.191335
  0
LINE
  8
1
 62
7
  6
CONTINUOUS
 10
323.963686
 20
160.191335
 11
323.547686
 21
163.391335
  0
LINE
  8
1
 62
7
  6
CONTINUOUS
 10
323.547686
 20
163.391335
 11
324.379686
 21
163.391335
  0
LINE
  8
1
 62
7
  6
CONTINUOUS
 10
324.379686
 20
163.391335
 11
323.963686
 21
160.191335
  0
LINE
  8
1
 62
7
  6
CONTINUOUS
 10
323.963686
 20
155.191335
 11
324.379686
 21
151.991335
  0
LINE
  8
1
 62
7
  6
CONTINUOUS
 10
324.379686
 20
151.991335
 11
323.547686
 21
151.991335
  0
LINE
  8
1
 62
7
  6
CONTINUOUS
 10
323.547686
 20
151.991335
 11
323.963686
 21
155.191335
  0
TEXT
  8
1
 62
7
  6
CONTINUOUS
 10
321.963686
 20
168.789063
 40
3.200000
 41
0.900000
  1
5
  7
KANJI
 50
90.000000
 51
0.000000
  0
TEXT
  8
1
 62
7
  6
CONTINUOUS
 10
321.963686
 20
160.949063
 40
3.200000
 41
0.900000
  1
(2-
  7
KANJI
 50
90.000000
 51
0.000000
  0
TEXT
  8
1
 62
7
  6
CONTINUOUS
 10
321.963686
 20
172.309063
 40
3.200000
 41
0.900000
  1
)
  7
KANJI
 50
90.000000
 51
0.000000
  0
LINE
  8
1
 62
7
  6
CONTINUOUS
 10
257.216692
 20
124.391335
 11
257.216692
 21
154.391335
  0
LINE
  8
1
 62
7
  6
CONTINUOUS
 10
276.216692
 20
154.391335
 11
255.716692
 21
154.391335
  0
LINE
  8
1
 62
7
  6
CONTINUOUS
 10
276.216692
 20
124.391335
 11
255.716692
 21
124.391335
  0
LINE
  8
1
 62
7
  6
CONTINUOUS
 10
257.216692
 20
154.391335
 11
257.632692
 21
151.191335
  0
LINE
  8
1
 62
7
  6
CONTINUOUS
 10
257.632692
 20
151.191335
 11
256.800692
 21
151.191335
  0
LINE
  8
1
 62
7
  6
CONTINUOUS
 10
256.800692
 20
151.191335
 11
257.216692
 21
154.391335
  0
LINE
  8
1
 62
7
  6
CONTINUOUS
 10
257.216692
 20
124.391335
 11
256.800692
 21
127.591335
  0
LINE
  8
1
 62
7
  6
CONTINUOUS
 10
256.800692
 20
127.591335
 11
257.632692
 21
127.591335
  0
LINE
  8
1
 62
7
  6
CONTINUOUS
 10
257.632692
 20
127.591335
 11
257.216692
 21
124.391335
  0
TEXT
  8
1
 62
7
  6
CONTINUOUS
 10
255.216692
 20
133.287335
 40
3.200000
 41
0.900000
  1
30
  7
KANJI
 50
90.000000
 51
0.000000
  0
TEXT
  8
1
 62
7
  6
CONTINUOUS
 10
254.576692
 20
139.687335
 40
1.920000
 41
0.900000
  1
±0.2
  7
KANJI
 50
90.000000
 51
0.000000
  0
LINE
  8
1
 62
7
  6
CONTINUOUS
 10
89.198512
 20
42.478290
 11
89.198512
 21
83.864582
  0
LINE
  8
1
 62
7
  6
CONTINUOUS
 10
116.336012
 20
83.864582
 11
87.698512
 21
83.864582
  0
LINE
  8
1
 62
7
  6
CONTINUOUS
 10
113.398512
 20
42.478290
 11
87.698512
 21
42.478290
  0
LINE
  8
1
 62
7
  6
CONTINUOUS
 10
89.198512
 20
42.478290
 11
88.782512
 21
45.678290
  0
LINE
  8
1
 62
7
  6
CONTINUOUS
 10
88.782512
 20
45.678290
 11
89.614512
 21
45.678290
  0
LINE
  8
1
 62
7
  6
CONTINUOUS
 10
89.614512
 20
45.678290
 11
89.198512
 21
42.478290
  0
LINE
  8
1
 62
7
  6
CONTINUOUS
 10
89.198512
 20
83.864582
 11
89.614512
 21
80.664582
  0
LINE
  8
1
 62
7
  6
CONTINUOUS
 10
89.614512
 20
80.664582
 11
88.782512
 21
80.664582
  0
LINE
  8
1
 62
7
  6
CONTINUOUS
 10
88.782512
 20
80.664582
 11
89.198512
 21
83.864582
  0
TEXT
  8
1
 62
7
  6
CONTINUOUS
 10
87.198512
 20
59.829880
 40
3.200000
 41
0.900000
  1
42
  7
KANJI
 50
90.000000
 51
0.000000
  0
TEXT
  8
1
 62
7
  6
CONTINUOUS
 10
87.198512
 20
57.749880
 40
3.200000
 41
0.900000
  1
(
  7
KANJI
 50
90.000000
 51
0.000000
  0
TEXT
  8
1
 62
7
  6
CONTINUOUS
 10
87.198512
 20
66.229880
 40
3.200000
 41
0.900000
  1
)
  7
KANJI
 50
90.000000
 51
0.000000
  0
LINE
  8
1
 62
7
  6
CONTINUOUS
 10
99.198512
 20
42.478290
 11
99.198512
 21
81.478290
  0
LINE
  8
1
 62
7
  6
CONTINUOUS
 10
114.988512
 20
81.478290
 11
97.698512
 21
81.478290
  0
LINE
  8
1
 62
7
  6
CONTINUOUS
 10
113.398512
 20
42.478290
 11
97.698512
 21
42.478290
  0
LINE
  8
1
 62
7
  6
CONTINUOUS
 10
99.198512
 20
42.478290
 11
98.782512
 21
45.678290
  0
LINE
  8
1
 62
7
  6
CONTINUOUS
 10
98.782512
 20
45.678290
 11
99.614512
 21
45.678290
  0
LINE
  8
1
 62
7
  6
CONTINUOUS
 10
99.614512
 20
45.678290
 11
99.198512
 21
42.478290
  0
LINE
  8
1
 62
7
  6
CONTINUOUS
 10
99.198512
 20
81.478290
 11
99.614512
 21
78.278290
  0
LINE
  8
1
 62
7
  6
CONTINUOUS
 10
99.614512
 20
78.278290
 11
98.782512
 21
78.278290
  0
LINE
  8
1
 62
7
  6
CONTINUOUS
 10
98.782512
 20
78.278290
 11
99.198512
 21
81.478290
  0
TEXT
  8
1
 62
7
  6
CONTINUOUS
 10
97.198512
 20
55.249825
 40
3.200000
 41
0.900000
  1
39
  7
KANJI
 50
90.000000
 51
0.000000
  0
TEXT
  8
1
 62
7
  6
CONTINUOUS
 10
96.558512
 20
61.649825
 40
1.920000
 41
0.900000
  1
±0.5
  7
KANJI
 50
90.000000
 51
0.000000
  0
LINE
  8
1
 62
7
  6
CONTINUOUS
 10
85.663999
 20
110.891335
 11
85.663999
 21
167.891335
  0
LINE
  8
1
 62
7
  6
CONTINUOUS
 10
114.198512
 20
167.891335
 11
84.163999
 21
167.891335
  0
LINE
  8
1
 62
7
  6
CONTINUOUS
 10
114.198512
 20
110.891335
 11
84.163999
 21
110.891335
  0
LINE
  8
1
 62
7
  6
CONTINUOUS
 10
85.663999
 20
167.891335
 11
86.079999
 21
164.691335
  0
LINE
  8
1
 62
7
  6
CONTINUOUS
 10
86.079999
 20
164.691335
 11
85.247999
 21
164.691335
  0
LINE
  8
1
 62
7
  6
CONTINUOUS
 10
85.247999
 20
164.691335
 11
85.663999
 21
167.891335
  0
LINE
  8
1
 62
7
  6
CONTINUOUS
 10
85.663999
 20
110.891335
 11
85.247999
 21
114.091335
  0
LINE
  8
1
 62
7
  6
CONTINUOUS
 10
85.247999
 20
114.091335
 11
86.079999
 21
114.091335
  0
LINE
  8
1
 62
7
  6
CONTINUOUS
 10
86.079999
 20
114.091335
 11
85.663999
 21
110.891335
  0
TEXT
  8
1
 62
7
  6
CONTINUOUS
 10
83.663999
 20
136.283372
 40
3.200000
 41
0.900000
  1
(57)
  7
KANJI
 50
90.000000
 51
0.000000
  0
LINE
  8
1
 62
7
  6
CONTINUOUS
 10
99.198512
 20
114.391335
 11
99.198512
 21
164.391335
  0
LINE
  8
1
 62
7
  6
CONTINUOUS
 10
114.198512
 20
164.391335
 11
97.698512
 21
164.391335
  0
LINE
  8
1
 62
7
  6
CONTINUOUS
 10
112.698512
 20
114.391335
 11
97.698512
 21
114.391335
  0
LINE
  8
1
 62
7
  6
CONTINUOUS
 10
99.198512
 20
114.391335
 11
98.782512
 21
117.591335
  0
LINE
  8
1
 62
7
  6
CONTINUOUS
 10
98.782512
 20
117.591335
 11
99.614512
 21
117.591335
  0
LINE
  8
1
 62
7
  6
CONTINUOUS
 10
99.614512
 20
117.591335
 11
99.198512
 21
114.391335
  0
LINE
  8
1
 62
7
  6
CONTINUOUS
 10
99.198512
 20
164.391335
 11
99.614512
 21
161.191335
  0
LINE
  8
1
 62
7
  6
CONTINUOUS
 10
99.614512
 20
161.191335
 11
98.782512
 21
161.191335
  0
LINE
  8
1
 62
7
  6
CONTINUOUS
 10
98.782512
 20
161.191335
 11
99.198512
 21
164.391335
  0
TEXT
  8
1
 62
7
  6
CONTINUOUS
 10
97.198512
 20
133.287335
 40
3.200000
 41
0.900000
  1
50
  7
KANJI
 50
90.000000
 51
0.000000
  0
TEXT
  8
1
 62
7
  6
CONTINUOUS
 10
96.558512
 20
139.687335
 40
1.920000
 41
0.900000
  1
±0.4
  7
KANJI
 50
90.000000
 51
0.000000
  0
LINE
  8
1
 62
7
  6
CONTINUOUS
 10
280.857402
 20
155.747613
 11
297.191179
 21
190.323508
  0
LINE
  8
1
 62
7
  6
CONTINUOUS
 10
297.191179
 20
190.323508
 11
341.937845
 21
190.323508
  0
LINE
  8
1
 62
7
  6
CONTINUOUS
 10
280.857402
 20
155.747613
 11
281.848110
 21
158.818697
  0
LINE
  8
1
 62
7
  6
CONTINUOUS
 10
281.848110
 20
158.818697
 11
282.600393
 21
158.463316
  0
LINE
  8
1
 62
7
  6
CONTINUOUS
 10
282.600393
 20
158.463316
 11
280.857402
 21
155.747613
  0
TEXT
  8
1
 62
7
  6
CONTINUOUS
 10
302.391179
 20
192.323508
 40
3.200000
 41
0.900000
  1
2-M3X0.5 取付タップ
  7
KANJI
 50
0.000000
 51
0.000000
  0
LINE
  8
1
 62
7
  6
CONTINUOUS
 10
359.661373
 20
48.000000
 11
361.500000
 21
48.000000
  0
LINE
  8
1
 62
7
  6
CONTINUOUS
 10
179.948512
 20
131.821904
 11
179.948512
 21
130.825604
  0
LINE
  8
1
 62
7
  6
CONTINUOUS
 10
179.948512
 20
130.000000
 11
179.948512
 21
122.021904
  0
ENDSEC
  0
EOF
