  0
SECTION
  2
HEADER
  9
$ACADVER
  1
AC1003
  9
$INSBASE
 10
0.000000
 20
0.000000
  9
$EXTMIN
 10
0.000000
 20
0.000000
  9
$EXTMAX
 10
420.000000
 20
297.000000
  9
$LIMMIN
 10
0.000000
 20
0.000000
  9
$LIMMAX
 10
420.000000
 20
297.000000
  9
$VIEWCTR
 10
210.000000
 20
148.500000
  9
$VIEWSIZE
 40
297.000000
  9
$PEXTMIN
 10
0.000000
 20
0.000000
 30
0.000000
  9
$PEXTMAX
 10
420.000000
 20
297.000000
 30
0.000000
  9
$SNAPMODE
 70
     0
  9
$SNAPUNIT
 10
1.000000
 20
1.000000
  9
$SNAPBASE
 10
0.000000
 20
0.000000
  9
$SNAPANG
 50
0.000000
  9
$SNAPISOPAIR
 70
     0
  9
$SNAPSTYLE
 70
     0
  9
$GRIDMODE
 70
     0
  9
$GRIDUNIT
 10
0.000000
 20
0.000000
  9
$ORTHOMODE
 70
     0
  9
$REGENMODE
 70
     1
  9
$FILLMODE
 70
     1
  9
$QTEXTMODE
 70
     0
  9
$DRAGMODE
 70
     2
  9
$LTSCALE
 40
0.250000
  9
$OSMODE
 70
     0
  9
$ATTMODE
 70
     1
  9
$TEXTSIZE
 40
0.200000
  9
$TRACEWID
 40
0.050000
  9
$TEXTSTYLE
  7
STANDARD
  9
$CLAYER
  8
0
  9
$CELTYPE
  6
BYLAYER
  9
$CECOLOR
 62
   256
  9
$DIMSCALE
 40
1.000000
  9
$DIMASZ
 40
1.000000
  9
$DIMEXO
 40
0.000000
  9
$DIMDLI
 40
0.500000
  9
$DIMRND
 40
0.000000
  9
$DIMDLE
 40
0.000000
  9
$DIMEXE
 40
0.000000
  9
$DIMTP
 40
0.000000
  9
$DIMTM
 40
0.000000
  9
$DIMTXT
 40
0.180000
  9
$DIMCEN
 40
0.000000
  9
$DIMTSZ
 40
0.000000
  9
$DIMTOL
 70
     0
  9
$DIMLIM
 70
     0
  9
$DIMTIH
 70
     1
  9
$DIMTOH
 70
     1
  9
$DIMSE1
 70
     0
  9
$DIMSE2
 70
     0
  9
$DIMTAD
 70
     0
  9
$DIMZIN
 70
     0
  9
$DIMBLK
  1

  9
$DIMASO
 70
     0
  9
$DIMSHO
 70
     0
  9
$DIMPOST
  1

  9
$DIMAPOST
  1

  9
$DIMALT
 70
     0
  9
$DIMALTD
 70
     0
  9
$DIMALTF
 40
25.400000
  9
$DIMLFAC
 40
1.000000
  9
$DIMTOFL
 70
     0
  9
$DIMTVP
 40
0.000000
  9
$DIMTIX
 70
     0
  9
$DIMSOXD
 70
     0
  9
$DIMSAH
 70
     0
  9
$DIMBLKL
  1

  9
$DIMBLKR
  1

  9
$LUNITS
 70
     2
  9
$LUPREC
 70
     2
  9
$AXISMODE
 70
     0
  9
$AXISUNIT
 10
1.000000
 20
1.000000
  9
$SKETCHINC
 40
0.000000
  9
$FILLETRAD
 40
0.000000
  9
$AUNITS
 70
     1
  9
$AUPREC
 70
     2
  9
$MENU
  1
ACAD
  9
$ELEVATION
 40
0.000000
  9
$THICKNESS
 40
0.000000
  9
$VIEWDIR
 10
0.000000
 20
0.000000
 30
1.000000
  9
$LIMCHECK
 70
     1
  9
$BLIPMODE
 70
     1
  9
$CHAMFERA
 40
0.000000
  9
$CHAMFERB
 40
0.000000
  9
$FASTZOOM
 70
     1
  9
$SKPOLY
 70
     0
  9
$TDCREATE
 40
0.000000
  9
$TDUPDATE
 40
0.000000
  9
$TDINDWG
 40
0.000000
  9
$TDUSRTIMER
 40
0.000000
  9
$USRTIMER
 70
     1
  9
$ANGBASE
 50
0.000000
  9
$ANGDIR
 70
     0
  9
$PDMODE
 70
     0
  9
$PDSIZE
 40
0.000000
  9
$PLINEWID
 40
0.000000
  9
$COORDS
 70
     2
  9
$USERI1
 70
     0
  9
$USERI2
 70
     0
  9
$USERI3
 70
     0
  9
$USERI4
 70
     0
  9
$USERI5
 70
     0
  9
$USERR1
 40
0.000000
  9
$USERR2
 40
0.000000
  9
$USERR3
 40
0.000000
  9
$USERR4
 40
0.000000
  9
$USERR5
 40
0.000000
  0
ENDSEC
  0
SECTION
  2
TABLES
  0
TABLE
  2
LTYPE
 70
     5
  0
LTYPE
  2
CONTINUOUS
 70
    64
  3
Solid line
 72
    65
 73
     0
 40
0.0
  0
LTYPE
  2
HIDDEN
 70
    64
  3
------------------------
 72
    65
 73
     2
 40
12.6
 49
8.4
 49
-4.2
  0
LTYPE
  2
DOT
 70
    64
  3
････････････････････････
 72
    65
 73
     2
 40
8.0
 49
6.0
 49
-2.0
  0
LTYPE
  2
DASHDOT
 70
    64
  3
--･--･--･--･--･--･--･--
 72
    65
 73
     4
 40
50.5
 49
30.0
 49
-9.0
 49
2.5
 49
-9.0
  0
LTYPE
  2
DIVIDE
 70
    64
  3
--･･--･･--･･--･･--･･--
 72
    65
 73
     6
 40
58.0
 49
30.0
 49
-9.0
 49
2.5
 49
-5.0
 49
2.5
 49
-9.0
  0
ENDTAB
  0
TABLE
  2
LAYER
 70
1
  0
LAYER
  2
1
 70
64
 62
7
  6
CONTINUOUS
  0
ENDTAB
  0
TABLE
  2
STYLE
 70
     2
  0
STYLE
  2
STANDARD
 70
    64
 40
0.0
 41
1.0
 50
0.0
 71
     0
 42
0.2
  3
TXT
  4

  0
STYLE
  2
KANJI
 70
    64
 40
0.0
 41
1.0
 50
0.0
 71
     0
 42
0.2
  3
TXT
  4
BIGFONT
  0
ENDTAB
  0
TABLE
  2
VIEW
 70
     0
  0
ENDTAB
  0
ENDSEC
  0
SECTION
  2
BLOCKS
  0
ENDSEC
  0
SECTION
  2
ENTITIES
  0
CIRCLE
  8
1
 62
7
  6
DIVIDE
 10
0.000000
 20
0.000000
 40
0.500000
  0
CIRCLE
  8
1
 62
7
  6
DIVIDE
 10
0.000000
 20
0.000000
 40
0.250000
  0
TEXT
  8
1
 62
7
  6
CONTINUOUS
 10
399.750000
 20
15.250000
 40
5.000000
 41
0.900000
  1
-
  7
KANJI
 50
0.000000
 51
0.000000
  0
TEXT
  8
1
 62
7
  6
CONTINUOUS
 10
323.118371
 20
30.832475
 40
5.000000
 41
0.900000
  1
KT60KM1-551
  7
KANJI
 50
0.000000
 51
0.000000
  0
TEXT
  8
1
 62
7
  6
CONTINUOUS
 10
341.500000
 20
11.442205
 40
7.000000
 41
0.540000
  1
BB06115
  7
KANJI
 50
0.000000
 51
0.000000
  0
TEXT
  8
1
 62
7
  6
CONTINUOUS
 10
392.240000
 20
5.300000
 40
3.200000
 41
0.900000
  1
DB
  7
KANJI
 50
0.000000
 51
0.000000
  0
LINE
  8
1
 62
7
  6
CONTINUOUS
 10
364.000000
 20
197.059093
 11
364.000000
 21
203.287556
  0
LINE
  8
1
 62
7
  6
CONTINUOUS
 10
365.000000
 20
195.488397
 11
365.000000
 21
203.289592
  0
LINE
  8
1
 62
7
  6
CONTINUOUS
 10
366.000000
 20
193.917700
 11
366.000000
 21
203.291628
  0
LINE
  8
1
 62
7
  6
CONTINUOUS
 10
367.000000
 20
192.347003
 11
367.000000
 21
203.293664
  0
LINE
  8
1
 62
7
  6
CONTINUOUS
 10
368.000000
 20
190.776307
 11
368.000000
 21
203.295701
  0
LINE
  8
1
 62
7
  6
CONTINUOUS
 10
369.000000
 20
189.205610
 11
369.000000
 21
203.297737
  0
LINE
  8
1
 62
7
  6
CONTINUOUS
 10
370.000000
 20
187.634914
 11
370.000000
 21
203.299773
  0
LINE
  8
1
 62
7
  6
CONTINUOUS
 10
371.000000
 20
186.064217
 11
371.000000
 21
203.301809
  0
LINE
  8
1
 62
7
  6
CONTINUOUS
 10
376.000000
 20
143.327708
 11
376.000000
 21
160.175681
  0
LINE
  8
1
 62
7
  6
CONTINUOUS
 10
377.000000
 20
143.327708
 11
377.000000
 21
158.599923
  0
LINE
  8
1
 62
7
  6
CONTINUOUS
 10
378.000000
 20
143.327708
 11
378.000000
 21
157.024166
  0
LINE
  8
1
 62
7
  6
CONTINUOUS
 10
379.000000
 20
143.327708
 11
379.000000
 21
155.448408
  0
LINE
  8
1
 62
7
  6
CONTINUOUS
 10
380.000000
 20
143.327708
 11
380.000000
 21
153.872651
  0
LINE
  8
1
 62
7
  6
CONTINUOUS
 10
381.000000
 20
143.327708
 11
381.000000
 21
152.296893
  0
LINE
  8
1
 62
7
  6
CONTINUOUS
 10
382.000000
 20
143.327708
 11
382.000000
 21
150.721135
  0
LINE
  8
1
 62
7
  6
CONTINUOUS
 10
383.000000
 20
143.327708
 11
383.000000
 21
149.145378
  0
LINE
  8
1
 62
7
  6
CONTINUOUS
 10
221.550625
 20
143.327708
 11
203.980625
 21
143.327708
  0
LINE
  8
1
 62
7
  6
CONTINUOUS
 10
191.550625
 20
173.327708
 11
191.550625
 21
148.327708
  0
LINE
  8
1
 62
7
  6
CONTINUOUS
 10
196.000625
 20
162.577708
 11
192.550625
 21
162.577708
  0
LINE
  8
1
 62
7
  6
CONTINUOUS
 10
196.000625
 20
154.577708
 11
192.550625
 21
154.577708
  0
LINE
  8
1
 62
7
  6
CONTINUOUS
 10
203.980625
 20
143.327708
 11
196.550625
 21
143.327708
  0
LINE
  8
1
 62
7
  6
CONTINUOUS
 10
192.777512
 20
148.327708
 11
200.323739
 21
148.327708
  0
LINE
  8
1
 62
7
  6
CONTINUOUS
 10
196.550625
 20
144.554594
 11
196.550625
 21
152.100821
  0
LINE
  8
1
 62
7
  6
CONTINUOUS
 10
191.550625
 20
198.327708
 11
191.550625
 21
173.327708
  0
LINE
  8
1
 62
7
  6
CONTINUOUS
 10
251.550625
 20
173.327708
 11
251.550625
 21
148.327708
  0
LINE
  8
1
 62
7
  6
CONTINUOUS
 10
251.550625
 20
198.327708
 11
251.550625
 21
173.327708
  0
LINE
  8
1
 62
7
  6
CONTINUOUS
 10
192.550625
 20
184.077708
 11
196.000625
 21
184.077708
  0
LINE
  8
1
 62
7
  6
CONTINUOUS
 10
192.550625
 20
192.077708
 11
196.000625
 21
192.077708
  0
LINE
  8
1
 62
7
  6
CONTINUOUS
 10
250.550625
 20
162.577708
 11
247.100625
 21
162.577708
  0
LINE
  8
1
 62
7
  6
CONTINUOUS
 10
250.550625
 20
154.577708
 11
247.100625
 21
154.577708
  0
LINE
  8
1
 62
7
  6
CONTINUOUS
 10
247.100625
 20
184.077708
 11
250.550625
 21
184.077708
  0
LINE
  8
1
 62
7
  6
CONTINUOUS
 10
247.100625
 20
192.077708
 11
250.550625
 21
192.077708
  0
LINE
  8
1
 62
7
  6
CONTINUOUS
 10
221.550625
 20
203.327708
 11
239.120625
 21
203.327708
  0
LINE
  8
1
 62
7
  6
CONTINUOUS
 10
239.120625
 20
203.327708
 11
246.550625
 21
203.327708
  0
LINE
  8
1
 62
7
  6
CONTINUOUS
 10
221.550625
 20
209.038941
 11
221.550625
 21
173.327708
  0
LINE
  8
1
 62
7
  6
CONTINUOUS
 10
221.550625
 20
173.327708
 11
257.261859
 21
173.327708
  0
LINE
  8
1
 62
7
  6
CONTINUOUS
 10
239.120625
 20
143.327708
 11
221.550625
 21
143.327708
  0
LINE
  8
1
 62
7
  6
CONTINUOUS
 10
246.550625
 20
143.327708
 11
239.120625
 21
143.327708
  0
LINE
  8
1
 62
7
  6
CONTINUOUS
 10
203.980625
 20
203.327708
 11
221.550625
 21
203.327708
  0
LINE
  8
1
 62
7
  6
CONTINUOUS
 10
196.550625
 20
203.327708
 11
203.980625
 21
203.327708
  0
LINE
  8
1
 62
7
  6
CONTINUOUS
 10
185.839392
 20
173.327708
 11
221.550625
 21
173.327708
  0
LINE
  8
1
 62
7
  6
CONTINUOUS
 10
221.550625
 20
173.327708
 11
221.550625
 21
137.616474
  0
LINE
  8
1
 62
7
  6
CONTINUOUS
 10
242.777512
 20
148.327708
 11
250.323739
 21
148.327708
  0
LINE
  8
1
 62
7
  6
CONTINUOUS
 10
246.550625
 20
152.100821
 11
246.550625
 21
144.554594
  0
LINE
  8
1
 62
7
  6
CONTINUOUS
 10
246.550625
 20
194.554594
 11
246.550625
 21
202.100821
  0
LINE
  8
1
 62
7
  6
CONTINUOUS
 10
200.323739
 20
198.327708
 11
192.777512
 21
198.327708
  0
LINE
  8
1
 62
7
  6
CONTINUOUS
 10
242.777512
 20
198.327708
 11
250.323739
 21
198.327708
  0
LINE
  8
1
 62
7
  6
CONTINUOUS
 10
196.550625
 20
194.554594
 11
196.550625
 21
202.100821
  0
LINE
  8
1
 62
7
  6
CONTINUOUS
 10
210.019656
 20
139.808774
 11
210.550625
 21
139.808774
  0
LINE
  8
1
 62
7
  6
CONTINUOUS
 10
210.550625
 20
143.327708
 11
210.550625
 21
137.528774
  0
LINE
  8
1
 62
7
  6
CONTINUOUS
 10
210.550625
 20
137.528774
 11
232.550625
 21
137.528774
  0
LINE
  8
1
 62
7
  6
CONTINUOUS
 10
232.550625
 20
137.528774
 11
232.550625
 21
143.327708
  0
LINE
  8
1
 62
7
  6
CONTINUOUS
 10
232.550625
 20
139.808774
 11
233.081595
 21
139.808774
  0
LINE
  8
1
 62
7
  6
CONTINUOUS
 10
219.614134
 20
176.827708
 11
223.487117
 21
176.827708
  0
LINE
  8
1
 62
7
  6
CONTINUOUS
 10
225.050625
 20
175.264199
 11
225.050625
 21
171.391216
  0
LINE
  8
1
 62
7
  6
CONTINUOUS
 10
321.388885
 20
173.327708
 11
403.390491
 21
173.327708
  0
LINE
  8
1
 62
7
  6
CONTINUOUS
 10
386.663320
 20
206.718413
 11
397.164073
 21
206.718413
  0
LINE
  8
1
 62
7
  6
CONTINUOUS
 10
391.222679
 20
211.126977
 11
391.222679
 21
213.126977
  0
LINE
  8
1
 62
7
  6
CONTINUOUS
 10
389.222679
 20
212.326977
 11
391.222679
 21
211.126977
  0
LINE
  8
1
 62
7
  6
CONTINUOUS
 10
393.222679
 20
212.326977
 11
389.222679
 21
212.326977
  0
LINE
  8
1
 62
7
  6
CONTINUOUS
 10
388.822679
 20
214.726977
 11
393.622679
 21
214.726977
  0
LINE
  8
1
 62
7
  6
CONTINUOUS
 10
393.622679
 20
209.926977
 11
388.822679
 21
209.926977
  0
LINE
  8
1
 62
7
  6
CONTINUOUS
 10
393.622679
 20
230.726977
 11
393.622679
 21
209.926977
  0
LINE
  8
1
 62
7
  6
CONTINUOUS
 10
388.822679
 20
230.726977
 11
393.622679
 21
230.726977
  0
LINE
  8
1
 62
7
  6
CONTINUOUS
 10
388.822679
 20
209.926977
 11
388.822679
 21
230.726977
  0
LINE
  8
1
 62
7
  6
CONTINUOUS
 10
328.218906
 20
169.327708
 11
350.618906
 21
169.327708
  0
LINE
  8
1
 62
7
  6
CONTINUOUS
 10
350.618906
 20
177.327708
 11
348.218906
 21
177.327708
  0
LINE
  8
1
 62
7
  6
CONTINUOUS
 10
391.218906
 20
137.528774
 11
391.218906
 21
139.808774
  0
LINE
  8
1
 62
7
  6
CONTINUOUS
 10
383.518906
 20
137.528774
 11
391.218906
 21
137.528774
  0
LINE
  8
1
 62
7
  6
CONTINUOUS
 10
383.518906
 20
139.808774
 11
383.518906
 21
137.528774
  0
LINE
  8
1
 62
7
  6
CONTINUOUS
 10
383.518906
 20
152.327708
 11
398.518906
 21
152.327708
  0
LINE
  8
1
 62
7
  6
CONTINUOUS
 10
383.518906
 20
194.327708
 11
398.518906
 21
194.327708
  0
LINE
  8
1
 62
7
  6
CONTINUOUS
 10
398.518906
 20
173.327708
 11
398.518906
 21
140.808774
  0
LINE
  8
1
 62
7
  6
CONTINUOUS
 10
383.518906
 20
203.327708
 11
397.518906
 21
203.327708
  0
LINE
  8
1
 62
7
  6
CONTINUOUS
 10
398.518906
 20
202.327708
 11
398.518906
 21
173.327708
  0
LINE
  8
1
 62
7
  6
CONTINUOUS
 10
398.518906
 20
192.277708
 11
398.518906
 21
173.327708
  0
LINE
  8
1
 62
7
  6
CONTINUOUS
 10
383.518906
 20
139.808774
 11
383.518906
 21
203.327708
  0
LINE
  8
1
 62
7
  6
CONTINUOUS
 10
397.518906
 20
139.808774
 11
383.518906
 21
139.808774
  0
LINE
  8
1
 62
7
  6
CONTINUOUS
 10
352.918906
 20
203.327708
 11
363.018906
 21
203.327708
  0
LINE
  8
1
 62
7
  6
CONTINUOUS
 10
350.718906
 20
173.327708
 11
350.718906
 21
190.623460
  0
LINE
  8
1
 62
7
  6
CONTINUOUS
 10
350.718906
 20
190.623460
 11
350.718906
 21
190.877708
  0
LINE
  8
1
 62
7
  6
CONTINUOUS
 10
350.718906
 20
190.877708
 11
350.718906
 21
191.077708
  0
LINE
  8
1
 62
7
  6
CONTINUOUS
 10
350.803706
 20
191.230708
 11
350.958906
 21
191.327708
  0
LINE
  8
1
 62
7
  6
CONTINUOUS
 10
350.718906
 20
191.177708
 11
350.803706
 21
191.230708
  0
LINE
  8
1
 62
7
  6
CONTINUOUS
 10
350.718906
 20
191.077708
 11
350.718906
 21
191.177708
  0
LINE
  8
1
 62
7
  6
CONTINUOUS
 10
352.218906
 20
203.041851
 11
352.218906
 21
191.327708
  0
LINE
  8
1
 62
7
  6
CONTINUOUS
 10
350.958906
 20
191.327708
 11
352.218906
 21
191.327708
  0
LINE
  8
1
 62
7
  6
CONTINUOUS
 10
363.218906
 20
173.327708
 11
363.218906
 21
203.285965
  0
LINE
  8
1
 62
7
  6
CONTINUOUS
 10
352.218906
 20
191.327708
 11
352.218906
 21
173.327708
  0
LINE
  8
1
 62
7
  6
CONTINUOUS
 10
363.018906
 20
143.327708
 11
352.918906
 21
143.327708
  0
LINE
  8
1
 62
7
  6
CONTINUOUS
 10
350.718906
 20
156.031955
 11
350.718906
 21
173.327708
  0
LINE
  8
1
 62
7
  6
CONTINUOUS
 10
350.718906
 20
155.777708
 11
350.718906
 21
156.031955
  0
LINE
  8
1
 62
7
  6
CONTINUOUS
 10
350.718906
 20
155.577708
 11
350.718906
 21
155.777708
  0
LINE
  8
1
 62
7
  6
CONTINUOUS
 10
350.958906
 20
155.327708
 11
350.803706
 21
155.424708
  0
LINE
  8
1
 62
7
  6
CONTINUOUS
 10
350.803706
 20
155.424708
 11
350.718906
 21
155.477708
  0
LINE
  8
1
 62
7
  6
CONTINUOUS
 10
350.718906
 20
155.477708
 11
350.718906
 21
155.577708
  0
LINE
  8
1
 62
7
  6
CONTINUOUS
 10
352.218906
 20
155.327708
 11
352.218906
 21
143.613565
  0
LINE
  8
1
 62
7
  6
CONTINUOUS
 10
352.218906
 20
155.327708
 11
350.958906
 21
155.327708
  0
LINE
  8
1
 62
7
  6
CONTINUOUS
 10
363.218906
 20
143.369450
 11
363.218906
 21
173.327708
  0
LINE
  8
1
 62
7
  6
CONTINUOUS
 10
352.218906
 20
173.327708
 11
352.218906
 21
155.327708
  0
LINE
  8
1
 62
7
  6
CONTINUOUS
 10
352.218906
 20
183.077708
 11
352.718906
 21
183.077708
  0
LINE
  8
1
 62
7
  6
CONTINUOUS
 10
352.718906
 20
183.077708
 11
352.718906
 21
192.899487
  0
LINE
  8
1
 62
7
  6
CONTINUOUS
 10
352.718906
 20
192.899487
 11
352.218906
 21
192.899487
  0
LINE
  8
1
 62
7
  6
CONTINUOUS
 10
352.218906
 20
163.577708
 11
352.718906
 21
163.577708
  0
LINE
  8
1
 62
7
  6
CONTINUOUS
 10
352.718906
 20
163.577708
 11
352.718906
 21
153.577708
  0
LINE
  8
1
 62
7
  6
CONTINUOUS
 10
352.718906
 20
153.577708
 11
352.218906
 21
153.577708
  0
LINE
  8
1
 62
7
  6
CONTINUOUS
 10
363.218906
 20
203.285965
 11
383.518906
 21
203.327708
  0
LINE
  8
1
 62
7
  6
CONTINUOUS
 10
363.018906
 20
143.327708
 11
383.518906
 21
143.327708
  0
LINE
  8
1
 62
7
  6
CONTINUOUS
 10
363.218906
 20
194.327708
 11
383.518906
 21
194.327708
  0
LINE
  8
1
 62
7
  6
CONTINUOUS
 10
383.518906
 20
152.327708
 11
363.218906
 21
152.327708
  0
LINE
  8
1
 62
7
  6
CONTINUOUS
 10
359.218906
 20
203.041851
 11
359.218906
 21
194.327708
  0
LINE
  8
1
 62
7
  6
CONTINUOUS
 10
359.218906
 20
194.327708
 11
363.218906
 21
194.327708
  0
LINE
  8
1
 62
7
  6
CONTINUOUS
 10
363.218906
 20
152.327708
 11
359.218906
 21
152.327708
  0
LINE
  8
1
 62
7
  6
CONTINUOUS
 10
359.218906
 20
152.327708
 11
359.218906
 21
143.327708
  0
LINE
  8
1
 62
7
  6
CONTINUOUS
 10
328.218906
 20
176.827708
 11
328.218906
 21
169.327708
  0
LINE
  8
1
 62
7
  6
CONTINUOUS
 10
348.218906
 20
177.327708
 11
348.218906
 21
176.827708
  0
LINE
  8
1
 62
7
  6
CONTINUOUS
 10
348.218906
 20
176.827708
 11
328.218906
 21
176.827708
  0
LINE
  8
1
 62
7
  6
CONTINUOUS
 10
328.218906
 20
175.264199
 11
348.218906
 21
175.264199
  0
LINE
  8
1
 62
7
  6
CONTINUOUS
 10
348.218906
 20
175.264199
 11
348.218906
 21
171.391216
  0
LINE
  8
1
 62
7
  6
CONTINUOUS
 10
348.218906
 20
171.391216
 11
328.218906
 21
171.391216
  0
LINE
  8
1
 62
7
  6
CONTINUOUS
 10
328.218906
 20
175.264199
 11
348.218906
 21
171.391216
  0
LINE
  8
1
 62
7
  6
CONTINUOUS
 10
348.218906
 20
175.264199
 11
328.218906
 21
171.391216
  0
LINE
  8
1
 62
7
  6
CONTINUOUS
 10
217.550625
 20
173.327708
 11
217.550625
 21
172.967788
  0
LINE
  8
1
 62
7
  6
CONTINUOUS
 10
221.550625
 20
169.327708
 11
221.187275
 21
169.327708
  0
ARC
  8
1
 62
7
  6
CONTINUOUS
 10
196.000625
 20
158.577708
 40
4.000000
 50
0.000000
 51
90.000000
  0
ARC
  8
1
 62
7
  6
CONTINUOUS
 10
196.000625
 20
158.577708
 40
4.000000
 50
-90.000000
 51
-0.000000
  0
ARC
  8
1
 62
7
  6
CONTINUOUS
 10
196.000625
 20
188.077708
 40
4.000000
 50
-90.000000
 51
-0.000000
  0
ARC
  8
1
 62
7
  6
CONTINUOUS
 10
196.000625
 20
188.077708
 40
4.000000
 50
0.000000
 51
90.000000
  0
ARC
  8
1
 62
7
  6
CONTINUOUS
 10
247.100625
 20
158.577708
 40
4.000000
 50
90.000000
 51
180.000000
  0
ARC
  8
1
 62
7
  6
CONTINUOUS
 10
247.100625
 20
158.577708
 40
4.000000
 50
180.000000
 51
-90.000000
  0
ARC
  8
1
 62
7
  6
CONTINUOUS
 10
247.100625
 20
188.077708
 40
4.000000
 50
180.000000
 51
-90.000000
  0
ARC
  8
1
 62
7
  6
CONTINUOUS
 10
247.100625
 20
188.077708
 40
4.000000
 50
90.000000
 51
180.000000
  0
ARC
  8
1
 62
7
  6
CONTINUOUS
 10
221.550625
 20
173.327708
 40
35.446892
 50
-122.184582
 51
-108.983914
  0
ARC
  8
1
 62
7
  6
CONTINUOUS
 10
221.550625
 20
173.327708
 40
35.446892
 50
-71.016086
 51
-57.815418
  0
ARC
  8
1
 62
7
  6
CONTINUOUS
 10
221.550625
 20
173.327708
 40
4.000000
 50
0.000000
 51
180.000000
  0
ARC
  8
1
 62
7
  6
CONTINUOUS
 10
221.550625
 20
173.327708
 40
4.000000
 50
-90.000000
 51
-0.000000
  0
ARC
  8
1
 62
7
  6
CONTINUOUS
 10
221.550625
 20
173.327708
 40
4.000000
 50
180.000000
 51
-90.000000
  0
CIRCLE
  8
1
 62
7
  6
CONTINUOUS
 10
221.550625
 20
173.327708
 40
18.000000
  0
CIRCLE
  8
1
 62
7
  6
CONTINUOUS
 10
196.000625
 20
158.577708
 40
3.000000
  0
CIRCLE
  8
1
 62
7
  6
CONTINUOUS
 10
196.550625
 20
148.327708
 40
2.500000
  0
CIRCLE
  8
1
 62
7
  6
CONTINUOUS
 10
196.000625
 20
188.077708
 40
3.000000
  0
CIRCLE
  8
1
 62
7
  6
CONTINUOUS
 10
247.100625
 20
158.577708
 40
3.000000
  0
CIRCLE
  8
1
 62
7
  6
CONTINUOUS
 10
246.550625
 20
198.327708
 40
2.500000
  0
CIRCLE
  8
1
 62
7
  6
CONTINUOUS
 10
247.100625
 20
188.077708
 40
3.000000
  0
CIRCLE
  8
1
 62
7
  6
CONTINUOUS
 10
246.550625
 20
148.327708
 40
2.500000
  0
CIRCLE
  8
1
 62
7
  6
CONTINUOUS
 10
196.550625
 20
198.327708
 40
2.500000
  0
CIRCLE
  8
1
 62
7
  6
CONTINUOUS
 10
221.550625
 20
173.327708
 40
4.500000
  0
CIRCLE
  8
1
 62
7
  6
CONTINUOUS
 10
221.550625
 20
173.327708
 40
13.500000
  0
CIRCLE
  8
1
 62
7
  6
CONTINUOUS
 10
221.550625
 20
173.327708
 40
16.000000
  0
CIRCLE
  8
1
 62
7
  6
CONTINUOUS
 10
221.550625
 20
173.327708
 40
16.500000
  0
ARC
  8
1
 62
7
  6
CONTINUOUS
 10
192.550625
 20
153.577708
 40
1.000000
 50
90.000000
 51
180.000000
  0
ARC
  8
1
 62
7
  6
CONTINUOUS
 10
192.550625
 20
163.577708
 40
1.000000
 50
180.000000
 51
-90.000000
  0
ARC
  8
1
 62
7
  6
CONTINUOUS
 10
196.550625
 20
148.327708
 40
5.000000
 50
180.000000
 51
-90.000000
  0
ARC
  8
1
 62
7
  6
CONTINUOUS
 10
250.550625
 20
153.577708
 40
1.000000
 50
0.000000
 51
90.000000
  0
ARC
  8
1
 62
7
  6
CONTINUOUS
 10
250.550625
 20
163.577708
 40
1.000000
 50
-90.000000
 51
0.000000
  0
ARC
  8
1
 62
7
  6
CONTINUOUS
 10
250.550625
 20
183.077708
 40
1.000000
 50
0.000000
 51
90.000000
  0
ARC
  8
1
 62
7
  6
CONTINUOUS
 10
250.550625
 20
193.077708
 40
1.000000
 50
-90.000000
 51
0.000000
  0
ARC
  8
1
 62
7
  6
CONTINUOUS
 10
192.550625
 20
193.077708
 40
1.000000
 50
180.000000
 51
-90.000000
  0
ARC
  8
1
 62
7
  6
CONTINUOUS
 10
192.550625
 20
183.077708
 40
1.000000
 50
90.000000
 51
180.000000
  0
ARC
  8
1
 62
7
  6
CONTINUOUS
 10
246.550625
 20
198.327708
 40
5.000000
 50
0.000000
 51
90.000000
  0
ARC
  8
1
 62
7
  6
CONTINUOUS
 10
246.550625
 20
148.327708
 40
5.000000
 50
-90.000000
 51
-0.000000
  0
ARC
  8
1
 62
7
  6
CONTINUOUS
 10
196.550625
 20
198.327708
 40
5.000000
 50
90.000000
 51
180.000000
  0
ARC
  8
1
 62
7
  6
CONTINUOUS
 10
397.518906
 20
140.808774
 40
1.000000
 50
-90.000000
 51
0.000000
  0
ARC
  8
1
 62
7
  6
CONTINUOUS
 10
397.518906
 20
202.327708
 40
1.000000
 50
0.000000
 51
90.000000
  0
ARC
  8
1
 62
7
  6
CONTINUOUS
 10
363.018906
 20
202.827708
 40
0.500000
 50
66.421822
 51
90.000000
  0
ARC
  8
1
 62
7
  6
CONTINUOUS
 10
352.918906
 20
202.327708
 40
1.000000
 50
90.000000
 51
134.427004
  0
ARC
  8
1
 62
7
  6
CONTINUOUS
 10
363.018906
 20
143.827708
 40
0.500000
 50
-90.000000
 51
-66.421822
  0
ARC
  8
1
 62
7
  6
CONTINUOUS
 10
352.918906
 20
144.327708
 40
1.000000
 50
-134.427004
 51
-90.000000
  0
LINE
  8
1
 62
7
  6
CONTINUOUS
 10
298.887438
 20
219.146226
 11
323.147340
 21
219.146226
  0
LINE
  8
1
 62
7
  6
CONTINUOUS
 10
323.147340
 20
219.146226
 11
386.663320
 21
206.718413
  0
LINE
  8
1
 62
7
  6
CONTINUOUS
 10
383.441973
 20
206.919439
 11
383.603767
 21
207.746335
  0
LINE
  8
1
 62
7
  6
CONTINUOUS
 10
383.603767
 20
207.746335
 11
386.663320
 21
206.718413
  0
LINE
  8
1
 62
7
  6
CONTINUOUS
 10
386.663320
 20
206.718413
 11
383.441973
 21
206.919439
  0
LINE
  8
1
 62
7
  6
CONTINUOUS
 10
287.758648
 20
221.325967
 11
261.330300
 21
221.325967
  0
LINE
  8
1
 62
7
  6
CONTINUOUS
 10
261.330300
 20
221.325967
 11
247.861987
 21
200.456165
  0
LINE
  8
1
 62
7
  6
CONTINUOUS
 10
249.243174
 20
203.373322
 11
249.951127
 21
202.916445
  0
LINE
  8
1
 62
7
  6
CONTINUOUS
 10
249.951127
 20
202.916445
 11
247.861987
 21
200.456165
  0
LINE
  8
1
 62
7
  6
CONTINUOUS
 10
247.861987
 20
200.456165
 11
249.243174
 21
203.373322
  0
TEXT
  8
1
 62
7
  6
CONTINUOUS
 10
262.025252
 20
215.105746
 40
4.000000
 41
0.450000
  1
THROUGH HOLE
  7
KANJI
 50
0.000000
 51
0.000000
  0
TEXT
  8
1
 62
7
  6
CONTINUOUS
 10
262.025252
 20
222.120197
 40
4.000000
 41
0.720000
  1
4-φ4.5
  7
KANJI
 50
0.000000
 51
0.000000
  0
TEXT
  8
1
 62
7
  6
CONTINUOUS
 10
393.222679
 20
216.014373
 40
4.000000
 41
0.675000
  1
文字ノ向キ
  7
KANJI
 50
90.000000
 51
0.000000
  0
TEXT
  8
1
 62
7
  6
CONTINUOUS
 10
383.621000
 20
212.761792
 40
2.500000
 41
0.720000
  1
DIRECTION
  7
KANJI
 50
90.000000
 51
0.000000
  0
TEXT
  8
1
 62
7
  6
CONTINUOUS
 10
387.371000
 20
212.761792
 40
2.500000
 41
0.720000
  1
OF LETTER
  7
KANJI
 50
90.000000
 51
0.000000
  0
TEXT
  8
1
 62
7
  6
CONTINUOUS
 10
300.210762
 20
219.701351
 40
4.000000
 41
0.720000
  1
ネームプレート
  7
KANJI
 50
0.000000
 51
0.000000
  0
TEXT
  8
1
 62
7
  6
CONTINUOUS
 10
299.903675
 20
214.376252
 40
3.000000
 41
0.630000
  1
NAME PLATE
  7
KANJI
 50
0.000000
 51
0.000000
  0
LINE
  8
1
 62
7
  6
CONTINUOUS
 10
272.699102
 20
134.009840
 11
272.699102
 21
143.327708
  0
LINE
  8
1
 62
7
  6
CONTINUOUS
 10
272.699102
 20
134.009840
 11
272.699102
 21
123.932049
  0
LINE
  8
1
 62
7
  6
CONTINUOUS
 10
232.550625
 20
134.009840
 11
274.199102
 21
134.009840
  0
LINE
  8
1
 62
7
  6
CONTINUOUS
 10
247.550625
 20
143.327708
 11
274.199102
 21
143.327708
  0
LINE
  8
1
 62
7
  6
CONTINUOUS
 10
272.699102
 20
143.327708
 11
273.115102
 21
140.127708
  0
LINE
  8
1
 62
7
  6
CONTINUOUS
 10
273.115102
 20
140.127708
 11
272.283102
 21
140.127708
  0
LINE
  8
1
 62
7
  6
CONTINUOUS
 10
272.283102
 20
140.127708
 11
272.699102
 21
143.327708
  0
LINE
  8
1
 62
7
  6
CONTINUOUS
 10
272.699102
 20
134.009840
 11
272.283102
 21
137.209840
  0
LINE
  8
1
 62
7
  6
CONTINUOUS
 10
272.283102
 20
137.209840
 11
273.115102
 21
137.209840
  0
LINE
  8
1
 62
7
  6
CONTINUOUS
 10
273.115102
 20
137.209840
 11
272.699102
 21
134.009840
  0
TEXT
  8
1
 62
7
  6
CONTINUOUS
 10
270.792771
 20
123.932049
 40
3.200000
 41
0.900000
  1
(9.5)
  7
KANJI
 50
90.000000
 51
0.000000
  0
LINE
  8
1
 62
7
  6
CONTINUOUS
 10
191.550625
 20
221.638940
 11
251.550625
 21
221.638940
  0
LINE
  8
1
 62
7
  6
CONTINUOUS
 10
191.550625
 20
199.327708
 11
191.550625
 21
223.138940
  0
LINE
  8
1
 62
7
  6
CONTINUOUS
 10
251.550625
 20
199.327708
 11
251.550625
 21
223.138940
  0
LINE
  8
1
 62
7
  6
CONTINUOUS
 10
251.550625
 20
221.638940
 11
248.350625
 21
221.222940
  0
LINE
  8
1
 62
7
  6
CONTINUOUS
 10
248.350625
 20
221.222940
 11
248.350625
 21
222.054940
  0
LINE
  8
1
 62
7
  6
CONTINUOUS
 10
248.350625
 20
222.054940
 11
251.550625
 21
221.638940
  0
LINE
  8
1
 62
7
  6
CONTINUOUS
 10
191.550625
 20
221.638940
 11
194.750625
 21
222.054940
  0
LINE
  8
1
 62
7
  6
CONTINUOUS
 10
194.750625
 20
222.054940
 11
194.750625
 21
221.222940
  0
LINE
  8
1
 62
7
  6
CONTINUOUS
 10
194.750625
 20
221.222940
 11
191.550625
 21
221.638940
  0
TEXT
  8
1
 62
7
  6
CONTINUOUS
 10
220.200287
 20
223.638940
 40
3.200000
 41
0.900000
  1
60
  7
KANJI
 50
0.000000
 51
0.000000
  0
TEXT
  8
1
 62
7
  6
CONTINUOUS
 10
218.120287
 20
223.638940
 40
3.200000
 41
0.900000
  1
(
  7
KANJI
 50
0.000000
 51
0.000000
  0
TEXT
  8
1
 62
7
  6
CONTINUOUS
 10
226.600287
 20
223.638940
 40
3.200000
 41
0.900000
  1
)
  7
KANJI
 50
0.000000
 51
0.000000
  0
LINE
  8
1
 62
7
  6
CONTINUOUS
 10
272.699102
 20
143.327708
 11
272.699102
 21
203.327708
  0
LINE
  8
1
 62
7
  6
CONTINUOUS
 10
247.550625
 20
143.327708
 11
274.199102
 21
143.327708
  0
LINE
  8
1
 62
7
  6
CONTINUOUS
 10
247.550625
 20
203.327708
 11
274.199102
 21
203.327708
  0
LINE
  8
1
 62
7
  6
CONTINUOUS
 10
272.699102
 20
203.327708
 11
273.115102
 21
200.127708
  0
LINE
  8
1
 62
7
  6
CONTINUOUS
 10
273.115102
 20
200.127708
 11
272.283102
 21
200.127708
  0
LINE
  8
1
 62
7
  6
CONTINUOUS
 10
272.283102
 20
200.127708
 11
272.699102
 21
203.327708
  0
LINE
  8
1
 62
7
  6
CONTINUOUS
 10
272.699102
 20
143.327708
 11
272.283102
 21
146.527708
  0
LINE
  8
1
 62
7
  6
CONTINUOUS
 10
272.283102
 20
146.527708
 11
273.115102
 21
146.527708
  0
LINE
  8
1
 62
7
  6
CONTINUOUS
 10
273.115102
 20
146.527708
 11
272.699102
 21
143.327708
  0
TEXT
  8
1
 62
7
  6
CONTINUOUS
 10
270.699102
 20
170.927708
 40
3.200000
 41
0.900000
  1
60
  7
KANJI
 50
90.000000
 51
0.000000
  0
TEXT
  8
1
 62
7
  6
CONTINUOUS
 10
270.699102
 20
168.847708
 40
3.200000
 41
0.900000
  1
(
  7
KANJI
 50
90.000000
 51
0.000000
  0
TEXT
  8
1
 62
7
  6
CONTINUOUS
 10
270.699102
 20
177.327708
 40
3.200000
 41
0.900000
  1
)
  7
KANJI
 50
90.000000
 51
0.000000
  0
LINE
  8
1
 62
7
  6
CONTINUOUS
 10
264.227778
 20
148.327708
 11
264.227778
 21
198.327708
  0
LINE
  8
1
 62
7
  6
CONTINUOUS
 10
243.777512
 20
148.327708
 11
265.727778
 21
148.327708
  0
LINE
  8
1
 62
7
  6
CONTINUOUS
 10
243.777512
 20
198.327708
 11
265.727778
 21
198.327708
  0
LINE
  8
1
 62
7
  6
CONTINUOUS
 10
264.227778
 20
198.327708
 11
264.643778
 21
195.127708
  0
LINE
  8
1
 62
7
  6
CONTINUOUS
 10
264.643778
 20
195.127708
 11
263.811778
 21
195.127708
  0
LINE
  8
1
 62
7
  6
CONTINUOUS
 10
263.811778
 20
195.127708
 11
264.227778
 21
198.327708
  0
LINE
  8
1
 62
7
  6
CONTINUOUS
 10
264.227778
 20
148.327708
 11
263.811778
 21
151.527708
  0
LINE
  8
1
 62
7
  6
CONTINUOUS
 10
263.811778
 20
151.527708
 11
264.643778
 21
151.527708
  0
LINE
  8
1
 62
7
  6
CONTINUOUS
 10
264.643778
 20
151.527708
 11
264.227778
 21
148.327708
  0
TEXT
  8
1
 62
7
  6
CONTINUOUS
 10
262.227778
 20
167.127708
 40
3.200000
 41
0.900000
  1
50
  7
KANJI
 50
90.000000
 51
0.000000
  0
TEXT
  8
1
 62
7
  6
CONTINUOUS
 10
261.587778
 20
173.527708
 40
1.920000
 41
0.900000
  1
±0.15
  7
KANJI
 50
90.000000
 51
0.000000
  0
LINE
  8
1
 62
7
  6
CONTINUOUS
 10
196.550625
 20
214.228865
 11
246.550625
 21
214.228865
  0
LINE
  8
1
 62
7
  6
CONTINUOUS
 10
196.550625
 20
195.554594
 11
196.550625
 21
215.728865
  0
LINE
  8
1
 62
7
  6
CONTINUOUS
 10
246.550625
 20
195.554594
 11
246.550625
 21
215.728865
  0
LINE
  8
1
 62
7
  6
CONTINUOUS
 10
196.550625
 20
214.228865
 11
199.750625
 21
214.644865
  0
LINE
  8
1
 62
7
  6
CONTINUOUS
 10
199.750625
 20
214.644865
 11
199.750625
 21
213.812865
  0
LINE
  8
1
 62
7
  6
CONTINUOUS
 10
199.750625
 20
213.812865
 11
196.550625
 21
214.228865
  0
LINE
  8
1
 62
7
  6
CONTINUOUS
 10
246.550625
 20
214.228865
 11
243.350625
 21
213.812865
  0
LINE
  8
1
 62
7
  6
CONTINUOUS
 10
243.350625
 20
213.812865
 11
243.350625
 21
214.644865
  0
LINE
  8
1
 62
7
  6
CONTINUOUS
 10
243.350625
 20
214.644865
 11
246.550625
 21
214.228865
  0
TEXT
  8
1
 62
7
  6
CONTINUOUS
 10
216.135642
 20
216.228865
 40
3.200000
 41
0.900000
  1
50
  7
KANJI
 50
0.000000
 51
0.000000
  0
TEXT
  8
1
 62
7
  6
CONTINUOUS
 10
222.535642
 20
216.868865
 40
1.920000
 41
0.900000
  1
±0.15
  7
KANJI
 50
0.000000
 51
0.000000
  0
LINE
  8
1
 62
7
  6
CONTINUOUS
 10
186.287278
 20
131.128774
 11
186.287278
 21
137.528774
  0
LINE
  8
1
 62
7
  6
CONTINUOUS
 10
186.287278
 20
137.528774
 11
186.287278
 21
143.327708
  0
LINE
  8
1
 62
7
  6
CONTINUOUS
 10
186.287278
 20
143.327708
 11
186.287278
 21
161.596675
  0
LINE
  8
1
 62
7
  6
CONTINUOUS
 10
209.550625
 20
137.528774
 11
184.787278
 21
137.528774
  0
LINE
  8
1
 62
7
  6
CONTINUOUS
 10
195.550625
 20
143.327708
 11
184.787278
 21
143.327708
  0
LINE
  8
1
 62
7
  6
CONTINUOUS
 10
186.287278
 20
143.327708
 11
185.871278
 21
146.527708
  0
LINE
  8
1
 62
7
  6
CONTINUOUS
 10
185.871278
 20
146.527708
 11
186.703278
 21
146.527708
  0
LINE
  8
1
 62
7
  6
CONTINUOUS
 10
186.703278
 20
146.527708
 11
186.287278
 21
143.327708
  0
LINE
  8
1
 62
7
  6
CONTINUOUS
 10
186.287278
 20
137.528774
 11
186.703278
 21
134.328774
  0
LINE
  8
1
 62
7
  6
CONTINUOUS
 10
186.703278
 20
134.328774
 11
185.871278
 21
134.328774
  0
LINE
  8
1
 62
7
  6
CONTINUOUS
 10
185.871278
 20
134.328774
 11
186.287278
 21
137.528774
  0
TEXT
  8
1
 62
7
  6
CONTINUOUS
 10
184.287278
 20
153.676675
 40
3.200000
 41
0.900000
  1
6.3
  7
KANJI
 50
90.000000
 51
0.000000
  0
TEXT
  8
1
 62
7
  6
CONTINUOUS
 10
184.287278
 20
151.596675
 40
3.200000
 41
0.900000
  1
(
  7
KANJI
 50
90.000000
 51
0.000000
  0
TEXT
  8
1
 62
7
  6
CONTINUOUS
 10
184.287278
 20
161.116675
 40
3.200000
 41
0.900000
  1
)
  7
KANJI
 50
90.000000
 51
0.000000
  0
LINE
  8
1
 62
7
  6
CONTINUOUS
 10
358.618906
 20
226.092926
 11
352.218906
 21
226.092926
  0
LINE
  8
1
 62
7
  6
CONTINUOUS
 10
350.718906
 20
226.092926
 11
352.218906
 21
226.092926
  0
LINE
  8
1
 62
7
  6
CONTINUOUS
 10
350.718906
 20
226.092926
 11
340.906232
 21
226.092926
  0
LINE
  8
1
 62
7
  6
CONTINUOUS
 10
350.718906
 20
191.877708
 11
350.718906
 21
227.592926
  0
LINE
  8
1
 62
7
  6
CONTINUOUS
 10
352.218906
 20
204.041851
 11
352.218906
 21
227.592926
  0
LINE
  8
1
 62
7
  6
CONTINUOUS
 10
350.718906
 20
226.092926
 11
347.518906
 21
225.676926
  0
LINE
  8
1
 62
7
  6
CONTINUOUS
 10
347.518906
 20
225.676926
 11
347.518906
 21
226.508926
  0
LINE
  8
1
 62
7
  6
CONTINUOUS
 10
347.518906
 20
226.508926
 11
350.718906
 21
226.092926
  0
LINE
  8
1
 62
7
  6
CONTINUOUS
 10
352.218906
 20
226.092926
 11
355.418906
 21
226.508926
  0
LINE
  8
1
 62
7
  6
CONTINUOUS
 10
355.418906
 20
226.508926
 11
355.418906
 21
225.676926
  0
LINE
  8
1
 62
7
  6
CONTINUOUS
 10
355.418906
 20
225.676926
 11
352.218906
 21
226.092926
  0
TEXT
  8
1
 62
7
  6
CONTINUOUS
 10
340.906232
 20
228.092926
 40
3.200000
 41
0.900000
  1
1.5
  7
KANJI
 50
0.000000
 51
0.000000
  0
LINE
  8
1
 62
7
  6
CONTINUOUS
 10
309.088881
 20
155.327708
 11
309.088881
 21
191.327708
  0
LINE
  8
1
 62
7
  6
CONTINUOUS
 10
349.958906
 20
155.327708
 11
307.588881
 21
155.327708
  0
LINE
  8
1
 62
7
  6
CONTINUOUS
 10
349.958906
 20
191.327708
 11
307.588881
 21
191.327708
  0
LINE
  8
1
 62
7
  6
CONTINUOUS
 10
309.088881
 20
191.327708
 11
309.504881
 21
188.127708
  0
LINE
  8
1
 62
7
  6
CONTINUOUS
 10
309.504881
 20
188.127708
 11
308.672881
 21
188.127708
  0
LINE
  8
1
 62
7
  6
CONTINUOUS
 10
308.672881
 20
188.127708
 11
309.088881
 21
191.327708
  0
LINE
  8
1
 62
7
  6
CONTINUOUS
 10
309.088881
 20
155.327708
 11
308.672881
 21
158.527708
  0
LINE
  8
1
 62
7
  6
CONTINUOUS
 10
308.672881
 20
158.527708
 11
309.504881
 21
158.527708
  0
LINE
  8
1
 62
7
  6
CONTINUOUS
 10
309.504881
 20
158.527708
 11
309.088881
 21
155.327708
  0
TEXT
  8
1
 62
7
  6
CONTINUOUS
 10
306.262214
 20
169.601777
 40
3.200000
 41
0.900000
  1
36
  7
KANJI
 50
90.000000
 51
0.000000
  0
TEXT
  8
1
 62
7
  6
CONTINUOUS
 10
304.182214
 20
176.001777
 40
1.920000
 41
0.900000
  1
0
  7
KANJI
 50
90.000000
 51
0.000000
  0
TEXT
  8
1
 62
7
  6
CONTINUOUS
 10
307.062214
 20
176.001777
 40
1.920000
 41
0.900000
  1
-0.05
  7
KANJI
 50
90.000000
 51
0.000000
  0
TEXT
  8
1
 62
7
  6
CONTINUOUS
 10
306.262214
 20
165.554719
 40
3.200000
 41
0.900000
  1
φ
  7
KANJI
 50
90.000000
 51
0.000000
  0
LINE
  8
1
 62
7
  6
CONTINUOUS
 10
352.218906
 20
235.412687
 11
398.518906
 21
235.412687
  0
LINE
  8
1
 62
7
  6
CONTINUOUS
 10
352.218906
 20
204.041851
 11
352.218906
 21
236.912687
  0
LINE
  8
1
 62
7
  6
CONTINUOUS
 10
398.518906
 20
203.327708
 11
398.518906
 21
236.912687
  0
LINE
  8
1
 62
7
  6
CONTINUOUS
 10
352.218906
 20
235.412687
 11
355.418906
 21
235.828687
  0
LINE
  8
1
 62
7
  6
CONTINUOUS
 10
355.418906
 20
235.828687
 11
355.418906
 21
234.996687
  0
LINE
  8
1
 62
7
  6
CONTINUOUS
 10
355.418906
 20
234.996687
 11
352.218906
 21
235.412687
  0
LINE
  8
1
 62
7
  6
CONTINUOUS
 10
398.518906
 20
235.412687
 11
395.318906
 21
234.996687
  0
LINE
  8
1
 62
7
  6
CONTINUOUS
 10
395.318906
 20
234.996687
 11
395.318906
 21
235.828687
  0
LINE
  8
1
 62
7
  6
CONTINUOUS
 10
395.318906
 20
235.828687
 11
398.518906
 21
235.412687
  0
TEXT
  8
1
 62
7
  6
CONTINUOUS
 10
372.546048
 20
237.412687
 40
3.200000
 41
0.900000
  1
47
  7
KANJI
 50
0.000000
 51
0.000000
  0
TEXT
  8
1
 62
7
  6
CONTINUOUS
 10
370.466048
 20
237.412687
 40
3.200000
 41
0.900000
  1
(
  7
KANJI
 50
0.000000
 51
0.000000
  0
TEXT
  8
1
 62
7
  6
CONTINUOUS
 10
378.946048
 20
237.412687
 40
3.200000
 41
0.900000
  1
)
  7
KANJI
 50
0.000000
 51
0.000000
  0
LINE
  8
1
 62
7
  6
CONTINUOUS
 10
328.218906
 20
235.412687
 11
352.218906
 21
235.412687
  0
LINE
  8
1
 62
7
  6
CONTINUOUS
 10
328.218906
 20
177.827708
 11
328.218906
 21
236.912687
  0
LINE
  8
1
 62
7
  6
CONTINUOUS
 10
352.218906
 20
204.041851
 11
352.218906
 21
236.912687
  0
LINE
  8
1
 62
7
  6
CONTINUOUS
 10
328.218906
 20
235.412687
 11
331.418906
 21
235.828687
  0
LINE
  8
1
 62
7
  6
CONTINUOUS
 10
331.418906
 20
235.828687
 11
331.418906
 21
234.996687
  0
LINE
  8
1
 62
7
  6
CONTINUOUS
 10
331.418906
 20
234.996687
 11
328.218906
 21
235.412687
  0
LINE
  8
1
 62
7
  6
CONTINUOUS
 10
352.218906
 20
235.412687
 11
349.018906
 21
234.996687
  0
LINE
  8
1
 62
7
  6
CONTINUOUS
 10
349.018906
 20
234.996687
 11
349.018906
 21
235.828687
  0
LINE
  8
1
 62
7
  6
CONTINUOUS
 10
349.018906
 20
235.828687
 11
352.218906
 21
235.412687
  0
TEXT
  8
1
 62
7
  6
CONTINUOUS
 10
334.664185
 20
237.412687
 40
3.200000
 41
0.900000
  1
24
  7
KANJI
 50
0.000000
 51
0.000000
  0
TEXT
  8
1
 62
7
  6
CONTINUOUS
 10
341.064185
 20
238.052687
 40
1.920000
 41
0.900000
  1
±0.5
  7
KANJI
 50
0.000000
 51
0.000000
  0
LINE
  8
1
 62
7
  6
CONTINUOUS
 10
328.218906
 20
206.547230
 11
348.218906
 21
206.547230
  0
LINE
  8
1
 62
7
  6
CONTINUOUS
 10
328.218906
 20
177.827708
 11
328.218906
 21
208.047230
  0
LINE
  8
1
 62
7
  6
CONTINUOUS
 10
348.218906
 20
178.327708
 11
348.218906
 21
208.047230
  0
LINE
  8
1
 62
7
  6
CONTINUOUS
 10
328.218906
 20
206.547230
 11
331.418906
 21
206.963230
  0
LINE
  8
1
 62
7
  6
CONTINUOUS
 10
331.418906
 20
206.963230
 11
331.418906
 21
206.131230
  0
LINE
  8
1
 62
7
  6
CONTINUOUS
 10
331.418906
 20
206.131230
 11
328.218906
 21
206.547230
  0
LINE
  8
1
 62
7
  6
CONTINUOUS
 10
348.218906
 20
206.547230
 11
345.018906
 21
206.131230
  0
LINE
  8
1
 62
7
  6
CONTINUOUS
 10
345.018906
 20
206.131230
 11
345.018906
 21
206.963230
  0
LINE
  8
1
 62
7
  6
CONTINUOUS
 10
345.018906
 20
206.963230
 11
348.218906
 21
206.547230
  0
TEXT
  8
1
 62
7
  6
CONTINUOUS
 10
332.817617
 20
208.547230
 40
3.200000
 41
0.900000
  1
20
  7
KANJI
 50
0.000000
 51
0.000000
  0
TEXT
  8
1
 62
7
  6
CONTINUOUS
 10
339.217617
 20
209.187230
 40
1.920000
 41
0.900000
  1
±0.2
  7
KANJI
 50
0.000000
 51
0.000000
  0
LINE
  8
1
 62
7
  6
CONTINUOUS
 10
319.174163
 20
169.327708
 11
319.174163
 21
177.327708
  0
LINE
  8
1
 62
7
  6
CONTINUOUS
 10
319.174163
 20
169.327708
 11
319.174163
 21
162.927708
  0
LINE
  8
1
 62
7
  6
CONTINUOUS
 10
319.174163
 20
177.327708
 11
319.174163
 21
183.727708
  0
LINE
  8
1
 62
7
  6
CONTINUOUS
 10
349.618906
 20
169.327708
 11
317.674163
 21
169.327708
  0
LINE
  8
1
 62
7
  6
CONTINUOUS
 10
347.218906
 20
177.327708
 11
317.674163
 21
177.327708
  0
LINE
  8
1
 62
7
  6
CONTINUOUS
 10
319.174163
 20
177.327708
 11
318.758163
 21
180.527708
  0
LINE
  8
1
 62
7
  6
CONTINUOUS
 10
318.758163
 20
180.527708
 11
319.590163
 21
180.527708
  0
LINE
  8
1
 62
7
  6
CONTINUOUS
 10
319.590163
 20
180.527708
 11
319.174163
 21
177.327708
  0
LINE
  8
1
 62
7
  6
CONTINUOUS
 10
319.174163
 20
169.327708
 11
319.590163
 21
166.127708
  0
LINE
  8
1
 62
7
  6
CONTINUOUS
 10
319.590163
 20
166.127708
 11
318.758163
 21
166.127708
  0
LINE
  8
1
 62
7
  6
CONTINUOUS
 10
318.758163
 20
166.127708
 11
319.174163
 21
169.327708
  0
TEXT
  8
1
 62
7
  6
CONTINUOUS
 10
316.347496
 20
170.289145
 40
3.200000
 41
0.900000
  1
8
  7
KANJI
 50
90.000000
 51
0.000000
  0
TEXT
  8
1
 62
7
  6
CONTINUOUS
 10
314.267496
 20
173.809145
 40
1.920000
 41
0.900000
  1
 0
  7
KANJI
 50
90.000000
 51
0.000000
  0
TEXT
  8
1
 62
7
  6
CONTINUOUS
 10
317.147496
 20
173.809145
 40
1.920000
 41
0.900000
  1
-0.02
  7
KANJI
 50
90.000000
 51
0.000000
  0
TEXT
  8
1
 62
7
  6
CONTINUOUS
 10
316.347496
 20
166.242086
 40
3.200000
 41
0.900000
  1
φ
  7
KANJI
 50
90.000000
 51
0.000000
  0
LINE
  8
1
 62
7
  6
CONTINUOUS
 10
365.618906
 20
134.475981
 11
359.218906
 21
134.475981
  0
LINE
  8
1
 62
7
  6
CONTINUOUS
 10
352.218906
 20
134.475981
 11
359.218906
 21
134.475981
  0
LINE
  8
1
 62
7
  6
CONTINUOUS
 10
352.218906
 20
134.475981
 11
344.945794
 21
134.475981
  0
LINE
  8
1
 62
7
  6
CONTINUOUS
 10
352.218906
 20
142.613565
 11
352.218906
 21
132.975981
  0
LINE
  8
1
 62
7
  6
CONTINUOUS
 10
359.218906
 20
142.327708
 11
359.218906
 21
132.975981
  0
LINE
  8
1
 62
7
  6
CONTINUOUS
 10
352.218906
 20
134.475981
 11
349.018906
 21
134.059981
  0
LINE
  8
1
 62
7
  6
CONTINUOUS
 10
349.018906
 20
134.059981
 11
349.018906
 21
134.891981
  0
LINE
  8
1
 62
7
  6
CONTINUOUS
 10
349.018906
 20
134.891981
 11
352.218906
 21
134.475981
  0
LINE
  8
1
 62
7
  6
CONTINUOUS
 10
359.218906
 20
134.475981
 11
362.418906
 21
134.891981
  0
LINE
  8
1
 62
7
  6
CONTINUOUS
 10
362.418906
 20
134.891981
 11
362.418906
 21
134.059981
  0
LINE
  8
1
 62
7
  6
CONTINUOUS
 10
362.418906
 20
134.059981
 11
359.218906
 21
134.475981
  0
TEXT
  8
1
 62
7
  6
CONTINUOUS
 10
344.945794
 20
136.475981
 40
3.200000
 41
0.900000
  1
7
  7
KANJI
 50
0.000000
 51
0.000000
  0
LINE
  8
1
 62
7
  6
CONTINUOUS
 10
217.550625
 20
195.271937
 11
225.050625
 21
195.271937
  0
LINE
  8
1
 62
7
  6
CONTINUOUS
 10
217.550625
 20
195.271937
 11
211.150625
 21
195.271937
  0
LINE
  8
1
 62
7
  6
CONTINUOUS
 10
225.050625
 20
195.271937
 11
231.450625
 21
195.271937
  0
LINE
  8
1
 62
7
  6
CONTINUOUS
 10
217.550625
 20
174.327708
 11
217.550625
 21
196.771937
  0
LINE
  8
1
 62
7
  6
CONTINUOUS
 10
225.050625
 20
176.264199
 11
225.050625
 21
196.771937
  0
LINE
  8
1
 62
7
  6
CONTINUOUS
 10
225.050625
 20
195.271937
 11
228.250625
 21
195.687937
  0
LINE
  8
1
 62
7
  6
CONTINUOUS
 10
228.250625
 20
195.687937
 11
228.250625
 21
194.855937
  0
LINE
  8
1
 62
7
  6
CONTINUOUS
 10
228.250625
 20
194.855937
 11
225.050625
 21
195.271937
  0
LINE
  8
1
 62
7
  6
CONTINUOUS
 10
217.550625
 20
195.271937
 11
214.350625
 21
194.855937
  0
LINE
  8
1
 62
7
  6
CONTINUOUS
 10
214.350625
 20
194.855937
 11
214.350625
 21
195.687937
  0
LINE
  8
1
 62
7
  6
CONTINUOUS
 10
214.350625
 20
195.687937
 11
217.550625
 21
195.271937
  0
TEXT
  8
1
 62
7
  6
CONTINUOUS
 10
206.682980
 20
197.271937
 40
3.200000
 41
0.900000
  1
7.5
  7
KANJI
 50
0.000000
 51
0.000000
  0
TEXT
  8
1
 62
7
  6
CONTINUOUS
 10
214.122980
 20
197.991937
 40
1.760000
 41
0.990000
  1
±0.2
  7
KANJI
 50
0.000000
 51
0.000000
  0
LINE
  8
1
 62
7
  6
CONTINUOUS
 10
242.307685
 20
183.227708
 11
242.307685
 21
176.827708
  0
LINE
  8
1
 62
7
  6
CONTINUOUS
 10
242.307685
 20
169.327708
 11
242.307685
 21
176.827708
  0
LINE
  8
1
 62
7
  6
CONTINUOUS
 10
242.307685
 20
169.327708
 11
242.307685
 21
147.514048
  0
LINE
  8
1
 62
7
  6
CONTINUOUS
 10
222.550625
 20
169.327708
 11
243.807685
 21
169.327708
  0
LINE
  8
1
 62
7
  6
CONTINUOUS
 10
224.487117
 20
176.827708
 11
243.807685
 21
176.827708
  0
LINE
  8
1
 62
7
  6
CONTINUOUS
 10
242.307685
 20
169.327708
 11
242.723685
 21
166.127708
  0
LINE
  8
1
 62
7
  6
CONTINUOUS
 10
242.723685
 20
166.127708
 11
241.891685
 21
166.127708
  0
LINE
  8
1
 62
7
  6
CONTINUOUS
 10
241.891685
 20
166.127708
 11
242.307685
 21
169.327708
  0
LINE
  8
1
 62
7
  6
CONTINUOUS
 10
242.307685
 20
176.827708
 11
241.891685
 21
180.027708
  0
LINE
  8
1
 62
7
  6
CONTINUOUS
 10
241.891685
 20
180.027708
 11
242.723685
 21
180.027708
  0
LINE
  8
1
 62
7
  6
CONTINUOUS
 10
242.723685
 20
180.027708
 11
242.307685
 21
176.827708
  0
TEXT
  8
1
 62
7
  6
CONTINUOUS
 10
240.307685
 20
147.514048
 40
3.200000
 41
0.900000
  1
7.5
  7
KANJI
 50
90.000000
 51
0.000000
  0
TEXT
  8
1
 62
7
  6
CONTINUOUS
 10
239.587685
 20
154.954048
 40
1.760000
 41
0.990000
  1
±0.2
  7
KANJI
 50
90.000000
 51
0.000000
  0
LINE
  8
1
 62
7
  6
CONTINUOUS
 10
248.462959
 20
187.238633
 11
247.742578
 21
187.959014
  0
LINE
  8
1
 62
7
  6
CONTINUOUS
 10
248.462959
 20
188.916782
 11
247.742578
 21
188.196401
  0
LINE
  8
1
 62
7
  6
CONTINUOUS
 10
246.261551
 20
186.715374
 11
246.981932
 21
187.435755
  0
LINE
  8
1
 62
7
  6
CONTINUOUS
 10
247.939700
 20
186.715374
 11
247.219319
 21
187.435755
  0
LINE
  8
1
 62
7
  6
CONTINUOUS
 10
245.738292
 20
188.916782
 11
246.458673
 21
188.196401
  0
LINE
  8
1
 62
7
  6
CONTINUOUS
 10
245.738292
 20
187.238633
 11
246.458673
 21
187.959014
  0
LINE
  8
1
 62
7
  6
CONTINUOUS
 10
247.939700
 20
189.440041
 11
247.219319
 21
188.719661
  0
LINE
  8
1
 62
7
  6
CONTINUOUS
 10
246.261551
 20
189.440041
 11
246.981932
 21
188.719661
  0
LINE
  8
1
 62
7
  6
CONTINUOUS
 10
195.358673
 20
187.959014
 11
194.638292
 21
187.238633
  0
LINE
  8
1
 62
7
  6
CONTINUOUS
 10
195.358673
 20
188.196401
 11
194.638292
 21
188.916782
  0
LINE
  8
1
 62
7
  6
CONTINUOUS
 10
196.119319
 20
187.435755
 11
196.839700
 21
186.715374
  0
LINE
  8
1
 62
7
  6
CONTINUOUS
 10
195.881932
 20
187.435755
 11
195.161551
 21
186.715374
  0
LINE
  8
1
 62
7
  6
CONTINUOUS
 10
196.642578
 20
188.196401
 11
197.362959
 21
188.916782
  0
LINE
  8
1
 62
7
  6
CONTINUOUS
 10
196.642578
 20
187.959014
 11
197.362959
 21
187.238633
  0
LINE
  8
1
 62
7
  6
CONTINUOUS
 10
195.881932
 20
188.719661
 11
195.161551
 21
189.440041
  0
LINE
  8
1
 62
7
  6
CONTINUOUS
 10
196.119319
 20
188.719661
 11
196.839700
 21
189.440041
  0
LINE
  8
1
 62
7
  6
CONTINUOUS
 10
247.742578
 20
158.696401
 11
248.462959
 21
159.416782
  0
LINE
  8
1
 62
7
  6
CONTINUOUS
 10
247.742578
 20
158.459014
 11
248.462959
 21
157.738633
  0
LINE
  8
1
 62
7
  6
CONTINUOUS
 10
246.981932
 20
159.219661
 11
246.261551
 21
159.940041
  0
LINE
  8
1
 62
7
  6
CONTINUOUS
 10
247.219319
 20
159.219661
 11
247.939700
 21
159.940041
  0
LINE
  8
1
 62
7
  6
CONTINUOUS
 10
246.458673
 20
158.459014
 11
245.738292
 21
157.738633
  0
LINE
  8
1
 62
7
  6
CONTINUOUS
 10
246.458673
 20
158.696401
 11
245.738292
 21
159.416782
  0
LINE
  8
1
 62
7
  6
CONTINUOUS
 10
247.219319
 20
157.935755
 11
247.939700
 21
157.215374
  0
LINE
  8
1
 62
7
  6
CONTINUOUS
 10
246.981932
 20
157.935755
 11
246.261551
 21
157.215374
  0
LINE
  8
1
 62
7
  6
CONTINUOUS
 10
194.638292
 20
159.416782
 11
195.358673
 21
158.696401
  0
LINE
  8
1
 62
7
  6
CONTINUOUS
 10
194.638292
 20
157.738633
 11
195.358673
 21
158.459014
  0
LINE
  8
1
 62
7
  6
CONTINUOUS
 10
196.839700
 20
159.940041
 11
196.119319
 21
159.219661
  0
LINE
  8
1
 62
7
  6
CONTINUOUS
 10
195.161551
 20
159.940041
 11
195.881932
 21
159.219661
  0
LINE
  8
1
 62
7
  6
CONTINUOUS
 10
197.362959
 20
157.738633
 11
196.642578
 21
158.459014
  0
LINE
  8
1
 62
7
  6
CONTINUOUS
 10
197.362959
 20
159.416782
 11
196.642578
 21
158.696401
  0
LINE
  8
1
 62
7
  6
CONTINUOUS
 10
195.161551
 20
157.215374
 11
195.881932
 21
157.935755
  0
LINE
  8
1
 62
7
  6
CONTINUOUS
 10
196.839700
 20
157.215374
 11
196.119319
 21
157.935755
  0
ARC
  8
1
 62
7
  6
CONTINUOUS
 10
247.100625
 20
188.077708
 40
0.635000
 50
-7.458449
 51
7.458449
  0
ARC
  8
1
 62
7
  6
CONTINUOUS
 10
247.100625
 20
188.077708
 40
1.600000
 50
-58.370676
 51
-31.629324
  0
ARC
  8
1
 62
7
  6
CONTINUOUS
 10
247.100625
 20
188.077708
 40
0.635000
 50
-97.458449
 51
-82.541551
  0
ARC
  8
1
 62
7
  6
CONTINUOUS
 10
247.100625
 20
188.077708
 40
1.600000
 50
-148.370676
 51
-121.629324
  0
ARC
  8
1
 62
7
  6
CONTINUOUS
 10
247.100625
 20
188.077708
 40
0.635000
 50
172.541551
 51
-172.541551
  0
ARC
  8
1
 62
7
  6
CONTINUOUS
 10
247.100625
 20
188.077708
 40
1.600000
 50
121.629324
 51
148.370676
  0
ARC
  8
1
 62
7
  6
CONTINUOUS
 10
247.100625
 20
188.077708
 40
0.635000
 50
82.541551
 51
97.458449
  0
ARC
  8
1
 62
7
  6
CONTINUOUS
 10
247.100625
 20
188.077708
 40
1.600000
 50
31.629324
 51
58.370676
  0
ARC
  8
1
 62
7
  6
CONTINUOUS
 10
196.000625
 20
188.077708
 40
0.635000
 50
172.541551
 51
-172.541551
  0
ARC
  8
1
 62
7
  6
CONTINUOUS
 10
196.000625
 20
188.077708
 40
1.600000
 50
-148.370676
 51
-121.629324
  0
ARC
  8
1
 62
7
  6
CONTINUOUS
 10
196.000625
 20
188.077708
 40
0.635000
 50
-97.458449
 51
-82.541551
  0
ARC
  8
1
 62
7
  6
CONTINUOUS
 10
196.000625
 20
188.077708
 40
1.600000
 50
-58.370676
 51
-31.629324
  0
ARC
  8
1
 62
7
  6
CONTINUOUS
 10
196.000625
 20
188.077708
 40
0.635000
 50
-7.458449
 51
7.458449
  0
ARC
  8
1
 62
7
  6
CONTINUOUS
 10
196.000625
 20
188.077708
 40
1.600000
 50
31.629324
 51
58.370676
  0
ARC
  8
1
 62
7
  6
CONTINUOUS
 10
196.000625
 20
188.077708
 40
0.635000
 50
82.541551
 51
97.458449
  0
ARC
  8
1
 62
7
  6
CONTINUOUS
 10
196.000625
 20
188.077708
 40
1.600000
 50
121.629324
 51
148.370676
  0
ARC
  8
1
 62
7
  6
CONTINUOUS
 10
247.100625
 20
158.577708
 40
0.635000
 50
-7.458449
 51
7.458449
  0
ARC
  8
1
 62
7
  6
CONTINUOUS
 10
247.100625
 20
158.577708
 40
1.600000
 50
31.629324
 51
58.370676
  0
ARC
  8
1
 62
7
  6
CONTINUOUS
 10
247.100625
 20
158.577708
 40
0.635000
 50
82.541551
 51
97.458449
  0
ARC
  8
1
 62
7
  6
CONTINUOUS
 10
247.100625
 20
158.577708
 40
1.600000
 50
121.629324
 51
148.370676
  0
ARC
  8
1
 62
7
  6
CONTINUOUS
 10
247.100625
 20
158.577708
 40
0.635000
 50
172.541551
 51
-172.541551
  0
ARC
  8
1
 62
7
  6
CONTINUOUS
 10
247.100625
 20
158.577708
 40
1.600000
 50
-148.370676
 51
-121.629324
  0
ARC
  8
1
 62
7
  6
CONTINUOUS
 10
247.100625
 20
158.577708
 40
0.635000
 50
-97.458449
 51
-82.541551
  0
ARC
  8
1
 62
7
  6
CONTINUOUS
 10
247.100625
 20
158.577708
 40
1.600000
 50
-58.370676
 51
-31.629324
  0
ARC
  8
1
 62
7
  6
CONTINUOUS
 10
196.000625
 20
158.577708
 40
0.635000
 50
172.541551
 51
-172.541551
  0
ARC
  8
1
 62
7
  6
CONTINUOUS
 10
196.000625
 20
158.577708
 40
1.600000
 50
121.629324
 51
148.370676
  0
ARC
  8
1
 62
7
  6
CONTINUOUS
 10
196.000625
 20
158.577708
 40
0.635000
 50
82.541551
 51
97.458449
  0
ARC
  8
1
 62
7
  6
CONTINUOUS
 10
196.000625
 20
158.577708
 40
1.600000
 50
31.629324
 51
58.370676
  0
ARC
  8
1
 62
7
  6
CONTINUOUS
 10
196.000625
 20
158.577708
 40
0.635000
 50
-7.458449
 51
7.458449
  0
ARC
  8
1
 62
7
  6
CONTINUOUS
 10
196.000625
 20
158.577708
 40
1.600000
 50
-58.370676
 51
-31.629324
  0
ARC
  8
1
 62
7
  6
CONTINUOUS
 10
196.000625
 20
158.577708
 40
0.635000
 50
-97.458449
 51
-82.541551
  0
ARC
  8
1
 62
7
  6
CONTINUOUS
 10
196.000625
 20
158.577708
 40
1.600000
 50
-148.370676
 51
-121.629324
  0
CIRCLE
  8
1
 62
7
  6
CONTINUOUS
 10
247.100625
 20
188.077708
 40
2.750000
  0
CIRCLE
  8
1
 62
7
  6
CONTINUOUS
 10
196.000625
 20
188.077708
 40
2.750000
  0
CIRCLE
  8
1
 62
7
  6
CONTINUOUS
 10
247.100625
 20
158.577708
 40
2.750000
  0
CIRCLE
  8
1
 62
7
  6
CONTINUOUS
 10
196.000625
 20
158.577708
 40
2.750000
  0
ARC
  8
1
 62
7
  6
CONTINUOUS
 10
247.773219
 20
187.989655
 40
0.043333
 50
172.541551
 51
-135.000000
  0
ARC
  8
1
 62
7
  6
CONTINUOUS
 10
247.773219
 20
188.165760
 40
0.043333
 50
135.000000
 51
-172.541551
  0
ARC
  8
1
 62
7
  6
CONTINUOUS
 10
247.012573
 20
187.405114
 40
0.043333
 50
82.541551
 51
135.000000
  0
ARC
  8
1
 62
7
  6
CONTINUOUS
 10
247.188678
 20
187.405114
 40
0.043333
 50
45.000000
 51
97.458449
  0
ARC
  8
1
 62
7
  6
CONTINUOUS
 10
246.428031
 20
188.165760
 40
0.043333
 50
-7.458449
 51
45.000000
  0
ARC
  8
1
 62
7
  6
CONTINUOUS
 10
246.428031
 20
187.989655
 40
0.043333
 50
-45.000000
 51
7.458449
  0
ARC
  8
1
 62
7
  6
CONTINUOUS
 10
247.188678
 20
188.750302
 40
0.043333
 50
-97.458449
 51
-45.000000
  0
ARC
  8
1
 62
7
  6
CONTINUOUS
 10
247.012573
 20
188.750302
 40
0.043333
 50
-135.000000
 51
-82.541551
  0
ARC
  8
1
 62
7
  6
CONTINUOUS
 10
195.328031
 20
187.989655
 40
0.043333
 50
-45.000000
 51
7.458449
  0
ARC
  8
1
 62
7
  6
CONTINUOUS
 10
195.328031
 20
188.165760
 40
0.043333
 50
-7.458449
 51
45.000000
  0
ARC
  8
1
 62
7
  6
CONTINUOUS
 10
196.088678
 20
187.405114
 40
0.043333
 50
45.000000
 51
97.458449
  0
ARC
  8
1
 62
7
  6
CONTINUOUS
 10
195.912573
 20
187.405114
 40
0.043333
 50
82.541551
 51
135.000000
  0
ARC
  8
1
 62
7
  6
CONTINUOUS
 10
196.673219
 20
188.165760
 40
0.043333
 50
135.000000
 51
-172.541551
  0
ARC
  8
1
 62
7
  6
CONTINUOUS
 10
196.673219
 20
187.989655
 40
0.043333
 50
172.541551
 51
-135.000000
  0
ARC
  8
1
 62
7
  6
CONTINUOUS
 10
195.912573
 20
188.750302
 40
0.043333
 50
-135.000000
 51
-82.541551
  0
ARC
  8
1
 62
7
  6
CONTINUOUS
 10
196.088678
 20
188.750302
 40
0.043333
 50
-97.458449
 51
-45.000000
  0
ARC
  8
1
 62
7
  6
CONTINUOUS
 10
247.773219
 20
158.665760
 40
0.043333
 50
135.000000
 51
-172.541551
  0
ARC
  8
1
 62
7
  6
CONTINUOUS
 10
247.773219
 20
158.489655
 40
0.043333
 50
172.541551
 51
-135.000000
  0
ARC
  8
1
 62
7
  6
CONTINUOUS
 10
247.012573
 20
159.250302
 40
0.043333
 50
-135.000000
 51
-82.541551
  0
ARC
  8
1
 62
7
  6
CONTINUOUS
 10
247.188678
 20
159.250302
 40
0.043333
 50
-97.458449
 51
-45.000000
  0
ARC
  8
1
 62
7
  6
CONTINUOUS
 10
246.428031
 20
158.489655
 40
0.043333
 50
-45.000000
 51
7.458449
  0
ARC
  8
1
 62
7
  6
CONTINUOUS
 10
246.428031
 20
158.665760
 40
0.043333
 50
-7.458449
 51
45.000000
  0
ARC
  8
1
 62
7
  6
CONTINUOUS
 10
247.188678
 20
157.905114
 40
0.043333
 50
45.000000
 51
97.458449
  0
ARC
  8
1
 62
7
  6
CONTINUOUS
 10
247.012573
 20
157.905114
 40
0.043333
 50
82.541551
 51
135.000000
  0
ARC
  8
1
 62
7
  6
CONTINUOUS
 10
195.328031
 20
158.665760
 40
0.043333
 50
-7.458449
 51
45.000000
  0
ARC
  8
1
 62
7
  6
CONTINUOUS
 10
195.328031
 20
158.489655
 40
0.043333
 50
-45.000000
 51
7.458449
  0
ARC
  8
1
 62
7
  6
CONTINUOUS
 10
196.088678
 20
159.250302
 40
0.043333
 50
-97.458449
 51
-45.000000
  0
ARC
  8
1
 62
7
  6
CONTINUOUS
 10
195.912573
 20
159.250302
 40
0.043333
 50
-135.000000
 51
-82.541551
  0
ARC
  8
1
 62
7
  6
CONTINUOUS
 10
196.673219
 20
158.489655
 40
0.043333
 50
172.541551
 51
-135.000000
  0
ARC
  8
1
 62
7
  6
CONTINUOUS
 10
196.673219
 20
158.665760
 40
0.043333
 50
135.000000
 51
-172.541551
  0
ARC
  8
1
 62
7
  6
CONTINUOUS
 10
195.912573
 20
157.905114
 40
0.043333
 50
82.541551
 51
135.000000
  0
ARC
  8
1
 62
7
  6
CONTINUOUS
 10
196.088678
 20
157.905114
 40
0.043333
 50
45.000000
 51
97.458449
  0
LINE
  8
1
 62
7
  6
CONTINUOUS
 10
230.650625
 20
143.327708
 11
230.650625
 21
137.528774
  0
LINE
  8
1
 62
7
  6
CONTINUOUS
 10
231.550625
 20
143.327708
 11
231.550625
 21
138.509840
  0
LINE
  8
1
 62
7
  6
CONTINUOUS
 10
212.450625
 20
143.327708
 11
212.450625
 21
137.528774
  0
LINE
  8
1
 62
7
  6
CONTINUOUS
 10
211.550625
 20
143.327708
 11
211.550625
 21
138.509840
  0
LINE
  8
1
 62
7
  6
CONTINUOUS
 10
230.750625
 20
137.528774
 11
230.650625
 21
137.528774
  0
LINE
  8
1
 62
7
  6
HIDDEN
 10
230.750625
 20
134.809840
 11
230.750625
 21
137.528774
  0
LINE
  8
1
 62
7
  6
CONTINUOUS
 10
212.350625
 20
137.528774
 11
211.550625
 21
137.528774
  0
LINE
  8
1
 62
7
  6
HIDDEN
 10
212.350625
 20
134.809840
 11
212.350625
 21
137.528774
  0
LINE
  8
1
 62
7
  6
HIDDEN
 10
211.550625
 20
134.809840
 11
212.350625
 21
134.809840
  0
LINE
  8
1
 62
7
  6
HIDDEN
 10
211.550625
 20
134.009840
 11
211.550625
 21
134.809840
  0
LINE
  8
1
 62
7
  6
CONTINUOUS
 10
230.650625
 20
137.528774
 11
230.550625
 21
137.528774
  0
LINE
  8
1
 62
7
  6
HIDDEN
 10
231.550625
 20
134.809840
 11
230.750625
 21
134.809840
  0
LINE
  8
1
 62
7
  6
HIDDEN
 10
231.550625
 20
134.009840
 11
231.550625
 21
134.809840
  0
LINE
  8
1
 62
7
  6
HIDDEN
 10
211.550625
 20
134.009840
 11
213.250625
 21
134.009840
  0
LINE
  8
1
 62
7
  6
CONTINUOUS
 10
230.550625
 20
137.528774
 11
212.550625
 21
137.528774
  0
LINE
  8
1
 62
7
  6
CONTINUOUS
 10
211.550625
 20
137.528774
 11
211.550625
 21
141.094363
  0
LINE
  8
1
 62
7
  6
CONTINUOUS
 10
212.550625
 20
137.528774
 11
212.350625
 21
137.528774
  0
LINE
  8
1
 62
7
  6
CONTINUOUS
 10
231.550625
 20
137.528774
 11
230.750625
 21
137.528774
  0
LINE
  8
1
 62
7
  6
CONTINUOUS
 10
231.550625
 20
141.094363
 11
231.550625
 21
137.528774
  0
LINE
  8
1
 62
7
  6
CONTINUOUS
 10
216.100625
 20
137.528774
 11
216.100625
 21
140.859840
  0
LINE
  8
1
 62
7
  6
CONTINUOUS
 10
216.100625
 20
140.859840
 11
215.600625
 21
140.859840
  0
LINE
  8
1
 62
7
  6
CONTINUOUS
 10
214.600625
 20
139.859840
 11
214.600625
 21
137.528774
  0
LINE
  8
1
 62
7
  6
CONTINUOUS
 10
227.000625
 20
140.859840
 11
227.000625
 21
137.528774
  0
LINE
  8
1
 62
7
  6
CONTINUOUS
 10
227.500625
 20
140.859840
 11
227.000625
 21
140.859840
  0
LINE
  8
1
 62
7
  6
CONTINUOUS
 10
228.500625
 20
137.528774
 11
228.500625
 21
139.859840
  0
LINE
  8
1
 62
7
  6
HIDDEN
 10
213.250625
 20
134.009840
 11
213.250625
 21
124.009840
  0
LINE
  8
1
 62
7
  6
HIDDEN
 10
214.850625
 20
134.009840
 11
214.850625
 21
124.009840
  0
LINE
  8
1
 62
7
  6
HIDDEN
 10
218.250625
 20
134.009840
 11
218.250625
 21
124.009840
  0
LINE
  8
1
 62
7
  6
HIDDEN
 10
219.850625
 20
134.009840
 11
219.850625
 21
124.009840
  0
LINE
  8
1
 62
7
  6
HIDDEN
 10
228.250625
 20
134.009840
 11
228.250625
 21
124.009840
  0
LINE
  8
1
 62
7
  6
HIDDEN
 10
229.850625
 20
134.009840
 11
229.850625
 21
124.009840
  0
LINE
  8
1
 62
7
  6
HIDDEN
 10
214.850625
 20
134.009840
 11
218.250625
 21
134.009840
  0
LINE
  8
1
 62
7
  6
HIDDEN
 10
219.850625
 20
134.009840
 11
228.250625
 21
134.009840
  0
LINE
  8
1
 62
7
  6
HIDDEN
 10
229.850625
 20
134.009840
 11
231.550625
 21
134.009840
  0
LINE
  8
1
 62
7
  6
CONTINUOUS
 10
231.550625
 20
137.528774
 11
211.550625
 21
137.528774
  0
LINE
  8
1
 62
7
  6
CONTINUOUS
 10
211.550625
 20
137.528774
 11
211.550625
 21
138.509840
  0
LINE
  8
1
 62
7
  6
CONTINUOUS
 10
231.550625
 20
138.509840
 11
231.550625
 21
137.528774
  0
LINE
  8
1
 62
7
  6
CONTINUOUS
 10
221.550625
 20
136.579511
 11
221.550625
 21
147.486158
  0
ARC
  8
1
 62
7
  6
CONTINUOUS
 10
215.600625
 20
139.859840
 40
1.000000
 50
90.000000
 51
180.000000
  0
ARC
  8
1
 62
7
  6
CONTINUOUS
 10
227.500625
 20
139.859840
 40
1.000000
 50
0.000000
 51
90.000000
  0
TEXT
  8
1
 62
7
  6
CONTINUOUS
 10
191.548665
 20
119.395621
 40
3.000000
 41
0.765000
  1
PIN NO.
  7
KANJI
 50
0.000000
 51
0.000000
  0
TEXT
  8
1
 62
7
  6
CONTINUOUS
 10
227.150625
 20
119.395621
 40
3.000000
 41
0.900000
  1
7
  7
KANJI
 50
0.000000
 51
0.000000
  0
TEXT
  8
1
 62
7
  6
CONTINUOUS
 10
217.150625
 20
119.395621
 40
3.000000
 41
0.900000
  1
3
  7
KANJI
 50
0.000000
 51
0.000000
  0
TEXT
  8
1
 62
7
  6
CONTINUOUS
 10
211.550625
 20
119.395621
 40
3.000000
 41
0.900000
  1
1
  7
KANJI
 50
0.000000
 51
0.000000
  0
LINE
  8
1
 62
7
  6
CONTINUOUS
 10
361.444289
 20
97.340681
 11
361.444289
 21
90.220681
  0
LINE
  8
1
 62
7
  6
CONTINUOUS
 10
360.465891
 20
97.340681
 11
360.465891
 21
90.220681
  0
LINE
  8
1
 62
7
  6
CONTINUOUS
 10
361.444289
 20
92.220681
 11
374.945718
 21
92.220681
  0
LINE
  8
1
 62
7
  6
CONTINUOUS
 10
361.444289
 20
93.260681
 11
374.945718
 21
93.260681
  0
LINE
  8
1
 62
7
  6
CONTINUOUS
 10
361.444289
 20
94.300681
 11
374.945718
 21
94.300681
  0
LINE
  8
1
 62
7
  6
CONTINUOUS
 10
361.444289
 20
95.340681
 11
374.945718
 21
95.340681
  0
LINE
  8
1
 62
7
  6
CONTINUOUS
 10
385.943460
 20
87.700681
 11
386.443460
 21
87.700681
  0
LINE
  8
1
 62
7
  6
CONTINUOUS
 10
385.943460
 20
100.900681
 11
386.443460
 21
100.900681
  0
LINE
  8
1
 62
7
  6
CONTINUOUS
 10
385.943460
 20
86.524681
 11
385.943460
 21
87.700681
  0
LINE
  8
1
 62
7
  6
CONTINUOUS
 10
386.443460
 20
86.524681
 11
385.943460
 21
86.524681
  0
LINE
  8
1
 62
7
  6
CONTINUOUS
 10
385.943460
 20
102.076681
 11
386.443460
 21
102.076681
  0
LINE
  8
1
 62
7
  6
CONTINUOUS
 10
385.943460
 20
100.900681
 11
385.943460
 21
102.076681
  0
LINE
  8
1
 62
7
  6
CONTINUOUS
 10
385.943460
 20
98.900681
 11
386.443460
 21
98.900681
  0
LINE
  8
1
 62
7
  6
CONTINUOUS
 10
385.943460
 20
99.700681
 11
385.943460
 21
98.900681
  0
LINE
  8
1
 62
7
  6
CONTINUOUS
 10
386.443460
 20
99.700681
 11
385.943460
 21
99.700681
  0
LINE
  8
1
 62
7
  6
CONTINUOUS
 10
385.943460
 20
96.900681
 11
386.443460
 21
96.900681
  0
LINE
  8
1
 62
7
  6
CONTINUOUS
 10
385.943460
 20
97.700681
 11
385.943460
 21
96.900681
  0
LINE
  8
1
 62
7
  6
CONTINUOUS
 10
386.443460
 20
97.700681
 11
385.943460
 21
97.700681
  0
LINE
  8
1
 62
7
  6
CONTINUOUS
 10
385.943460
 20
94.900681
 11
386.443460
 21
94.900681
  0
LINE
  8
1
 62
7
  6
CONTINUOUS
 10
385.943460
 20
95.700681
 11
385.943460
 21
94.900681
  0
LINE
  8
1
 62
7
  6
CONTINUOUS
 10
386.443460
 20
95.700681
 11
385.943460
 21
95.700681
  0
LINE
  8
1
 62
7
  6
CONTINUOUS
 10
385.943460
 20
100.900681
 11
386.443460
 21
100.900681
  0
LINE
  8
1
 62
7
  6
CONTINUOUS
 10
385.943460
 20
101.700681
 11
385.943460
 21
100.900681
  0
LINE
  8
1
 62
7
  6
CONTINUOUS
 10
385.943460
 20
98.900681
 11
386.443460
 21
98.900681
  0
LINE
  8
1
 62
7
  6
CONTINUOUS
 10
385.943460
 20
99.700681
 11
385.943460
 21
98.900681
  0
LINE
  8
1
 62
7
  6
CONTINUOUS
 10
386.443460
 20
99.700681
 11
385.943460
 21
99.700681
  0
LINE
  8
1
 62
7
  6
CONTINUOUS
 10
385.943460
 20
96.900681
 11
386.443460
 21
96.900681
  0
LINE
  8
1
 62
7
  6
CONTINUOUS
 10
385.943460
 20
97.700681
 11
385.943460
 21
96.900681
  0
LINE
  8
1
 62
7
  6
CONTINUOUS
 10
386.443460
 20
97.700681
 11
385.943460
 21
97.700681
  0
LINE
  8
1
 62
7
  6
CONTINUOUS
 10
385.943460
 20
94.900681
 11
386.443460
 21
94.900681
  0
LINE
  8
1
 62
7
  6
CONTINUOUS
 10
385.943460
 20
95.700681
 11
385.943460
 21
94.900681
  0
LINE
  8
1
 62
7
  6
CONTINUOUS
 10
386.443460
 20
95.700681
 11
385.943460
 21
95.700681
  0
LINE
  8
1
 62
7
  6
CONTINUOUS
 10
385.943460
 20
92.900681
 11
386.443460
 21
92.900681
  0
LINE
  8
1
 62
7
  6
CONTINUOUS
 10
385.943460
 20
93.700681
 11
385.943460
 21
92.900681
  0
LINE
  8
1
 62
7
  6
CONTINUOUS
 10
386.443460
 20
93.700681
 11
385.943460
 21
93.700681
  0
LINE
  8
1
 62
7
  6
CONTINUOUS
 10
385.943460
 20
90.900681
 11
386.443460
 21
90.900681
  0
LINE
  8
1
 62
7
  6
CONTINUOUS
 10
385.943460
 20
91.700681
 11
385.943460
 21
90.900681
  0
LINE
  8
1
 62
7
  6
CONTINUOUS
 10
386.443460
 20
91.700681
 11
385.943460
 21
91.700681
  0
LINE
  8
1
 62
7
  6
CONTINUOUS
 10
385.943460
 20
88.900681
 11
386.443460
 21
88.900681
  0
LINE
  8
1
 62
7
  6
CONTINUOUS
 10
385.943460
 20
89.700681
 11
385.943460
 21
88.900681
  0
LINE
  8
1
 62
7
  6
CONTINUOUS
 10
386.443460
 20
89.700681
 11
385.943460
 21
89.700681
  0
LINE
  8
1
 62
7
  6
CONTINUOUS
 10
386.443460
 20
102.076681
 11
386.443460
 21
86.524681
  0
LINE
  8
1
 62
7
  6
CONTINUOUS
 10
334.608113
 20
56.761482
 11
383.414740
 21
56.761482
  0
LINE
  8
1
 62
7
  6
CONTINUOUS
 10
386.443460
 20
88.828681
 11
388.531460
 21
88.756681
  0
LINE
  8
1
 62
7
  6
CONTINUOUS
 10
388.531460
 20
88.756681
 11
388.891460
 21
88.468681
  0
LINE
  8
1
 62
7
  6
CONTINUOUS
 10
388.891460
 20
88.468681
 11
389.719460
 21
88.468681
  0
LINE
  8
1
 62
7
  6
CONTINUOUS
 10
389.719460
 20
88.468681
 11
390.799460
 21
88.900681
  0
LINE
  8
1
 62
7
  6
CONTINUOUS
 10
390.799460
 20
88.900681
 11
390.799460
 21
89.332681
  0
LINE
  8
1
 62
7
  6
CONTINUOUS
 10
388.531460
 20
99.844681
 11
386.443460
 21
99.772681
  0
LINE
  8
1
 62
7
  6
CONTINUOUS
 10
388.891460
 20
100.132681
 11
388.531460
 21
99.844681
  0
LINE
  8
1
 62
7
  6
CONTINUOUS
 10
389.719460
 20
100.132681
 11
388.891460
 21
100.132681
  0
LINE
  8
1
 62
7
  6
CONTINUOUS
 10
390.799460
 20
99.700681
 11
389.719460
 21
100.132681
  0
LINE
  8
1
 62
7
  6
CONTINUOUS
 10
390.799460
 20
99.268681
 11
390.799460
 21
99.700681
  0
LINE
  8
1
 62
7
  6
CONTINUOUS
 10
390.799460
 20
99.268681
 11
387.019460
 21
99.268681
  0
LINE
  8
1
 62
7
  6
CONTINUOUS
 10
390.799460
 20
89.332681
 11
387.019460
 21
89.332681
  0
LINE
  8
1
 62
7
  6
CONTINUOUS
 10
387.019460
 20
89.332681
 11
387.019460
 21
99.268681
  0
LINE
  8
1
 62
7
  6
CONTINUOUS
 10
387.019460
 20
101.500681
 11
387.019460
 21
102.076681
  0
LINE
  8
1
 62
7
  6
CONTINUOUS
 10
392.023460
 20
87.100681
 11
392.023460
 21
101.500681
  0
LINE
  8
1
 62
7
  6
CONTINUOUS
 10
387.019460
 20
87.100681
 11
392.023460
 21
87.100681
  0
LINE
  8
1
 62
7
  6
CONTINUOUS
 10
387.019460
 20
101.500681
 11
392.023460
 21
101.500681
  0
LINE
  8
1
 62
7
  6
CONTINUOUS
 10
387.019460
 20
86.524681
 11
387.019460
 21
87.100681
  0
LINE
  8
1
 62
7
  6
CONTINUOUS
 10
386.443460
 20
86.524681
 11
387.019460
 21
86.524681
  0
LINE
  8
1
 62
7
  6
CONTINUOUS
 10
386.443460
 20
102.076681
 11
386.443460
 21
86.524681
  0
LINE
  8
1
 62
7
  6
CONTINUOUS
 10
387.019460
 20
102.076681
 11
386.443460
 21
102.076681
  0
LINE
  8
1
 62
7
  6
CONTINUOUS
 10
360.465891
 20
94.300681
 11
337.280687
 21
94.300681
  0
LINE
  8
1
 62
7
  6
CONTINUOUS
 10
360.465891
 20
93.260681
 11
337.280687
 21
93.260681
  0
LINE
  8
1
 62
7
  6
CONTINUOUS
 10
337.280687
 20
92.220681
 11
360.465891
 21
92.220681
  0
LINE
  8
1
 62
7
  6
CONTINUOUS
 10
337.280687
 20
95.340681
 11
360.465891
 21
95.340681
  0
LINE
  8
1
 62
7
  6
CONTINUOUS
 10
360.140891
 20
94.300681
 11
358.083200
 21
94.300681
  0
LINE
  8
1
 62
7
  6
CONTINUOUS
 10
358.083200
 20
93.260681
 11
360.140891
 21
93.260681
  0
LINE
  8
1
 62
7
  6
CONTINUOUS
 10
383.193460
 20
100.820681
 11
374.945718
 21
95.340681
  0
LINE
  8
1
 62
7
  6
CONTINUOUS
 10
383.193460
 20
100.820681
 11
386.443460
 21
100.820681
  0
LINE
  8
1
 62
7
  6
CONTINUOUS
 10
374.945718
 20
94.300681
 11
383.193460
 21
99.780681
  0
LINE
  8
1
 62
7
  6
CONTINUOUS
 10
383.193460
 20
99.780681
 11
386.443460
 21
99.780681
  0
LINE
  8
1
 62
7
  6
CONTINUOUS
 10
374.945718
 20
94.300681
 11
383.193460
 21
96.820681
  0
LINE
  8
1
 62
7
  6
CONTINUOUS
 10
383.193460
 20
96.820681
 11
386.443460
 21
96.820681
  0
LINE
  8
1
 62
7
  6
CONTINUOUS
 10
374.945718
 20
93.260681
 11
383.193460
 21
95.780681
  0
LINE
  8
1
 62
7
  6
CONTINUOUS
 10
383.193460
 20
95.780681
 11
386.443460
 21
95.780681
  0
LINE
  8
1
 62
7
  6
CONTINUOUS
 10
374.945718
 20
93.260681
 11
383.193460
 21
88.820681
  0
LINE
  8
1
 62
7
  6
CONTINUOUS
 10
383.193460
 20
88.820681
 11
386.443460
 21
88.820681
  0
LINE
  8
1
 62
7
  6
CONTINUOUS
 10
374.945718
 20
92.220681
 11
383.193460
 21
87.780681
  0
LINE
  8
1
 62
7
  6
CONTINUOUS
 10
383.193460
 20
87.780681
 11
386.443460
 21
87.780681
  0
LINE
  8
1
 62
7
  6
CONTINUOUS
 10
337.280687
 20
95.340681
 11
337.280687
 21
92.220681
  0
LINE
  8
1
 62
7
  6
CONTINUOUS
 10
337.280687
 20
94.820681
 11
327.280687
 21
94.820681
  0
LINE
  8
1
 62
7
  6
CONTINUOUS
 10
337.280687
 20
92.740681
 11
327.280687
 21
92.740681
  0
LINE
  8
1
 62
7
  6
CONTINUOUS
 10
337.280687
 20
93.780681
 11
327.280687
 21
93.780681
  0
LINE
  8
1
 62
7
  6
CONTINUOUS
 10
346.554349
 20
71.470156
 11
392.903937
 21
71.470156
  0
LINE
  8
1
 62
7
  6
CONTINUOUS
 10
324.297942
 20
79.329020
 11
369.245738
 21
79.329020
  0
LINE
  8
1
 62
7
  6
CONTINUOUS
 10
369.245738
 20
79.329020
 11
364.005188
 21
92.220681
  0
LINE
  8
1
 62
7
  6
CONTINUOUS
 10
365.600523
 20
89.414903
 11
364.819974
 21
89.097605
  0
LINE
  8
1
 62
7
  6
CONTINUOUS
 10
364.819974
 20
89.097605
 11
364.005188
 21
92.220681
  0
LINE
  8
1
 62
7
  6
CONTINUOUS
 10
364.005188
 20
92.220681
 11
365.600523
 21
89.414903
  0
LINE
  8
1
 62
7
  6
CONTINUOUS
 10
346.369045
 20
67.056976
 11
393.992383
 21
67.056976
  0
LINE
  8
1
 62
7
  6
CONTINUOUS
 10
393.992383
 20
67.056976
 11
389.499230
 21
87.100681
  0
LINE
  8
1
 62
7
  6
CONTINUOUS
 10
390.610281
 20
84.070327
 11
389.788109
 21
83.886022
  0
LINE
  8
1
 62
7
  6
CONTINUOUS
 10
389.788109
 20
83.886022
 11
389.499230
 21
87.100681
  0
LINE
  8
1
 62
7
  6
CONTINUOUS
 10
389.499230
 20
87.100681
 11
390.610281
 21
84.070327
  0
TEXT
  8
1
 62
7
  6
CONTINUOUS
 10
325.063185
 20
80.101012
 40
3.150000
 41
0.630000
  1
リード線仕様
  7
KANJI
 50
0.000000
 51
0.000000
  0
TEXT
  8
1
 62
7
  6
CONTINUOUS
 10
341.050265
 20
80.101012
 40
3.150000
 41
0.540000
  1
ＵＬ３２６６、ＡＷＧ２２
  7
KANJI
 50
0.000000
 51
0.000000
  0
TEXT
  8
1
 62
7
  6
CONTINUOUS
 10
325.063185
 20
76.661960
 40
1.800000
 41
0.630000
  1
LEAD WIRE
  7
KANJI
 50
0.000000
 51
0.000000
  0
TEXT
  8
1
 62
7
  6
CONTINUOUS
 10
335.944321
 20
52.594777
 40
2.800000
 41
0.540000
  1
ＡＴＴＡＣＨＭＥＮＴ　：　ＣＯＮＮＥＣＴＯＲ　ＬＥＡＤ
  7
KANJI
 50
0.000000
 51
0.000000
  0
TEXT
  8
1
 62
7
  6
CONTINUOUS
 10
343.974714
 20
57.546599
 40
3.200000
 41
0.540000
  1
付属品 : コネクタ　リード
  7
KANJI
 50
0.000000
 51
0.000000
  0
TEXT
  8
1
 62
7
  6
CONTINUOUS
 10
390.266671
 20
104.089580
 40
2.000000
 41
0.720000
  1
ＰＩＮ　ＮＯ．
  7
KANJI
 50
0.000000
 51
0.000000
  0
TEXT
  8
1
 62
7
  6
CONTINUOUS
 10
394.419566
 20
99.747662
 40
1.300000
 41
0.900000
  1
1
  7
KANJI
 50
0.000000
 51
0.000000
  0
TEXT
  8
1
 62
7
  6
CONTINUOUS
 10
394.419566
 20
95.641146
 40
1.300000
 41
0.900000
  1
3
  7
KANJI
 50
0.000000
 51
0.000000
  0
TEXT
  8
1
 62
7
  6
CONTINUOUS
 10
394.419566
 20
87.444605
 40
1.300000
 41
0.900000
  1
7
  7
KANJI
 50
0.000000
 51
0.000000
  0
TEXT
  8
1
 62
7
  6
CONTINUOUS
 10
347.656758
 20
72.378622
 40
3.000000
 41
0.450000
  1
ＨＯＵＳＩＮＧ：ＸＨＰ－７　（ＪＳＴ）
  7
KANJI
 50
0.000000
 51
0.000000
  0
TEXT
  8
1
 62
7
  6
CONTINUOUS
 10
347.656758
 20
68.178622
 40
3.000000
 41
0.450000
  1
ＣＯＮＴＡＣＴ：ＳＸＨ－００１Ｔ－Ｐ０．６　（ＪＳＴ）
  7
KANJI
 50
0.000000
 51
0.000000
  0
LINE
  8
1
 62
7
  6
CONTINUOUS
 10
327.280687
 20
109.566801
 11
386.443460
 21
109.566801
  0
LINE
  8
1
 62
7
  6
CONTINUOUS
 10
327.280687
 20
95.820681
 11
327.280687
 21
111.066801
  0
LINE
  8
1
 62
7
  6
CONTINUOUS
 10
386.443460
 20
103.076681
 11
386.443460
 21
111.066801
  0
LINE
  8
1
 62
7
  6
CONTINUOUS
 10
386.443460
 20
109.566801
 11
383.243460
 21
109.150801
  0
LINE
  8
1
 62
7
  6
CONTINUOUS
 10
383.243460
 20
109.150801
 11
383.243460
 21
109.982801
  0
LINE
  8
1
 62
7
  6
CONTINUOUS
 10
383.243460
 20
109.982801
 11
386.443460
 21
109.566801
  0
LINE
  8
1
 62
7
  6
CONTINUOUS
 10
327.280687
 20
109.566801
 11
330.480687
 21
109.982801
  0
LINE
  8
1
 62
7
  6
CONTINUOUS
 10
330.480687
 20
109.982801
 11
330.480687
 21
109.150801
  0
LINE
  8
1
 62
7
  6
CONTINUOUS
 10
330.480687
 20
109.150801
 11
327.280687
 21
109.566801
  0
TEXT
  8
1
 62
7
  6
CONTINUOUS
 10
347.917320
 20
112.366801
 40
3.200000
 41
0.900000
  1
300
  7
KANJI
 50
0.000000
 51
0.000000
  0
TEXT
  8
1
 62
7
  6
CONTINUOUS
 10
357.197320
 20
114.446801
 40
1.920000
 41
0.900000
  1
+40
  7
KANJI
 50
0.000000
 51
0.000000
  0
TEXT
  8
1
 62
7
  6
CONTINUOUS
 10
357.197320
 20
111.566801
 40
1.920000
 41
0.900000
  1
0
  7
KANJI
 50
0.000000
 51
0.000000
  0
LINE
  8
1
 62
7
  6
CONTINUOUS
 10
327.280687
 20
100.148404
 11
337.280687
 21
100.148404
  0
LINE
  8
1
 62
7
  6
CONTINUOUS
 10
327.280687
 20
95.820681
 11
327.280687
 21
101.648404
  0
LINE
  8
1
 62
7
  6
CONTINUOUS
 10
337.280687
 20
95.820681
 11
337.280687
 21
101.648404
  0
LINE
  8
1
 62
7
  6
CONTINUOUS
 10
327.280687
 20
100.148404
 11
330.480687
 21
100.564404
  0
LINE
  8
1
 62
7
  6
CONTINUOUS
 10
330.480687
 20
100.564404
 11
330.480687
 21
99.732404
  0
LINE
  8
1
 62
7
  6
CONTINUOUS
 10
330.480687
 20
99.732404
 11
327.280687
 21
100.148404
  0
LINE
  8
1
 62
7
  6
CONTINUOUS
 10
337.280687
 20
100.148404
 11
334.080687
 21
99.732404
  0
LINE
  8
1
 62
7
  6
CONTINUOUS
 10
334.080687
 20
99.732404
 11
334.080687
 21
100.564404
  0
LINE
  8
1
 62
7
  6
CONTINUOUS
 10
334.080687
 20
100.564404
 11
337.280687
 21
100.148404
  0
TEXT
  8
1
 62
7
  6
CONTINUOUS
 10
331.735121
 20
102.148404
 40
3.200000
 41
0.900000
  1
10
  7
KANJI
 50
0.000000
 51
0.000000
  0
TEXT
  8
1
 62
7
  6
CONTINUOUS
 10
329.655121
 20
102.148404
 40
3.200000
 41
0.900000
  1
(
  7
KANJI
 50
0.000000
 51
0.000000
  0
TEXT
  8
1
 62
7
  6
CONTINUOUS
 10
337.175121
 20
102.148404
 40
3.200000
 41
0.900000
  1
)
  7
KANJI
 50
0.000000
 51
0.000000
  0
ENDSEC
  0
EOF
