  0
SECTION
  2
HEADER
  9
$ACADVER
  1
AC1003
  9
$INSBASE
 10
0.000000
 20
0.000000
  9
$EXTMIN
 10
0.000000
 20
0.000000
  9
$EXTMAX
 10
420.000000
 20
297.000000
  9
$LIMMIN
 10
0.000000
 20
0.000000
  9
$LIMMAX
 10
420.000000
 20
297.000000
  9
$VIEWCTR
 10
210.000000
 20
148.500000
  9
$VIEWSIZE
 40
297.000000
  9
$PEXTMIN
 10
0.000000
 20
0.000000
 30
0.000000
  9
$PEXTMAX
 10
420.000000
 20
297.000000
 30
0.000000
  9
$SNAPMODE
 70
     0
  9
$SNAPUNIT
 10
1.000000
 20
1.000000
  9
$SNAPBASE
 10
0.000000
 20
0.000000
  9
$SNAPANG
 50
0.000000
  9
$SNAPISOPAIR
 70
     0
  9
$SNAPSTYLE
 70
     0
  9
$GRIDMODE
 70
     0
  9
$GRIDUNIT
 10
0.000000
 20
0.000000
  9
$ORTHOMODE
 70
     0
  9
$REGENMODE
 70
     1
  9
$FILLMODE
 70
     1
  9
$QTEXTMODE
 70
     0
  9
$DRAGMODE
 70
     2
  9
$LTSCALE
 40
0.250000
  9
$OSMODE
 70
     0
  9
$ATTMODE
 70
     1
  9
$TEXTSIZE
 40
0.200000
  9
$TRACEWID
 40
0.050000
  9
$TEXTSTYLE
  7
STANDARD
  9
$CLAYER
  8
0
  9
$CELTYPE
  6
BYLAYER
  9
$CECOLOR
 62
   256
  9
$DIMSCALE
 40
1.000000
  9
$DIMASZ
 40
1.000000
  9
$DIMEXO
 40
0.000000
  9
$DIMDLI
 40
0.500000
  9
$DIMRND
 40
0.000000
  9
$DIMDLE
 40
0.000000
  9
$DIMEXE
 40
0.000000
  9
$DIMTP
 40
0.000000
  9
$DIMTM
 40
0.000000
  9
$DIMTXT
 40
0.180000
  9
$DIMCEN
 40
0.000000
  9
$DIMTSZ
 40
0.000000
  9
$DIMTOL
 70
     0
  9
$DIMLIM
 70
     0
  9
$DIMTIH
 70
     1
  9
$DIMTOH
 70
     1
  9
$DIMSE1
 70
     0
  9
$DIMSE2
 70
     0
  9
$DIMTAD
 70
     0
  9
$DIMZIN
 70
     0
  9
$DIMBLK
  1

  9
$DIMASO
 70
     0
  9
$DIMSHO
 70
     0
  9
$DIMPOST
  1

  9
$DIMAPOST
  1

  9
$DIMALT
 70
     0
  9
$DIMALTD
 70
     0
  9
$DIMALTF
 40
25.400000
  9
$DIMLFAC
 40
1.000000
  9
$DIMTOFL
 70
     0
  9
$DIMTVP
 40
0.000000
  9
$DIMTIX
 70
     0
  9
$DIMSOXD
 70
     0
  9
$DIMSAH
 70
     0
  9
$DIMBLKL
  1

  9
$DIMBLKR
  1

  9
$LUNITS
 70
     2
  9
$LUPREC
 70
     2
  9
$AXISMODE
 70
     0
  9
$AXISUNIT
 10
1.000000
 20
1.000000
  9
$SKETCHINC
 40
0.000000
  9
$FILLETRAD
 40
0.000000
  9
$AUNITS
 70
     1
  9
$AUPREC
 70
     2
  9
$MENU
  1
ACAD
  9
$ELEVATION
 40
0.000000
  9
$THICKNESS
 40
0.000000
  9
$VIEWDIR
 10
0.000000
 20
0.000000
 30
1.000000
  9
$LIMCHECK
 70
     1
  9
$BLIPMODE
 70
     1
  9
$CHAMFERA
 40
0.000000
  9
$CHAMFERB
 40
0.000000
  9
$FASTZOOM
 70
     1
  9
$SKPOLY
 70
     0
  9
$TDCREATE
 40
0.000000
  9
$TDUPDATE
 40
0.000000
  9
$TDINDWG
 40
0.000000
  9
$TDUSRTIMER
 40
0.000000
  9
$USRTIMER
 70
     1
  9
$ANGBASE
 50
0.000000
  9
$ANGDIR
 70
     0
  9
$PDMODE
 70
     0
  9
$PDSIZE
 40
0.000000
  9
$PLINEWID
 40
0.000000
  9
$COORDS
 70
     2
  9
$USERI1
 70
     0
  9
$USERI2
 70
     0
  9
$USERI3
 70
     0
  9
$USERI4
 70
     0
  9
$USERI5
 70
     0
  9
$USERR1
 40
0.000000
  9
$USERR2
 40
0.000000
  9
$USERR3
 40
0.000000
  9
$USERR4
 40
0.000000
  9
$USERR5
 40
0.000000
  0
ENDSEC
  0
SECTION
  2
TABLES
  0
TABLE
  2
LTYPE
 70
     5
  0
LTYPE
  2
CONTINUOUS
 70
    64
  3
Solid line
 72
    65
 73
     0
 40
0.0
  0
LTYPE
  2
HIDDEN
 70
    64
  3
------------------------
 72
    65
 73
     2
 40
12.6
 49
8.4
 49
-4.2
  0
LTYPE
  2
DOT
 70
    64
  3
････････････････････････
 72
    65
 73
     2
 40
8.0
 49
6.0
 49
-2.0
  0
LTYPE
  2
DASHDOT
 70
    64
  3
--･--･--･--･--･--･--･--
 72
    65
 73
     4
 40
50.5
 49
30.0
 49
-9.0
 49
2.5
 49
-9.0
  0
LTYPE
  2
DIVIDE
 70
    64
  3
--･･--･･--･･--･･--･･--
 72
    65
 73
     6
 40
58.0
 49
30.0
 49
-9.0
 49
2.5
 49
-5.0
 49
2.5
 49
-9.0
  0
ENDTAB
  0
TABLE
  2
LAYER
 70
1
  0
LAYER
  2
1
 70
64
 62
7
  6
CONTINUOUS
  0
ENDTAB
  0
TABLE
  2
STYLE
 70
     2
  0
STYLE
  2
STANDARD
 70
    64
 40
0.0
 41
1.0
 50
0.0
 71
     0
 42
0.2
  3
TXT
  4

  0
STYLE
  2
KANJI
 70
    64
 40
0.0
 41
1.0
 50
0.0
 71
     0
 42
0.2
  3
TXT
  4
BIGFONT
  0
ENDTAB
  0
TABLE
  2
VIEW
 70
     0
  0
ENDTAB
  0
ENDSEC
  0
SECTION
  2
BLOCKS
  0
ENDSEC
  0
SECTION
  2
ENTITIES
  0
LINE
  8
1
 62
7
  6
CONTINUOUS
 10
252.097203
 20
69.464354
 11
252.192116
 21
69.559267
  0
LINE
  8
1
 62
7
  6
CONTINUOUS
 10
252.097203
 20
69.181512
 11
252.474958
 21
69.559267
  0
LINE
  8
1
 62
7
  6
CONTINUOUS
 10
252.097203
 20
68.898669
 11
252.757801
 21
69.559267
  0
LINE
  8
1
 62
7
  6
CONTINUOUS
 10
252.097203
 20
68.615826
 11
253.040644
 21
69.559267
  0
LINE
  8
1
 62
7
  6
CONTINUOUS
 10
252.097203
 20
68.332983
 11
253.323487
 21
69.559267
  0
LINE
  8
1
 62
7
  6
CONTINUOUS
 10
252.097203
 20
68.050141
 11
253.606329
 21
69.559267
  0
LINE
  8
1
 62
7
  6
CONTINUOUS
 10
252.097203
 20
67.767298
 11
253.889172
 21
69.559267
  0
LINE
  8
1
 62
7
  6
CONTINUOUS
 10
252.172015
 20
67.559267
 11
254.172015
 21
69.559267
  0
LINE
  8
1
 62
7
  6
CONTINUOUS
 10
252.454857
 20
67.559267
 11
254.454857
 21
69.559267
  0
LINE
  8
1
 62
7
  6
CONTINUOUS
 10
252.737700
 20
67.559267
 11
254.737700
 21
69.559267
  0
LINE
  8
1
 62
7
  6
CONTINUOUS
 10
253.020543
 20
67.559267
 11
255.020543
 21
69.559267
  0
LINE
  8
1
 62
7
  6
CONTINUOUS
 10
253.303386
 20
67.559267
 11
255.303386
 21
69.559267
  0
LINE
  8
1
 62
7
  6
CONTINUOUS
 10
256.550000
 20
70.523038
 11
256.586228
 21
70.559267
  0
LINE
  8
1
 62
7
  6
CONTINUOUS
 10
253.586228
 20
67.559267
 11
255.586228
 21
69.559267
  0
LINE
  8
1
 62
7
  6
CONTINUOUS
 10
256.550000
 20
70.240196
 11
256.869071
 21
70.559267
  0
LINE
  8
1
 62
7
  6
CONTINUOUS
 10
253.869071
 20
67.559267
 11
255.869071
 21
69.559267
  0
LINE
  8
1
 62
7
  6
CONTINUOUS
 10
256.550000
 20
69.957353
 11
257.151914
 21
70.559267
  0
LINE
  8
1
 62
7
  6
CONTINUOUS
 10
254.151914
 20
67.559267
 11
256.151914
 21
69.559267
  0
LINE
  8
1
 62
7
  6
CONTINUOUS
 10
256.550000
 20
69.674510
 11
257.434756
 21
70.559267
  0
LINE
  8
1
 62
7
  6
CONTINUOUS
 10
254.434756
 20
67.559267
 11
256.434756
 21
69.559267
  0
LINE
  8
1
 62
7
  6
CONTINUOUS
 10
254.717599
 20
67.559267
 11
257.550000
 21
70.391668
  0
LINE
  8
1
 62
7
  6
CONTINUOUS
 10
255.000442
 20
67.559267
 11
257.550000
 21
70.108825
  0
LINE
  8
1
 62
7
  6
CONTINUOUS
 10
255.283285
 20
67.559267
 11
257.550000
 21
69.825982
  0
LINE
  8
1
 62
7
  6
CONTINUOUS
 10
255.566127
 20
67.559267
 11
257.550000
 21
69.543140
  0
LINE
  8
1
 62
7
  6
CONTINUOUS
 10
255.848970
 20
67.559267
 11
257.550000
 21
69.260297
  0
LINE
  8
1
 62
7
  6
CONTINUOUS
 10
256.131813
 20
67.559267
 11
257.550000
 21
68.977454
  0
LINE
  8
1
 62
7
  6
CONTINUOUS
 10
256.414655
 20
67.559267
 11
257.550000
 21
68.694611
  0
LINE
  8
1
 62
7
  6
CONTINUOUS
 10
256.550000
 20
67.411769
 11
257.550000
 21
68.411769
  0
LINE
  8
1
 62
7
  6
CONTINUOUS
 10
256.550000
 20
67.128926
 11
257.550000
 21
68.128926
  0
LINE
  8
1
 62
7
  6
CONTINUOUS
 10
256.550000
 20
66.846083
 11
257.550000
 21
67.846083
  0
LINE
  8
1
 62
7
  6
CONTINUOUS
 10
256.550000
 20
66.563241
 11
257.550000
 21
67.563241
  0
LINE
  8
1
 62
7
  6
CONTINUOUS
 10
256.828869
 20
66.559267
 11
257.550000
 21
67.280398
  0
LINE
  8
1
 62
7
  6
CONTINUOUS
 10
257.111712
 20
66.559267
 11
257.550000
 21
66.997555
  0
LINE
  8
1
 62
7
  6
CONTINUOUS
 10
257.394554
 20
66.559267
 11
257.550000
 21
66.714712
  0
LINE
  8
1
 62
7
  6
CONTINUOUS
 10
251.754522
 20
68.559267
 11
258.180530
 21
68.559267
  0
LINE
  8
1
 62
7
  6
CONTINUOUS
 10
252.550000
 20
69.559267
 11
252.550000
 21
73.826086
  0
LINE
  8
1
 62
7
  6
CONTINUOUS
 10
256.550000
 20
69.559267
 11
256.550000
 21
74.621697
  0
LINE
  8
1
 62
7
  6
CONTINUOUS
 10
255.550000
 20
69.559267
 11
255.550000
 21
74.632278
  0
LINE
  8
1
 62
7
  6
CONTINUOUS
 10
254.550000
 20
69.559267
 11
254.550000
 21
74.428796
  0
LINE
  8
1
 62
7
  6
CONTINUOUS
 10
253.495063
 20
69.559267
 11
253.503137
 21
74.097204
  0
LINE
  8
1
 62
7
  6
CONTINUOUS
 10
252.097203
 20
67.559267
 11
252.097203
 21
69.559267
  0
LINE
  8
1
 62
7
  6
CONTINUOUS
 10
256.550000
 20
67.559267
 11
252.097203
 21
67.559267
  0
LINE
  8
1
 62
7
  6
CONTINUOUS
 10
256.550000
 20
66.559267
 11
256.550000
 21
67.559267
  0
LINE
  8
1
 62
7
  6
CONTINUOUS
 10
257.550000
 20
66.559267
 11
256.550000
 21
66.559267
  0
LINE
  8
1
 62
7
  6
CONTINUOUS
 10
257.550000
 20
70.559267
 11
257.550000
 21
66.559267
  0
LINE
  8
1
 62
7
  6
CONTINUOUS
 10
256.550000
 20
70.559267
 11
257.550000
 21
70.559267
  0
LINE
  8
1
 62
7
  6
CONTINUOUS
 10
256.550000
 20
69.559267
 11
256.550000
 21
70.559267
  0
LINE
  8
1
 62
7
  6
CONTINUOUS
 10
252.097203
 20
69.559267
 11
256.550000
 21
69.559267
  0
LINE
  8
1
 62
7
  6
CONTINUOUS
 10
263.211986
 20
122.673368
 11
263.211986
 21
142.846525
  0
LINE
  8
1
 62
7
  6
CONTINUOUS
 10
39.546387
 20
105.946909
 11
43.658686
 21
110.059207
  0
LINE
  8
1
 62
7
  6
CONTINUOUS
 10
93.318897
 20
105.946909
 11
89.206599
 21
110.059207
  0
LINE
  8
1
 62
7
  6
CONTINUOUS
 10
93.318897
 20
159.719419
 11
89.206599
 21
155.607121
  0
LINE
  8
1
 62
7
  6
CONTINUOUS
 10
176.800000
 20
132.833164
 11
176.800000
 21
135.833164
  0
LINE
  8
1
 62
7
  6
CONTINUOUS
 10
176.800000
 20
135.833164
 11
192.800000
 21
135.833164
  0
LINE
  8
1
 62
7
  6
CONTINUOUS
 10
192.800000
 20
135.833164
 11
192.800000
 21
136.833164
  0
LINE
  8
1
 62
7
  6
CONTINUOUS
 10
208.800000
 20
112.833164
 11
215.000000
 21
112.833164
  0
LINE
  8
1
 62
7
  6
CONTINUOUS
 10
208.800000
 20
102.333164
 11
208.800000
 21
112.833164
  0
LINE
  8
1
 62
7
  6
CONTINUOUS
 10
240.200000
 20
112.833164
 11
215.000000
 21
112.833164
  0
LINE
  8
1
 62
7
  6
CONTINUOUS
 10
260.800000
 20
112.833164
 11
240.200000
 21
112.833164
  0
LINE
  8
1
 62
7
  6
CONTINUOUS
 10
200.800000
 20
105.833164
 11
200.800000
 21
132.833164
  0
LINE
  8
1
 62
7
  6
CONTINUOUS
 10
197.800000
 20
128.833164
 11
197.800000
 21
132.833164
  0
LINE
  8
1
 62
7
  6
CONTINUOUS
 10
197.800000
 20
128.833164
 11
176.800000
 21
128.833164
  0
LINE
  8
1
 62
7
  6
CONTINUOUS
 10
240.200000
 20
102.333164
 11
260.800000
 21
102.333164
  0
LINE
  8
1
 62
7
  6
CONTINUOUS
 10
260.800000
 20
102.333164
 11
260.800000
 21
132.833164
  0
LINE
  8
1
 62
7
  6
CONTINUOUS
 10
215.000000
 20
102.833164
 11
215.000000
 21
102.333164
  0
LINE
  8
1
 62
7
  6
CONTINUOUS
 10
200.800000
 20
102.333164
 11
215.000000
 21
102.333164
  0
LINE
  8
1
 62
7
  6
CONTINUOUS
 10
215.000000
 20
102.833164
 11
215.000000
 21
132.833164
  0
LINE
  8
1
 62
7
  6
CONTINUOUS
 10
200.800000
 20
105.833164
 11
200.800000
 21
102.333164
  0
LINE
  8
1
 62
7
  6
CONTINUOUS
 10
200.800000
 20
105.833164
 11
197.800000
 21
105.833164
  0
LINE
  8
1
 62
7
  6
CONTINUOUS
 10
197.800000
 20
105.833164
 11
197.800000
 21
128.833164
  0
LINE
  8
1
 62
7
  6
CONTINUOUS
 10
215.000000
 20
102.833164
 11
215.000000
 21
132.833164
  0
LINE
  8
1
 62
7
  6
CONTINUOUS
 10
240.200000
 20
132.833164
 11
240.200000
 21
102.833164
  0
LINE
  8
1
 62
7
  6
CONTINUOUS
 10
240.200000
 20
102.833164
 11
215.000000
 21
102.833164
  0
LINE
  8
1
 62
7
  6
CONTINUOUS
 10
240.200000
 20
102.333164
 11
240.200000
 21
132.833164
  0
LINE
  8
1
 62
7
  6
CONTINUOUS
 10
176.800000
 20
128.833164
 11
176.800000
 21
132.833164
  0
LINE
  8
1
 62
7
  6
CONTINUOUS
 10
215.000000
 20
152.833164
 11
208.800000
 21
152.833164
  0
LINE
  8
1
 62
7
  6
CONTINUOUS
 10
208.800000
 20
152.833164
 11
208.800000
 21
163.333164
  0
LINE
  8
1
 62
7
  6
CONTINUOUS
 10
215.000000
 20
152.833164
 11
240.200000
 21
152.833164
  0
LINE
  8
1
 62
7
  6
CONTINUOUS
 10
240.200000
 20
152.833164
 11
260.800000
 21
152.833164
  0
LINE
  8
1
 62
7
  6
CONTINUOUS
 10
200.800000
 20
132.833164
 11
200.800000
 21
163.333164
  0
LINE
  8
1
 62
7
  6
CONTINUOUS
 10
197.800000
 20
132.833164
 11
197.800000
 21
136.833164
  0
LINE
  8
1
 62
7
  6
CONTINUOUS
 10
192.800000
 20
136.833164
 11
197.800000
 21
136.833164
  0
LINE
  8
1
 62
7
  6
CONTINUOUS
 10
260.800000
 20
163.333164
 11
240.200000
 21
163.333164
  0
LINE
  8
1
 62
7
  6
CONTINUOUS
 10
260.800000
 20
132.833164
 11
260.800000
 21
163.333164
  0
LINE
  8
1
 62
7
  6
CONTINUOUS
 10
215.000000
 20
163.333164
 11
200.800000
 21
163.333164
  0
LINE
  8
1
 62
7
  6
CONTINUOUS
 10
215.000000
 20
132.833164
 11
215.000000
 21
162.833164
  0
LINE
  8
1
 62
7
  6
CONTINUOUS
 10
40.432642
 20
163.333164
 11
66.432642
 21
163.333164
  0
LINE
  8
1
 62
7
  6
CONTINUOUS
 10
39.546387
 20
159.719419
 11
43.658686
 21
155.607121
  0
LINE
  8
1
 62
7
  6
CONTINUOUS
 10
66.432642
 20
102.333164
 11
40.432642
 21
102.333164
  0
LINE
  8
1
 62
7
  6
CONTINUOUS
 10
35.932642
 20
106.833164
 11
35.932642
 21
158.833164
  0
LINE
  8
1
 62
7
  6
CONTINUOUS
 10
32.644532
 20
132.833164
 11
100.318383
 21
132.833164
  0
LINE
  8
1
 62
7
  6
CONTINUOUS
 10
66.432642
 20
95.423845
 11
66.432642
 21
166.088317
  0
LINE
  8
1
 62
7
  6
CONTINUOUS
 10
197.800000
 20
159.833164
 11
200.800000
 21
159.833164
  0
LINE
  8
1
 62
7
  6
CONTINUOUS
 10
197.800000
 20
136.833164
 11
197.800000
 21
159.833164
  0
LINE
  8
1
 62
7
  6
CONTINUOUS
 10
66.432642
 20
163.333164
 11
92.432642
 21
163.333164
  0
LINE
  8
1
 62
7
  6
CONTINUOUS
 10
92.432642
 20
102.333164
 11
66.432642
 21
102.333164
  0
LINE
  8
1
 62
7
  6
CONTINUOUS
 10
96.932642
 20
158.833164
 11
96.932642
 21
106.833164
  0
LINE
  8
1
 62
7
  6
CONTINUOUS
 10
171.578043
 20
132.833164
 11
261.793218
 21
132.833164
  0
LINE
  8
1
 62
7
  6
CONTINUOUS
 10
215.000000
 20
132.833164
 11
215.000000
 21
162.833164
  0
LINE
  8
1
 62
7
  6
CONTINUOUS
 10
240.200000
 20
162.833164
 11
240.200000
 21
132.833164
  0
LINE
  8
1
 62
7
  6
CONTINUOUS
 10
215.000000
 20
162.833164
 11
240.200000
 21
162.833164
  0
LINE
  8
1
 62
7
  6
CONTINUOUS
 10
240.200000
 20
132.833164
 11
240.200000
 21
163.333164
  0
LINE
  8
1
 62
7
  6
CONTINUOUS
 10
260.800000
 20
97.833164
 11
260.800000
 21
98.833164
  0
LINE
  8
1
 62
7
  6
CONTINUOUS
 10
248.300000
 20
97.833164
 11
260.800000
 21
97.833164
  0
LINE
  8
1
 62
7
  6
CONTINUOUS
 10
248.300000
 20
98.833164
 11
248.300000
 21
97.833164
  0
LINE
  8
1
 62
7
  6
CONTINUOUS
 10
242.550000
 20
32.495432
 11
253.434870
 21
32.495432
  0
LINE
  8
1
 62
7
  6
CONTINUOUS
 10
242.550000
 20
32.495432
 11
253.434870
 21
32.495432
  0
LINE
  8
1
 62
7
  6
CONTINUOUS
 10
253.434870
 20
32.495432
 11
254.550000
 21
32.495432
  0
LINE
  8
1
 62
7
  6
CONTINUOUS
 10
253.434870
 20
32.495432
 11
254.550000
 21
32.495432
  0
LINE
  8
1
 62
7
  6
CONTINUOUS
 10
254.550000
 20
32.495432
 11
265.550000
 21
32.495432
  0
LINE
  8
1
 62
7
  6
CONTINUOUS
 10
254.550000
 20
32.495432
 11
263.050000
 21
32.495432
  0
LINE
  8
1
 62
7
  6
CONTINUOUS
 10
262.050000
 20
32.495432
 11
261.050000
 21
32.495432
  0
LINE
  8
1
 62
7
  6
CONTINUOUS
 10
264.550000
 20
32.495432
 11
263.550000
 21
32.495432
  0
LINE
  8
1
 62
7
  6
CONTINUOUS
 10
265.550000
 20
32.495432
 11
260.000000
 21
32.495432
  0
LINE
  8
1
 62
7
  6
CONTINUOUS
 10
263.550000
 20
24.595432
 11
263.550000
 21
28.748262
  0
LINE
  8
1
 62
7
  6
CONTINUOUS
 10
263.550000
 20
28.748262
 11
264.550000
 21
28.748262
  0
LINE
  8
1
 62
7
  6
CONTINUOUS
 10
263.550000
 20
24.595432
 11
264.550000
 21
24.595432
  0
LINE
  8
1
 62
7
  6
CONTINUOUS
 10
264.550000
 20
28.748262
 11
264.550000
 21
24.595432
  0
LINE
  8
1
 62
7
  6
CONTINUOUS
 10
261.050000
 20
24.595432
 11
261.050000
 21
28.748262
  0
LINE
  8
1
 62
7
  6
CONTINUOUS
 10
261.050000
 20
28.748262
 11
262.050000
 21
28.748262
  0
LINE
  8
1
 62
7
  6
CONTINUOUS
 10
261.050000
 20
24.595432
 11
262.050000
 21
24.595432
  0
LINE
  8
1
 62
7
  6
CONTINUOUS
 10
262.050000
 20
28.748262
 11
262.050000
 21
24.595432
  0
LINE
  8
1
 62
7
  6
CONTINUOUS
 10
258.550000
 20
24.595432
 11
258.550000
 21
28.748262
  0
LINE
  8
1
 62
7
  6
CONTINUOUS
 10
258.550000
 20
28.748262
 11
259.550000
 21
28.748262
  0
LINE
  8
1
 62
7
  6
CONTINUOUS
 10
258.550000
 20
24.595432
 11
259.550000
 21
24.595432
  0
LINE
  8
1
 62
7
  6
CONTINUOUS
 10
259.550000
 20
28.748262
 11
259.550000
 21
24.595432
  0
LINE
  8
1
 62
7
  6
CONTINUOUS
 10
256.050000
 20
24.595432
 11
256.050000
 21
28.748262
  0
LINE
  8
1
 62
7
  6
CONTINUOUS
 10
256.050000
 20
28.748262
 11
257.050000
 21
28.748262
  0
LINE
  8
1
 62
7
  6
CONTINUOUS
 10
256.050000
 20
24.595432
 11
257.050000
 21
24.595432
  0
LINE
  8
1
 62
7
  6
CONTINUOUS
 10
257.050000
 20
28.748262
 11
257.050000
 21
24.595432
  0
LINE
  8
1
 62
7
  6
CONTINUOUS
 10
253.550000
 20
24.595432
 11
253.550000
 21
28.748262
  0
LINE
  8
1
 62
7
  6
CONTINUOUS
 10
253.550000
 20
28.748262
 11
254.550000
 21
28.748262
  0
LINE
  8
1
 62
7
  6
CONTINUOUS
 10
253.550000
 20
24.595432
 11
254.550000
 21
24.595432
  0
LINE
  8
1
 62
7
  6
CONTINUOUS
 10
254.550000
 20
28.748262
 11
254.550000
 21
24.595432
  0
LINE
  8
1
 62
7
  6
CONTINUOUS
 10
251.050000
 20
24.595432
 11
251.050000
 21
28.748262
  0
LINE
  8
1
 62
7
  6
CONTINUOUS
 10
251.050000
 20
28.748262
 11
252.050000
 21
28.748262
  0
LINE
  8
1
 62
7
  6
CONTINUOUS
 10
251.050000
 20
24.595432
 11
252.050000
 21
24.595432
  0
LINE
  8
1
 62
7
  6
CONTINUOUS
 10
252.050000
 20
28.748262
 11
252.050000
 21
24.595432
  0
LINE
  8
1
 62
7
  6
CONTINUOUS
 10
248.550000
 20
24.595432
 11
248.550000
 21
28.748262
  0
LINE
  8
1
 62
7
  6
CONTINUOUS
 10
248.550000
 20
28.748262
 11
249.550000
 21
28.748262
  0
LINE
  8
1
 62
7
  6
CONTINUOUS
 10
248.550000
 20
24.595432
 11
249.550000
 21
24.595432
  0
LINE
  8
1
 62
7
  6
CONTINUOUS
 10
249.550000
 20
28.748262
 11
249.550000
 21
24.595432
  0
LINE
  8
1
 62
7
  6
CONTINUOUS
 10
246.050000
 20
24.595432
 11
246.050000
 21
28.748262
  0
LINE
  8
1
 62
7
  6
CONTINUOUS
 10
246.050000
 20
28.748262
 11
247.050000
 21
28.748262
  0
LINE
  8
1
 62
7
  6
CONTINUOUS
 10
246.050000
 20
24.595432
 11
247.050000
 21
24.595432
  0
LINE
  8
1
 62
7
  6
CONTINUOUS
 10
247.050000
 20
28.748262
 11
247.050000
 21
24.595432
  0
LINE
  8
1
 62
7
  6
CONTINUOUS
 10
243.550000
 20
24.595432
 11
243.550000
 21
28.748262
  0
LINE
  8
1
 62
7
  6
CONTINUOUS
 10
243.550000
 20
28.748262
 11
244.550000
 21
28.748262
  0
LINE
  8
1
 62
7
  6
CONTINUOUS
 10
243.550000
 20
24.595432
 11
244.550000
 21
24.595432
  0
LINE
  8
1
 62
7
  6
CONTINUOUS
 10
244.550000
 20
28.748262
 11
244.550000
 21
24.595432
  0
LINE
  8
1
 62
7
  6
CONTINUOUS
 10
265.550000
 20
24.595432
 11
265.550000
 21
32.495432
  0
LINE
  8
1
 62
7
  6
CONTINUOUS
 10
242.550000
 20
32.495432
 11
242.550000
 21
24.595432
  0
LINE
  8
1
 62
7
  6
CONTINUOUS
 10
242.550000
 20
24.595432
 11
265.550000
 21
24.595432
  0
LINE
  8
1
 62
7
  6
CONTINUOUS
 10
252.550000
 20
52.495432
 11
252.550000
 21
67.559267
  0
LINE
  8
1
 62
7
  6
CONTINUOUS
 10
253.449182
 20
47.799759
 11
253.491765
 21
67.559267
  0
LINE
  8
1
 62
7
  6
CONTINUOUS
 10
254.550000
 20
48.821879
 11
254.550000
 21
67.559267
  0
LINE
  8
1
 62
7
  6
CONTINUOUS
 10
255.550000
 20
52.495432
 11
255.550000
 21
67.559267
  0
LINE
  8
1
 62
7
  6
CONTINUOUS
 10
256.550000
 20
52.495432
 11
256.550000
 21
67.559267
  0
LINE
  8
1
 62
7
  6
CONTINUOUS
 10
63.786891
 20
135.833164
 11
69.078394
 21
135.833164
  0
LINE
  8
1
 62
7
  6
CONTINUOUS
 10
217.100000
 20
152.833164
 11
217.100000
 21
156.266323
  0
LINE
  8
1
 62
7
  6
CONTINUOUS
 10
217.100000
 20
157.617027
 11
217.100000
 21
162.833164
  0
LINE
  8
1
 62
7
  6
CONTINUOUS
 10
218.100000
 20
162.833164
 11
218.100000
 21
157.978729
  0
LINE
  8
1
 62
7
  6
CONTINUOUS
 10
219.100000
 20
158.340431
 11
219.100000
 21
162.833164
  0
LINE
  8
1
 62
7
  6
CONTINUOUS
 10
236.100000
 20
162.833164
 11
236.100000
 21
158.340431
  0
LINE
  8
1
 62
7
  6
CONTINUOUS
 10
237.100000
 20
157.978729
 11
237.100000
 21
162.833164
  0
LINE
  8
1
 62
7
  6
CONTINUOUS
 10
238.100000
 20
162.833164
 11
238.100000
 21
157.617027
  0
LINE
  8
1
 62
7
  6
CONTINUOUS
 10
238.100000
 20
152.833164
 11
238.100000
 21
156.266323
  0
LINE
  8
1
 62
7
  6
CONTINUOUS
 10
216.100000
 20
157.255325
 11
216.100000
 21
162.833164
  0
LINE
  8
1
 62
7
  6
CONTINUOUS
 10
239.100000
 20
155.904621
 11
239.100000
 21
152.833164
  0
LINE
  8
1
 62
7
  6
CONTINUOUS
 10
216.100000
 20
152.833164
 11
216.100000
 21
155.904621
  0
LINE
  8
1
 62
7
  6
CONTINUOUS
 10
239.100000
 20
162.833164
 11
239.100000
 21
157.255325
  0
LINE
  8
1
 62
7
  6
CONTINUOUS
 10
217.100000
 20
152.833164
 11
217.100000
 21
156.266323
  0
LINE
  8
1
 62
7
  6
CONTINUOUS
 10
217.100000
 20
157.617027
 11
217.100000
 21
162.833164
  0
LINE
  8
1
 62
7
  6
CONTINUOUS
 10
218.100000
 20
162.833164
 11
218.100000
 21
157.978729
  0
LINE
  8
1
 62
7
  6
CONTINUOUS
 10
219.100000
 20
158.340431
 11
219.100000
 21
162.833164
  0
LINE
  8
1
 62
7
  6
CONTINUOUS
 10
236.100000
 20
162.833164
 11
236.100000
 21
158.340431
  0
LINE
  8
1
 62
7
  6
CONTINUOUS
 10
237.100000
 20
157.978729
 11
237.100000
 21
162.833164
  0
LINE
  8
1
 62
7
  6
CONTINUOUS
 10
238.100000
 20
162.833164
 11
238.100000
 21
157.617027
  0
LINE
  8
1
 62
7
  6
CONTINUOUS
 10
238.100000
 20
152.833164
 11
238.100000
 21
156.266323
  0
LINE
  8
1
 62
7
  6
CONTINUOUS
 10
216.100000
 20
157.255325
 11
216.100000
 21
162.833164
  0
LINE
  8
1
 62
7
  6
CONTINUOUS
 10
239.100000
 20
155.904621
 11
239.100000
 21
152.833164
  0
LINE
  8
1
 62
7
  6
CONTINUOUS
 10
216.100000
 20
152.833164
 11
216.100000
 21
155.904621
  0
LINE
  8
1
 62
7
  6
CONTINUOUS
 10
239.100000
 20
162.833164
 11
239.100000
 21
157.255325
  0
LINE
  8
1
 62
7
  6
CONTINUOUS
 10
239.100000
 20
149.157255
 11
239.100000
 21
132.833164
  0
LINE
  8
1
 62
7
  6
CONTINUOUS
 10
238.100000
 20
149.157255
 11
238.100000
 21
132.833164
  0
LINE
  8
1
 62
7
  6
CONTINUOUS
 10
237.100000
 20
149.157255
 11
237.100000
 21
132.833164
  0
LINE
  8
1
 62
7
  6
CONTINUOUS
 10
236.100000
 20
149.157255
 11
236.100000
 21
132.833164
  0
LINE
  8
1
 62
7
  6
CONTINUOUS
 10
235.100000
 20
149.157255
 11
235.100000
 21
132.833164
  0
LINE
  8
1
 62
7
  6
CONTINUOUS
 10
220.100000
 20
149.157255
 11
220.100000
 21
132.833164
  0
LINE
  8
1
 62
7
  6
CONTINUOUS
 10
219.100000
 20
149.157255
 11
219.100000
 21
132.833164
  0
LINE
  8
1
 62
7
  6
CONTINUOUS
 10
218.100000
 20
149.157255
 11
218.100000
 21
132.833164
  0
LINE
  8
1
 62
7
  6
CONTINUOUS
 10
217.100000
 20
149.157255
 11
217.100000
 21
132.833164
  0
LINE
  8
1
 62
7
  6
CONTINUOUS
 10
216.100000
 20
149.157255
 11
216.100000
 21
132.833164
  0
LINE
  8
1
 62
7
  6
CONTINUOUS
 10
217.100000
 20
109.400005
 11
217.100000
 21
112.833164
  0
LINE
  8
1
 62
7
  6
CONTINUOUS
 10
217.100000
 20
102.833164
 11
217.100000
 21
108.049301
  0
LINE
  8
1
 62
7
  6
CONTINUOUS
 10
218.100000
 20
107.687599
 11
218.100000
 21
102.833164
  0
LINE
  8
1
 62
7
  6
CONTINUOUS
 10
219.100000
 20
102.833164
 11
219.100000
 21
107.325897
  0
LINE
  8
1
 62
7
  6
CONTINUOUS
 10
236.100000
 20
107.325897
 11
236.100000
 21
102.833164
  0
LINE
  8
1
 62
7
  6
CONTINUOUS
 10
237.100000
 20
102.833164
 11
237.100000
 21
107.687599
  0
LINE
  8
1
 62
7
  6
CONTINUOUS
 10
238.100000
 20
108.049301
 11
238.100000
 21
102.833164
  0
LINE
  8
1
 62
7
  6
CONTINUOUS
 10
238.100000
 20
109.400005
 11
238.100000
 21
112.833164
  0
LINE
  8
1
 62
7
  6
CONTINUOUS
 10
216.100000
 20
102.833164
 11
216.100000
 21
108.411003
  0
LINE
  8
1
 62
7
  6
CONTINUOUS
 10
239.100000
 20
112.833164
 11
239.100000
 21
109.761707
  0
LINE
  8
1
 62
7
  6
CONTINUOUS
 10
216.100000
 20
109.761707
 11
216.100000
 21
112.833164
  0
LINE
  8
1
 62
7
  6
CONTINUOUS
 10
239.100000
 20
108.411003
 11
239.100000
 21
102.833164
  0
LINE
  8
1
 62
7
  6
CONTINUOUS
 10
217.100000
 20
109.400005
 11
217.100000
 21
112.833164
  0
LINE
  8
1
 62
7
  6
CONTINUOUS
 10
217.100000
 20
102.833164
 11
217.100000
 21
108.049301
  0
LINE
  8
1
 62
7
  6
CONTINUOUS
 10
218.100000
 20
107.687599
 11
218.100000
 21
102.833164
  0
LINE
  8
1
 62
7
  6
CONTINUOUS
 10
219.100000
 20
102.833164
 11
219.100000
 21
107.325897
  0
LINE
  8
1
 62
7
  6
CONTINUOUS
 10
236.100000
 20
107.325897
 11
236.100000
 21
102.833164
  0
LINE
  8
1
 62
7
  6
CONTINUOUS
 10
237.100000
 20
102.833164
 11
237.100000
 21
107.687599
  0
LINE
  8
1
 62
7
  6
CONTINUOUS
 10
238.100000
 20
108.049301
 11
238.100000
 21
102.833164
  0
LINE
  8
1
 62
7
  6
CONTINUOUS
 10
238.100000
 20
109.400005
 11
238.100000
 21
112.833164
  0
LINE
  8
1
 62
7
  6
CONTINUOUS
 10
216.100000
 20
102.833164
 11
216.100000
 21
108.411003
  0
LINE
  8
1
 62
7
  6
CONTINUOUS
 10
239.100000
 20
112.833164
 11
239.100000
 21
109.761707
  0
LINE
  8
1
 62
7
  6
CONTINUOUS
 10
216.100000
 20
109.761707
 11
216.100000
 21
112.833164
  0
LINE
  8
1
 62
7
  6
CONTINUOUS
 10
239.100000
 20
108.411003
 11
239.100000
 21
102.833164
  0
LINE
  8
1
 62
7
  6
CONTINUOUS
 10
239.100000
 20
132.833164
 11
239.100000
 21
116.509073
  0
LINE
  8
1
 62
7
  6
CONTINUOUS
 10
238.100000
 20
132.833164
 11
238.100000
 21
116.509073
  0
LINE
  8
1
 62
7
  6
CONTINUOUS
 10
237.100000
 20
132.833164
 11
237.100000
 21
116.509073
  0
LINE
  8
1
 62
7
  6
CONTINUOUS
 10
236.100000
 20
132.833164
 11
236.100000
 21
116.509073
  0
LINE
  8
1
 62
7
  6
CONTINUOUS
 10
235.100000
 20
132.833164
 11
235.100000
 21
116.509073
  0
LINE
  8
1
 62
7
  6
CONTINUOUS
 10
220.100000
 20
132.833164
 11
220.100000
 21
116.509073
  0
LINE
  8
1
 62
7
  6
CONTINUOUS
 10
219.100000
 20
132.833164
 11
219.100000
 21
116.509073
  0
LINE
  8
1
 62
7
  6
CONTINUOUS
 10
218.100000
 20
132.833164
 11
218.100000
 21
116.509073
  0
LINE
  8
1
 62
7
  6
CONTINUOUS
 10
217.100000
 20
132.833164
 11
217.100000
 21
116.509073
  0
LINE
  8
1
 62
7
  6
CONTINUOUS
 10
216.100000
 20
132.833164
 11
216.100000
 21
116.509073
  0
LINE
  8
1
 62
7
  6
CONTINUOUS
 10
215.000000
 20
162.833164
 11
215.000000
 21
163.333164
  0
LINE
  8
1
 62
7
  6
CONTINUOUS
 10
259.800000
 20
163.333164
 11
259.800000
 21
102.333164
  0
LINE
  8
1
 62
7
  6
CONTINUOUS
 10
66.432642
 20
98.833164
 11
53.932642
 21
98.833164
  0
LINE
  8
1
 62
7
  6
CONTINUOUS
 10
78.932642
 20
98.833164
 11
66.432642
 21
98.833164
  0
LINE
  8
1
 62
7
  6
CONTINUOUS
 10
79.932642
 20
100.333164
 11
79.932642
 21
99.833164
  0
LINE
  8
1
 62
7
  6
CONTINUOUS
 10
52.932642
 20
99.833164
 11
52.932642
 21
100.333164
  0
LINE
  8
1
 62
7
  6
CONTINUOUS
 10
50.432642
 20
102.841133
 11
50.432642
 21
109.914962
  0
LINE
  8
1
 62
7
  6
CONTINUOUS
 10
54.225964
 20
106.333164
 11
46.997685
 21
106.333164
  0
LINE
  8
1
 62
7
  6
CONTINUOUS
 10
92.932642
 20
120.626485
 11
92.932642
 21
113.398206
  0
LINE
  8
1
 62
7
  6
CONTINUOUS
 10
96.424673
 20
116.833164
 11
89.350844
 21
116.833164
  0
LINE
  8
1
 62
7
  6
CONTINUOUS
 10
78.639321
 20
159.333164
 11
85.867600
 21
159.333164
  0
LINE
  8
1
 62
7
  6
CONTINUOUS
 10
82.432642
 20
162.825195
 11
82.432642
 21
155.751366
  0
LINE
  8
1
 62
7
  6
CONTINUOUS
 10
36.440612
 20
148.833164
 11
43.514440
 21
148.833164
  0
LINE
  8
1
 62
7
  6
CONTINUOUS
 10
39.932642
 20
145.039843
 11
39.932642
 21
152.268122
  0
LINE
  8
1
 62
7
  6
CONTINUOUS
 10
70.932642
 20
97.833164
 11
70.932642
 21
98.833164
  0
LINE
  8
1
 62
7
  6
CONTINUOUS
 10
61.932642
 20
97.833164
 11
70.932642
 21
97.833164
  0
LINE
  8
1
 62
7
  6
CONTINUOUS
 10
61.932642
 20
98.833164
 11
61.932642
 21
97.833164
  0
LINE
  8
1
 62
7
  6
CONTINUOUS
 10
241.200000
 20
102.333164
 11
241.200000
 21
98.833164
  0
LINE
  8
1
 62
7
  6
CONTINUOUS
 10
241.200000
 20
98.833164
 11
260.800000
 21
98.833164
  0
LINE
  8
1
 62
7
  6
CONTINUOUS
 10
259.800000
 20
102.333164
 11
259.800000
 21
98.833164
  0
LINE
  8
1
 62
7
  6
CONTINUOUS
 10
260.800000
 20
102.333164
 11
260.800000
 21
98.833164
  0
LINE
  8
1
 62
7
  6
CONTINUOUS
 10
252.550000
 20
97.833164
 11
252.550000
 21
75.100733
  0
LINE
  8
1
 62
7
  6
CONTINUOUS
 10
253.501245
 20
75.371239
 11
253.501245
 21
97.833164
  0
LINE
  8
1
 62
7
  6
CONTINUOUS
 10
254.550000
 20
97.833164
 11
254.550000
 21
75.703443
  0
LINE
  8
1
 62
7
  6
CONTINUOUS
 10
255.550000
 20
75.906925
 11
255.550000
 21
97.833164
  0
LINE
  8
1
 62
7
  6
CONTINUOUS
 10
256.550000
 20
97.833164
 11
256.550000
 21
75.896344
  0
LINE
  8
1
 62
7
  6
CONTINUOUS
 10
64.432642
 20
97.833164
 11
64.432642
 21
88.821607
  0
LINE
  8
1
 62
7
  6
CONTINUOUS
 10
65.383888
 20
89.092113
 11
65.383888
 21
97.833164
  0
LINE
  8
1
 62
7
  6
CONTINUOUS
 10
66.432642
 20
97.833164
 11
66.432642
 21
89.424317
  0
LINE
  8
1
 62
7
  6
CONTINUOUS
 10
67.432642
 20
89.627799
 11
67.432642
 21
97.833164
  0
LINE
  8
1
 62
7
  6
CONTINUOUS
 10
68.432642
 20
97.833164
 11
68.432642
 21
89.617218
  0
ARC
  8
1
 62
7
  6
CONTINUOUS
 10
66.432642
 20
132.833164
 40
35.000000
 50
-144.407625
 51
-123.051772
  0
ARC
  8
1
 62
7
  6
CONTINUOUS
 10
66.432642
 20
132.833164
 40
35.000000
 50
-54.407625
 51
-33.051772
  0
ARC
  8
1
 62
7
  6
CONTINUOUS
 10
66.432642
 20
132.833164
 40
35.000000
 50
35.592375
 51
56.948228
  0
ARC
  8
1
 62
7
  6
CONTINUOUS
 10
66.432642
 20
132.833164
 40
35.000000
 50
125.592375
 51
146.948228
  0
ARC
  8
1
 62
7
  6
CONTINUOUS
 10
66.432642
 20
132.833164
 40
24.000000
 50
90.000000
 51
-90.000000
  0
ARC
  8
1
 62
7
  6
CONTINUOUS
 10
66.432642
 20
132.833164
 40
27.000000
 50
90.000000
 51
-90.000000
  0
ARC
  8
1
 62
7
  6
CONTINUOUS
 10
66.432642
 20
132.833164
 40
24.000000
 50
-90.000000
 51
90.000000
  0
ARC
  8
1
 62
7
  6
CONTINUOUS
 10
66.432642
 20
132.833164
 40
27.000000
 50
-90.000000
 51
90.000000
  0
CIRCLE
  8
1
 62
7
  6
CONTINUOUS
 10
41.683905
 20
157.581901
 40
2.250000
  0
CIRCLE
  8
1
 62
7
  6
CONTINUOUS
 10
41.683905
 20
108.084427
 40
2.250000
  0
CIRCLE
  8
1
 62
7
  6
CONTINUOUS
 10
91.181380
 20
108.084427
 40
2.250000
  0
CIRCLE
  8
1
 62
7
  6
CONTINUOUS
 10
91.181380
 20
157.581901
 40
2.250000
  0
CIRCLE
  8
1
 62
7
  6
DIVIDE
 10
66.432642
 20
132.833164
 40
35.000000
  0
CIRCLE
  8
1
 62
7
  6
CONTINUOUS
 10
66.432642
 20
132.833164
 40
6.000000
  0
CIRCLE
  8
1
 62
7
  6
CONTINUOUS
 10
66.432642
 20
132.833164
 40
4.000000
  0
CIRCLE
  8
1
 62
7
  6
CONTINUOUS
 10
50.432642
 20
106.333164
 40
3.200000
  0
CIRCLE
  8
1
 62
7
  6
CONTINUOUS
 10
92.932642
 20
116.833164
 40
3.200000
  0
CIRCLE
  8
1
 62
7
  6
CONTINUOUS
 10
82.432642
 20
159.333164
 40
3.200000
  0
CIRCLE
  8
1
 62
7
  6
CONTINUOUS
 10
39.932642
 20
148.833164
 40
3.200000
  0
ARC
  8
1
 62
7
  6
CONTINUOUS
 10
867.416359
 20
-47.552213
 40
621.327364
 50
171.172221
 51
171.239684
  0
ARC
  8
1
 62
7
  6
CONTINUOUS
 10
458.398058
 20
15.477116
 40
207.481177
 50
171.239684
 51
171.441865
  0
ARC
  8
1
 62
7
  6
CONTINUOUS
 10
376.929336
 20
27.737219
 40
125.095117
 50
171.441865
 51
171.777723
  0
ARC
  8
1
 62
7
  6
CONTINUOUS
 10
342.172937
 20
32.759488
 40
89.977736
 50
171.777723
 51
172.245769
  0
ARC
  8
1
 62
7
  6
CONTINUOUS
 10
323.040586
 20
35.364725
 40
70.668823
 50
172.245769
 51
172.843625
  0
ARC
  8
1
 62
7
  6
CONTINUOUS
 10
291.476547
 20
39.327777
 40
38.856965
 50
172.843625
 51
173.552653
  0
ARC
  8
1
 62
7
  6
CONTINUOUS
 10
268.916490
 20
41.877172
 40
16.153317
 50
173.552653
 51
175.256800
  0
ARC
  8
1
 62
7
  6
CONTINUOUS
 10
264.759774
 20
42.222071
 40
11.982317
 50
175.256800
 51
177.546000
  0
ARC
  8
1
 62
7
  6
CONTINUOUS
 10
260.980740
 20
42.384028
 40
8.199814
 50
177.546000
 51
-179.124810
  0
ARC
  8
1
 62
7
  6
CONTINUOUS
 10
259.556170
 20
42.362266
 40
6.775078
 50
-179.124810
 51
-169.520689
  0
ARC
  8
1
 62
7
  6
CONTINUOUS
 10
267.834613
 20
43.893493
 40
15.193943
 50
-169.520689
 51
-167.014432
  0
ARC
  8
1
 62
7
  6
CONTINUOUS
 10
284.953380
 20
47.841130
 40
32.761983
 50
-167.014432
 51
-165.846663
  0
ARC
  8
1
 62
7
  6
CONTINUOUS
 10
226.260033
 20
33.142253
 40
27.744030
 50
12.569751
 51
13.949143
  0
ARC
  8
1
 62
7
  6
CONTINUOUS
 10
242.835920
 20
36.837552
 40
10.761237
 50
9.029014
 51
12.573200
  0
ARC
  8
1
 62
7
  6
CONTINUOUS
 10
244.521931
 20
37.145044
 40
9.047945
 50
5.077995
 51
8.781483
  0
ARC
  8
1
 62
7
  6
CONTINUOUS
 10
242.100084
 20
36.930080
 40
11.479314
 50
2.155181
 51
5.076790
  0
ARC
  8
1
 62
7
  6
CONTINUOUS
 10
237.864154
 20
36.770534
 40
15.718248
 50
0.017078
 51
2.155677
  0
ARC
  8
1
 62
7
  6
CONTINUOUS
 10
228.925252
 20
36.767459
 40
24.657150
 50
-1.347883
 51
0.018032
  0
ARC
  8
1
 62
7
  6
CONTINUOUS
 10
197.737278
 20
37.500723
 40
55.853742
 50
-1.950485
 51
-1.347300
  0
ARC
  8
1
 62
7
  6
CONTINUOUS
 10
86.654662
 20
41.110436
 40
166.994949
 50
-2.104785
 51
-1.891072
  0
ARC
  8
1
 62
7
  6
CONTINUOUS
 10
40.037910
 20
42.823841
 40
213.643178
 50
-2.271598
 51
-2.104825
  0
ARC
  8
1
 62
7
  6
CONTINUOUS
 10
-44.244961
 20
46.167298
 40
297.992340
 50
-2.391046
 51
-2.271627
  0
ARC
  8
1
 62
7
  6
CONTINUOUS
 10
-241.511089
 20
54.404487
 40
495.430371
 50
-2.462835
 51
-2.391066
  0
ARC
  8
1
 62
7
  6
CONTINUOUS
 10
-1229.629886
 20
96.904789
 40
1484.462743
 50
-2.486787
 51
-2.462845
  0
ARC
  8
1
 62
7
  6
CONTINUOUS
 10
23.343149
 20
65.458272
 40
231.804611
 50
-4.187764
 51
-4.115601
  0
ARC
  8
1
 62
7
  6
CONTINUOUS
 10
177.534223
 20
54.168265
 40
77.200758
 50
-4.404358
 51
-4.187743
  0
ARC
  8
1
 62
7
  6
CONTINUOUS
 10
208.401318
 20
51.790778
 40
46.242236
 50
-4.765751
 51
-4.404319
  0
ARC
  8
1
 62
7
  6
CONTINUOUS
 10
221.646394
 20
50.686500
 40
32.951207
 50
-5.272511
 51
-4.765697
  0
ARC
  8
1
 62
7
  6
CONTINUOUS
 10
229.012453
 20
50.006709
 40
25.553846
 50
-5.925340
 51
-5.272451
  0
ARC
  8
1
 62
7
  6
CONTINUOUS
 10
228.137530
 20
50.120233
 40
26.435824
 50
-7.424746
 51
-5.974316
  0
ARC
  8
1
 62
7
  6
CONTINUOUS
 10
216.411543
 20
51.648740
 40
38.261013
 50
-8.427308
 51
-7.425365
  0
ARC
  8
1
 62
7
  6
CONTINUOUS
 10
185.099006
 20
56.287978
 40
69.915358
 50
-8.976641
 51
-8.427433
  0
ARC
  8
1
 62
7
  6
CONTINUOUS
 10
-137.003516
 20
107.167704
 40
396.011634
 50
-9.073666
 51
-8.976398
  0
ARC
  8
1
 62
7
  6
CONTINUOUS
 10
363.248851
 20
27.277134
 40
110.579852
 50
170.926882
 51
171.276794
  0
ARC
  8
1
 62
7
  6
CONTINUOUS
 10
287.639669
 20
38.878308
 40
34.085829
 50
171.276794
 51
172.067324
  0
ARC
  8
1
 62
7
  6
CONTINUOUS
 10
267.663711
 20
41.661814
 40
13.916872
 50
172.067324
 51
174.001674
  0
ARC
  8
1
 62
7
  6
CONTINUOUS
 10
263.450911
 20
42.104473
 40
9.680880
 50
174.001674
 51
176.768979
  0
ARC
  8
1
 62
7
  6
CONTINUOUS
 10
260.450708
 20
42.273839
 40
6.675901
 50
176.768979
 51
-179.244415
  0
ARC
  8
1
 62
7
  6
CONTINUOUS
 10
259.159445
 20
42.256810
 40
5.384525
 50
-179.244415
 51
-167.318116
  0
ARC
  8
1
 62
7
  6
CONTINUOUS
 10
267.769317
 20
44.194268
 40
14.209696
 50
-167.318116
 51
-164.640078
  0
ARC
  8
1
 62
7
  6
CONTINUOUS
 10
286.832872
 20
49.430902
 40
33.979408
 50
-164.640078
 51
-163.513936
  0
ARC
  8
1
 62
7
  6
CONTINUOUS
 10
238.863504
 20
35.328930
 40
16.020026
 50
13.779126
 51
16.161937
  0
ARC
  8
1
 62
7
  6
CONTINUOUS
 10
247.514010
 20
37.449251
 40
7.113455
 50
8.463385
 51
13.787778
  0
ARC
  8
1
 62
7
  6
CONTINUOUS
 10
248.264403
 20
37.604140
 40
6.348581
 50
2.720797
 51
8.077461
  0
ARC
  8
1
 62
7
  6
CONTINUOUS
 10
245.460789
 20
37.471264
 40
9.155342
 50
-1.010648
 51
2.718553
  0
ARC
  8
1
 62
7
  6
CONTINUOUS
 10
238.404750
 20
37.594809
 40
16.212463
 50
-3.126034
 51
-1.007362
  0
ARC
  8
1
 62
7
  6
CONTINUOUS
 10
191.834667
 20
40.135159
 40
62.851781
 50
-3.671905
 51
-3.123286
  0
ARC
  8
1
 62
7
  6
CONTINUOUS
 10
288.753578
 20
33.915219
 40
34.266513
 50
176.327765
 51
177.333833
  0
ARC
  8
1
 62
7
  6
CONTINUOUS
 10
272.292283
 20
34.681772
 40
17.787379
 50
177.333833
 51
179.282890
  0
ARC
  8
1
 62
7
  6
CONTINUOUS
 10
290.597201
 20
34.452657
 40
36.093732
 50
179.282890
 51
-179.759197
  0
ARC
  8
1
 62
7
  6
CONTINUOUS
 10
282.533741
 20
34.418767
 40
28.030200
 50
-179.759197
 51
-178.527666
  0
ARC
  8
1
 62
7
  6
CONTINUOUS
 10
403.370291
 20
37.524596
 40
148.906657
 50
-178.527666
 51
-178.296046
  0
ARC
  8
1
 62
7
  6
CONTINUOUS
 10
323.338540
 20
35.143781
 40
68.839501
 50
-178.296046
 51
-177.795210
  0
ARC
  8
1
 62
7
  6
CONTINUOUS
 10
1723.995629
 20
-42.538427
 40
1482.345891
 50
177.063695
 51
177.098544
  0
ARC
  8
1
 62
7
  6
CONTINUOUS
 10
737.613474
 20
8.056059
 40
494.667017
 50
176.959214
 51
177.063682
  0
ARC
  8
1
 62
7
  6
CONTINUOUS
 10
540.691066
 20
18.516759
 40
297.466964
 50
176.785334
 51
176.959188
  0
ARC
  8
1
 62
7
  6
CONTINUOUS
 10
456.555867
 20
23.242103
 40
213.199173
 50
176.542449
 51
176.785294
  0
ARC
  8
1
 62
7
  6
CONTINUOUS
 10
410.024876
 20
26.053303
 40
166.583339
 50
176.231118
 51
176.542395
  0
ARC
  8
1
 62
7
  6
CONTINUOUS
 10
312.102452
 20
32.552773
 40
68.445485
 50
175.760256
 51
176.271951
  0
ARC
  8
1
 62
7
  6
CONTINUOUS
 10
276.429519
 20
35.197523
 40
32.674647
 50
174.689173
 51
175.760630
  0
ARC
  8
1
 62
7
  6
CONTINUOUS
 10
265.146085
 20
36.246643
 40
21.342545
 50
173.052230
 51
174.689805
  0
ARC
  8
1
 62
7
  6
CONTINUOUS
 10
259.611958
 20
36.921180
 40
15.767461
 50
170.841306
 51
173.052779
  0
ARC
  8
1
 62
7
  6
CONTINUOUS
 10
256.361573
 20
37.445214
 40
12.475103
 50
168.051521
 51
170.841265
  0
ARC
  8
1
 62
7
  6
CONTINUOUS
 10
255.841169
 20
37.535008
 40
11.947401
 50
163.048636
 51
167.956126
  0
ARC
  8
1
 62
7
  6
CONTINUOUS
 10
257.369698
 20
37.068911
 40
13.545415
 50
158.705822
 51
163.047840
  0
ARC
  8
1
 62
7
  6
CONTINUOUS
 10
259.286460
 20
36.322228
 40
15.602478
 50
154.919922
 51
158.707214
  0
ARC
  8
1
 62
7
  6
CONTINUOUS
 10
261.638113
 20
35.222516
 40
18.198560
 50
151.661493
 51
154.922449
  0
ARC
  8
1
 62
7
  6
CONTINUOUS
 10
264.518358
 20
33.670390
 40
21.470395
 50
148.894160
 51
151.664368
  0
ARC
  8
1
 62
7
  6
CONTINUOUS
 10
276.204324
 20
26.553370
 40
35.152932
 50
147.228127
 51
148.802096
  0
ARC
  8
1
 62
7
  6
CONTINUOUS
 10
-11882.915276
 20
7854.308277
 40
14425.757700
 50
-32.772482
 51
-32.768658
  0
ARC
  8
1
 62
7
  6
CONTINUOUS
 10
218.273991
 20
64.989563
 40
34.362087
 50
-32.768658
 51
-31.172205
  0
ARC
  8
1
 62
7
  6
CONTINUOUS
 10
233.292680
 20
55.903876
 40
16.809004
 50
-31.172205
 51
-27.932446
  0
ARC
  8
1
 62
7
  6
CONTINUOUS
 10
238.389764
 20
53.201413
 40
11.039812
 50
-27.932446
 51
-23.026083
  0
ARC
  8
1
 62
7
  6
CONTINUOUS
 10
239.757442
 20
52.620133
 40
9.553734
 50
-23.026083
 51
-18.572368
  0
ARC
  8
1
 62
7
  6
CONTINUOUS
 10
233.629523
 20
54.679116
 40
16.018315
 50
-18.572368
 51
-15.901927
  0
ARC
  8
1
 62
7
  6
CONTINUOUS
 10
233.151665
 20
54.815255
 40
16.515187
 50
-15.901927
 51
-13.294750
  0
ARC
  8
1
 62
7
  6
CONTINUOUS
 10
200.697620
 20
62.483926
 40
49.862954
 50
-13.294750
 51
-12.426510
  0
ARC
  8
1
 62
7
  6
CONTINUOUS
 10
199.754310
 20
62.691784
 40
50.828893
 50
-12.426510
 51
-11.572135
  0
ARC
  8
1
 62
7
  6
CONTINUOUS
 10
1724.995630
 20
-42.538427
 40
1482.345892
 50
177.063695
 51
177.098544
  0
ARC
  8
1
 62
7
  6
CONTINUOUS
 10
738.613474
 20
8.056059
 40
494.667017
 50
176.959214
 51
177.063682
  0
ARC
  8
1
 62
7
  6
CONTINUOUS
 10
541.691066
 20
18.516759
 40
297.466964
 50
176.785334
 51
176.959188
  0
ARC
  8
1
 62
7
  6
CONTINUOUS
 10
457.555867
 20
23.242103
 40
213.199173
 50
176.542449
 51
176.785294
  0
ARC
  8
1
 62
7
  6
CONTINUOUS
 10
411.024876
 20
26.053303
 40
166.583339
 50
176.231118
 51
176.542395
  0
ARC
  8
1
 62
7
  6
CONTINUOUS
 10
313.102452
 20
32.552773
 40
68.445485
 50
175.760256
 51
176.271951
  0
ARC
  8
1
 62
7
  6
CONTINUOUS
 10
277.429519
 20
35.197523
 40
32.674647
 50
174.689173
 51
175.760630
  0
ARC
  8
1
 62
7
  6
CONTINUOUS
 10
266.146085
 20
36.246643
 40
21.342545
 50
173.052230
 51
174.689805
  0
ARC
  8
1
 62
7
  6
CONTINUOUS
 10
260.611958
 20
36.921180
 40
15.767461
 50
170.841306
 51
173.052779
  0
ARC
  8
1
 62
7
  6
CONTINUOUS
 10
257.361573
 20
37.445214
 40
12.475103
 50
168.051521
 51
170.841265
  0
ARC
  8
1
 62
7
  6
CONTINUOUS
 10
256.841169
 20
37.535008
 40
11.947401
 50
163.048636
 51
167.956126
  0
ARC
  8
1
 62
7
  6
CONTINUOUS
 10
258.369698
 20
37.068911
 40
13.545415
 50
158.705822
 51
163.047840
  0
ARC
  8
1
 62
7
  6
CONTINUOUS
 10
260.286460
 20
36.322228
 40
15.602478
 50
154.919922
 51
158.707214
  0
ARC
  8
1
 62
7
  6
CONTINUOUS
 10
262.638113
 20
35.222516
 40
18.198560
 50
151.661493
 51
154.922449
  0
ARC
  8
1
 62
7
  6
CONTINUOUS
 10
265.518358
 20
33.670390
 40
21.470395
 50
148.894160
 51
151.664368
  0
ARC
  8
1
 62
7
  6
CONTINUOUS
 10
277.204324
 20
26.553370
 40
35.152932
 50
147.228127
 51
148.802096
  0
ARC
  8
1
 62
7
  6
CONTINUOUS
 10
-11881.915276
 20
7854.308277
 40
14425.757700
 50
-32.772482
 51
-32.768658
  0
ARC
  8
1
 62
7
  6
CONTINUOUS
 10
219.273991
 20
64.989563
 40
34.362087
 50
-32.768658
 51
-31.172205
  0
ARC
  8
1
 62
7
  6
CONTINUOUS
 10
234.292680
 20
55.903876
 40
16.809004
 50
-31.172205
 51
-27.932446
  0
ARC
  8
1
 62
7
  6
CONTINUOUS
 10
239.389764
 20
53.201413
 40
11.039812
 50
-27.932446
 51
-23.026083
  0
ARC
  8
1
 62
7
  6
CONTINUOUS
 10
240.757442
 20
52.620133
 40
9.553734
 50
-23.026083
 51
-18.572368
  0
ARC
  8
1
 62
7
  6
CONTINUOUS
 10
234.629523
 20
54.679116
 40
16.018315
 50
-18.572368
 51
-15.901927
  0
ARC
  8
1
 62
7
  6
CONTINUOUS
 10
234.151665
 20
54.815255
 40
16.515187
 50
-15.901927
 51
-13.294750
  0
ARC
  8
1
 62
7
  6
CONTINUOUS
 10
201.697620
 20
62.483926
 40
49.862954
 50
-13.294750
 51
-12.426510
  0
ARC
  8
1
 62
7
  6
CONTINUOUS
 10
200.754310
 20
62.691784
 40
50.828893
 50
-12.426510
 51
-11.572135
  0
ARC
  8
1
 62
7
  6
CONTINUOUS
 10
393.634373
 20
38.803808
 40
147.719135
 50
-177.838940
 51
-177.552428
  0
ARC
  8
1
 62
7
  6
CONTINUOUS
 10
295.017777
 20
35.082797
 40
49.032363
 50
-178.700507
 51
-177.838546
  0
ARC
  8
1
 62
7
  6
CONTINUOUS
 10
275.188696
 20
34.633315
 40
29.198188
 50
179.856274
 51
-178.699865
  0
ARC
  8
1
 62
7
  6
CONTINUOUS
 10
266.658264
 20
34.654925
 40
20.667728
 50
177.823178
 51
179.856858
  0
ARC
  8
1
 62
7
  6
CONTINUOUS
 10
261.944154
 20
34.834125
 40
15.950214
 50
175.194835
 51
177.823221
  0
ARC
  8
1
 62
7
  6
CONTINUOUS
 10
262.451524
 20
34.758022
 40
16.462209
 50
172.434643
 51
175.078818
  0
ARC
  8
1
 62
7
  6
CONTINUOUS
 10
269.573592
 20
33.811857
 40
23.646851
 50
170.589820
 51
172.434016
  0
ARC
  8
1
 62
7
  6
CONTINUOUS
 10
287.579300
 20
30.828058
 40
41.898114
 50
169.545960
 51
170.590244
  0
ARC
  8
1
 62
7
  6
CONTINUOUS
 10
417.874399
 20
6.789634
 40
174.392109
 50
169.294868
 51
169.546688
  0
ARC
  8
1
 62
7
  6
CONTINUOUS
 10
165.103932
 20
54.573521
 40
82.855260
 50
-10.704428
 51
-10.172482
  0
ARC
  8
1
 62
7
  6
CONTINUOUS
 10
173.895058
 20
52.996106
 40
73.923735
 50
-10.172482
 51
-9.529745
  0
ARC
  8
1
 62
7
  6
CONTINUOUS
 10
287.403749
 20
33.807409
 40
41.195594
 50
169.135296
 51
170.287453
  0
ARC
  8
1
 62
7
  6
CONTINUOUS
 10
264.722688
 20
38.161772
 40
18.100335
 50
166.530446
 51
169.138926
  0
ARC
  8
1
 62
7
  6
CONTINUOUS
 10
258.209997
 20
39.722341
 40
11.403282
 50
162.422347
 51
166.533724
  0
ARC
  8
1
 62
7
  6
CONTINUOUS
 10
255.188593
 20
40.680646
 40
8.233546
 50
151.358001
 51
162.430010
  0
ARC
  8
1
 62
7
  6
CONTINUOUS
 10
263.843884
 20
36.052469
 40
18.048362
 50
149.152229
 51
151.634037
  0
ARC
  8
1
 62
7
  6
CONTINUOUS
 10
446.917029
 20
-73.269317
 40
231.278354
 50
148.961901
 51
149.156205
  0
ARC
  8
1
 62
7
  6
CONTINUOUS
 10
230.389937
 20
57.030860
 40
21.431199
 50
-31.041615
 51
-28.951852
  0
ARC
  8
1
 62
7
  6
CONTINUOUS
 10
240.371537
 20
51.508929
 40
10.024004
 50
-28.951852
 51
-24.519945
  0
ARC
  8
1
 62
7
  6
CONTINUOUS
 10
242.320048
 20
50.620122
 40
7.882353
 50
-24.519945
 51
-16.963984
  0
ARC
  8
1
 62
7
  6
CONTINUOUS
 10
237.572576
 20
52.068307
 40
12.845792
 50
-16.963984
 51
-12.306688
  0
ARC
  8
1
 62
7
  6
CONTINUOUS
 10
236.538333
 20
52.293935
 40
13.904361
 50
-12.306688
 51
-7.956566
  0
ARC
  8
1
 62
7
  6
CONTINUOUS
 10
210.569127
 20
55.923596
 40
40.125995
 50
-7.956566
 51
-6.433441
  0
ARC
  8
1
 62
7
  6
CONTINUOUS
 10
205.626252
 20
56.480950
 40
45.100193
 50
-6.433441
 51
-5.069859
  0
ARC
  8
1
 62
7
  6
CONTINUOUS
 10
406.960964
 20
38.791804
 40
160.034873
 50
-178.009390
 51
-177.745187
  0
ARC
  8
1
 62
7
  6
CONTINUOUS
 10
300.153561
 20
35.079805
 40
53.162986
 50
-178.803515
 51
-178.009096
  0
ARC
  8
1
 62
7
  6
CONTINUOUS
 10
278.699878
 20
34.631992
 40
31.704630
 50
179.867545
 51
-178.803043
  0
ARC
  8
1
 62
7
  6
CONTINUOUS
 10
269.479225
 20
34.653469
 40
22.483953
 50
177.997817
 51
179.867956
  0
ARC
  8
1
 62
7
  6
CONTINUOUS
 10
264.382207
 20
34.831648
 40
17.383821
 50
175.583739
 51
177.997792
  0
ARC
  8
1
 62
7
  6
CONTINUOUS
 10
264.319211
 20
34.808805
 40
17.322793
 50
172.976237
 51
175.492366
  0
ARC
  8
1
 62
7
  6
CONTINUOUS
 10
269.214639
 20
34.205465
 40
22.255260
 50
171.014240
 51
172.975734
  0
ARC
  8
1
 62
7
  6
CONTINUOUS
 10
277.983782
 20
32.818903
 40
31.133347
 50
169.608501
 51
171.014423
  0
ARC
  8
1
 62
7
  6
CONTINUOUS
 10
297.887274
 20
29.169391
 40
51.368660
 50
168.754309
 51
169.608951
  0
ARC
  8
1
 62
7
  6
CONTINUOUS
 10
387.267495
 20
11.398666
 40
142.498363
 50
168.445827
 51
168.754750
  0
ARC
  8
1
 62
7
  6
CONTINUOUS
 10
331.004878
 20
23.101284
 40
85.032123
 50
168.014538
 51
168.578156
  0
ARC
  8
1
 62
7
  6
CONTINUOUS
 10
276.819065
 20
34.605120
 40
29.638617
 50
166.400785
 51
168.015778
  0
ARC
  8
1
 62
7
  6
CONTINUOUS
 10
265.253676
 20
37.403592
 40
17.739471
 50
163.714828
 51
166.402912
  0
ARC
  8
1
 62
7
  6
CONTINUOUS
 10
260.271135
 20
38.859431
 40
12.548596
 50
159.931969
 51
163.715889
  0
ARC
  8
1
 62
7
  6
CONTINUOUS
 10
257.676694
 20
39.805274
 40
9.787122
 50
150.513206
 51
159.921261
  0
ARC
  8
1
 62
7
  6
CONTINUOUS
 10
271.376987
 20
32.220875
 40
25.446414
 50
149.068338
 51
150.832068
  0
ARC
  8
1
 62
7
  6
CONTINUOUS
 10
148.639124
 20
105.767364
 40
117.639816
 50
-30.930510
 51
-30.548955
  0
ARC
  8
1
 62
7
  6
CONTINUOUS
 10
234.835479
 20
54.894579
 40
17.550596
 50
-30.548955
 51
-28.006685
  0
ARC
  8
1
 62
7
  6
CONTINUOUS
 10
242.203570
 20
50.975792
 40
9.205199
 50
-28.006685
 51
-23.204141
  0
ARC
  8
1
 62
7
  6
CONTINUOUS
 10
243.763413
 20
50.307109
 40
7.508070
 50
-23.204141
 51
-15.346467
  0
ARC
  8
1
 62
7
  6
CONTINUOUS
 10
239.294838
 20
51.533469
 40
12.141872
 50
-15.346467
 51
-10.455803
  0
ARC
  8
1
 62
7
  6
CONTINUOUS
 10
238.002619
 20
51.771937
 40
13.455910
 50
-10.455803
 51
-5.984642
  0
ARC
  8
1
 62
7
  6
CONTINUOUS
 10
213.766397
 20
54.312698
 40
37.824947
 50
-5.984642
 51
-4.374832
  0
ARC
  8
1
 62
7
  6
CONTINUOUS
 10
206.895048
 20
54.838384
 40
44.716375
 50
-4.374832
 51
-3.003435
  0
ARC
  8
1
 62
7
  6
CONTINUOUS
 10
-5.119537
 20
41.168717
 40
253.817769
 50
-1.958253
 51
-1.816216
  0
ARC
  8
1
 62
7
  6
CONTINUOUS
 10
163.968922
 20
35.806995
 40
84.644322
 50
-1.816216
 51
-1.390213
  0
ARC
  8
1
 62
7
  6
CONTINUOUS
 10
197.745235
 20
34.987293
 40
50.858064
 50
-1.390213
 51
-0.680873
  0
ARC
  8
1
 62
7
  6
CONTINUOUS
 10
212.181964
 20
34.815727
 40
36.420316
 50
-0.680873
 51
0.310543
  0
ARC
  8
1
 62
7
  6
CONTINUOUS
 10
220.147565
 20
34.858901
 40
28.454598
 50
0.310543
 51
1.581436
  0
ARC
  8
1
 62
7
  6
CONTINUOUS
 10
215.631934
 20
34.734232
 40
32.971950
 50
1.581436
 51
2.866770
  0
ARC
  8
1
 62
7
  6
CONTINUOUS
 10
485.292201
 20
47.719923
 40
237.000873
 50
-177.437174
 51
-177.258282
  0
ARC
  8
1
 62
7
  6
CONTINUOUS
 10
278.739794
 20
38.475360
 40
30.241692
 50
-178.834715
 51
-177.435962
  0
ARC
  8
1
 62
7
  6
CONTINUOUS
 10
264.462759
 20
38.185495
 40
15.961715
 50
178.528064
 51
-178.832770
  0
ARC
  8
1
 62
7
  6
CONTINUOUS
 10
259.273124
 20
38.318885
 40
10.770366
 50
174.631580
 51
178.528268
  0
ARC
  8
1
 62
7
  6
CONTINUOUS
 10
259.216244
 20
38.292267
 40
10.716273
 50
171.957348
 51
174.461433
  0
ARC
  8
1
 62
7
  6
CONTINUOUS
 10
264.070116
 20
37.606341
 40
15.618371
 50
170.234775
 51
171.957081
  0
ARC
  8
1
 62
7
  6
CONTINUOUS
 10
276.877999
 20
35.402323
 40
28.614508
 50
169.291948
 51
170.235333
  0
ARC
  8
1
 62
7
  6
CONTINUOUS
 10
402.962455
 20
11.562104
 40
156.933042
 50
169.120035
 51
169.292679
  0
ARC
  8
1
 62
7
  6
CONTINUOUS
 10
203.586037
 20
49.883132
 40
46.092714
 50
-10.879328
 51
-10.289507
  0
ARC
  8
1
 62
7
  6
CONTINUOUS
 10
207.686646
 20
49.138700
 40
41.925080
 50
-10.289507
 51
-9.492156
  0
ARC
  8
1
 62
7
  6
CONTINUOUS
 10
278.154228
 20
37.256531
 40
29.537357
 50
169.186127
 51
170.316795
  0
ARC
  8
1
 62
7
  6
CONTINUOUS
 10
261.206050
 20
40.494660
 40
12.282613
 50
166.485223
 51
169.189967
  0
ARC
  8
1
 62
7
  6
CONTINUOUS
 10
256.677521
 20
41.583534
 40
7.625014
 50
162.161368
 51
166.488399
  0
ARC
  8
1
 62
7
  6
CONTINUOUS
 10
254.697409
 20
42.219672
 40
5.545227
 50
149.693560
 51
162.150754
  0
ARC
  8
1
 62
7
  6
CONTINUOUS
 10
263.677555
 20
37.118917
 40
15.872618
 50
147.854001
 51
150.155335
  0
ARC
  8
1
 62
7
  6
CONTINUOUS
 10
216.748323
 20
66.607881
 40
39.552572
 50
-32.143280
 51
-31.218859
  0
ARC
  8
1
 62
7
  6
CONTINUOUS
 10
243.188615
 20
50.583174
 40
8.635259
 50
-31.218859
 51
-27.024558
  0
ARC
  8
1
 62
7
  6
CONTINUOUS
 10
246.741045
 20
48.771203
 40
4.647403
 50
-27.024558
 51
-19.325906
  0
ARC
  8
1
 62
7
  6
CONTINUOUS
 10
247.611205
 20
48.466035
 40
3.725283
 50
-19.325906
 51
-12.556220
  0
ARC
  8
1
 62
7
  6
CONTINUOUS
 10
244.671147
 20
49.120857
 40
6.737381
 50
-12.556220
 51
-8.782416
  0
ARC
  8
1
 62
7
  6
CONTINUOUS
 10
245.046911
 20
49.062804
 40
6.357158
 50
-8.782416
 51
-4.741486
  0
ARC
  8
1
 62
7
  6
CONTINUOUS
 10
229.347431
 20
50.364981
 40
22.110549
 50
-4.741486
 51
-3.571290
  0
ARC
  8
1
 62
7
  6
CONTINUOUS
 10
234.926807
 20
50.016764
 40
16.520318
 50
-3.571290
 51
-2.002678
  0
ARC
  8
1
 62
7
  6
CONTINUOUS
 10
81.175633
 20
56.873956
 40
170.423639
 50
-2.500249
 51
-2.292652
  0
ARC
  8
1
 62
7
  6
CONTINUOUS
 10
37.038522
 20
58.641015
 40
214.596109
 50
-2.292652
 51
-2.128832
  0
ARC
  8
1
 62
7
  6
CONTINUOUS
 10
-45.142631
 20
61.695873
 40
296.834019
 50
-2.128832
 51
-2.010965
  0
ARC
  8
1
 62
7
  6
CONTINUOUS
 10
-236.422622
 20
68.412168
 40
488.231887
 50
-2.010965
 51
-1.939534
  0
ARC
  8
1
 62
7
  6
CONTINUOUS
 10
-1218.397861
 20
101.665956
 40
1470.770021
 50
-1.939534
 51
-1.915859
  0
ARC
  8
1
 62
7
  6
CONTINUOUS
 10
-27.070602
 20
41.474698
 40
276.766300
 50
-1.859202
 51
-1.728882
  0
ARC
  8
1
 62
7
  6
CONTINUOUS
 10
157.337793
 20
35.908544
 40
92.273920
 50
-1.728882
 51
-1.337966
  0
ARC
  8
1
 62
7
  6
CONTINUOUS
 10
194.198744
 20
35.047614
 40
55.402917
 50
-1.337966
 51
-0.686738
  0
ARC
  8
1
 62
7
  6
CONTINUOUS
 10
209.968801
 20
34.858587
 40
39.631726
 50
-0.686738
 51
0.224111
  0
ARC
  8
1
 62
7
  6
CONTINUOUS
 10
218.687840
 20
34.892692
 40
30.912621
 50
0.224111
 51
1.393009
  0
ARC
  8
1
 62
7
  6
CONTINUOUS
 10
214.127212
 20
34.781789
 40
35.474597
 50
1.393009
 51
2.585914
  0
ARC
  8
1
 62
7
  6
CONTINUOUS
 10
588.798938
 20
51.033520
 40
339.549493
 50
-177.651651
 51
-177.526978
  0
ARC
  8
1
 62
7
  6
CONTINUOUS
 10
284.159968
 20
38.540896
 40
34.654481
 50
-178.870625
 51
-177.650931
  0
ARC
  8
1
 62
7
  6
CONTINUOUS
 10
267.624982
 20
38.215276
 40
18.116289
 50
178.803706
 51
-178.869523
  0
ARC
  8
1
 62
7
  6
CONTINUOUS
 10
261.730539
 20
38.338312
 40
12.220563
 50
175.361577
 51
178.803454
  0
ARC
  8
1
 62
7
  6
CONTINUOUS
 10
260.933104
 20
38.377799
 40
11.422574
 50
172.879403
 51
175.235531
  0
ARC
  8
1
 62
7
  6
CONTINUOUS
 10
263.270680
 20
38.085773
 40
13.778321
 50
170.922632
 51
172.879355
  0
ARC
  8
1
 62
7
  6
CONTINUOUS
 10
266.772482
 20
37.526383
 40
17.324520
 50
169.363361
 51
170.922923
  0
ARC
  8
1
 62
7
  6
CONTINUOUS
 10
272.543258
 20
36.442760
 40
23.196155
 50
168.196726
 51
169.363768
  0
ARC
  8
1
 62
7
  6
CONTINUOUS
 10
283.880055
 20
34.073925
 40
34.777793
 50
167.417738
 51
168.197083
  0
ARC
  8
1
 62
7
  6
CONTINUOUS
 10
281.151112
 20
34.732441
 40
31.970973
 50
166.447510
 51
167.504164
  0
ARC
  8
1
 62
7
  6
CONTINUOUS
 10
269.228465
 20
37.606598
 40
19.706786
 50
164.735984
 51
166.448154
  0
ARC
  8
1
 62
7
  6
CONTINUOUS
 10
263.893649
 20
39.062573
 40
14.176855
 50
162.360904
 51
164.736513
  0
ARC
  8
1
 62
7
  6
CONTINUOUS
 10
260.920101
 20
40.008010
 40
11.056624
 50
159.318470
 51
162.360599
  0
ARC
  8
1
 62
7
  6
CONTINUOUS
 10
259.095062
 20
40.696607
 40
9.106000
 50
155.619082
 51
159.316378
  0
ARC
  8
1
 62
7
  6
CONTINUOUS
 10
261.332991
 20
39.628074
 40
11.585551
 50
152.314996
 51
155.374661
  0
ARC
  8
1
 62
7
  6
CONTINUOUS
 10
290.271182
 20
24.448292
 40
44.263444
 50
151.515784
 51
152.318949
  0
ARC
  8
1
 62
7
  6
CONTINUOUS
 10
229.706162
 20
57.311786
 40
24.643239
 50
-28.486201
 51
-27.047426
  0
ARC
  8
1
 62
7
  6
CONTINUOUS
 10
243.240547
 20
50.401555
 40
9.446829
 50
-27.047426
 51
-23.322686
  0
ARC
  8
1
 62
7
  6
CONTINUOUS
 10
246.667591
 20
48.924028
 40
5.714843
 50
-23.322686
 51
-17.209627
  0
ARC
  8
1
 62
7
  6
CONTINUOUS
 10
247.570141
 20
48.644476
 40
4.769991
 50
-17.209627
 51
-11.903147
  0
ARC
  8
1
 62
7
  6
CONTINUOUS
 10
244.413291
 20
49.309910
 40
7.996212
 50
-11.903147
 51
-8.718678
  0
ARC
  8
1
 62
7
  6
CONTINUOUS
 10
244.625332
 20
49.277392
 40
7.781692
 50
-8.718678
 51
-5.423328
  0
ARC
  8
1
 62
7
  6
CONTINUOUS
 10
231.756185
 20
50.499172
 40
20.708706
 50
-5.423328
 51
-4.179004
  0
ARC
  8
1
 62
7
  6
CONTINUOUS
 10
234.416778
 20
50.304770
 40
18.041021
 50
-4.179004
 51
-2.749220
  0
ARC
  8
1
 62
7
  6
CONTINUOUS
 10
185.805321
 20
53.037316
 40
66.728779
 50
-3.090767
 51
-2.562157
  0
ARC
  8
1
 62
7
  6
CONTINUOUS
 10
167.983821
 20
53.834791
 40
84.568113
 50
-2.562157
 51
-2.146879
  0
ARC
  8
1
 62
7
  6
CONTINUOUS
 10
135.131448
 20
55.066349
 40
117.443562
 50
-2.146879
 51
-1.848819
  0
ARC
  8
1
 62
7
  6
CONTINUOUS
 10
58.640906
 20
57.535402
 40
193.973943
 50
-1.848819
 51
-1.668744
  0
ARC
  8
1
 62
7
  6
CONTINUOUS
 10
-331.057899
 20
68.888623
 40
583.838091
 50
-1.668744
 51
-1.608980
  0
ARC
  8
1
 62
7
  6
CONTINUOUS
 10
-410.699140
 20
40.343948
 40
661.795681
 50
-0.679511
 51
-0.625006
  0
ARC
  8
1
 62
7
  6
CONTINUOUS
 10
30.433860
 20
35.531694
 40
220.636434
 50
-0.625006
 51
-0.461509
  0
ARC
  8
1
 62
7
  6
CONTINUOUS
 10
118.620860
 20
34.821345
 40
132.446573
 50
-0.461509
 51
-0.189103
  0
ARC
  8
1
 62
7
  6
CONTINUOUS
 10
156.389283
 20
34.696692
 40
94.677945
 50
-0.189103
 51
0.192072
  0
ARC
  8
1
 62
7
  6
CONTINUOUS
 10
177.339667
 20
34.766924
 40
73.727442
 50
0.192072
 51
0.681761
  0
ARC
  8
1
 62
7
  6
CONTINUOUS
 10
164.324098
 20
34.612045
 40
86.743933
 50
0.681761
 51
1.218362
  0
ARC
  8
1
 62
7
  6
CONTINUOUS
 10
645.995201
 20
44.479819
 40
395.028270
 50
-178.954038
 51
-178.836195
  0
ARC
  8
1
 62
7
  6
CONTINUOUS
 10
321.096305
 20
38.548156
 40
70.075231
 50
-179.617804
 51
-178.953892
  0
ARC
  8
1
 62
7
  6
CONTINUOUS
 10
289.350709
 20
38.336553
 40
38.328930
 50
179.169969
 51
-179.617561
  0
ARC
  8
1
 62
7
  6
CONTINUOUS
 10
277.345035
 20
38.510540
 40
26.321995
 50
177.406537
 51
179.170082
  0
ARC
  8
1
 62
7
  6
CONTINUOUS
 10
281.615984
 20
38.267552
 40
30.599605
 50
176.503775
 51
177.313883
  0
ARC
  8
1
 62
7
  6
CONTINUOUS
 10
349.749205
 20
34.104835
 40
98.859872
 50
176.252897
 51
176.503765
  0
ARC
  8
1
 62
7
  6
CONTINUOUS
 10
170.544366
 20
45.841239
 40
80.728874
 50
-3.746960
 51
-3.439442
  0
ARC
  8
1
 62
7
  6
CONTINUOUS
 10
222.399169
 20
42.724672
 40
28.780499
 50
-3.439442
 51
-2.575533
  0
ARC
  8
1
 62
7
  6
CONTINUOUS
 10
233.549181
 20
42.223124
 40
17.619213
 50
-2.575533
 51
-1.161023
  0
ARC
  8
1
 62
7
  6
CONTINUOUS
 10
232.462762
 20
42.245142
 40
18.705855
 50
-1.161023
 51
0.279610
  0
ARC
  8
1
 62
7
  6
CONTINUOUS
 10
350.855521
 20
42.540923
 40
99.687337
 50
179.847089
 51
-179.882466
  0
ARC
  8
1
 62
7
  6
CONTINUOUS
 10
267.276581
 20
42.764567
 40
16.108097
 50
178.181231
 51
179.849182
  0
ARC
  8
1
 62
7
  6
CONTINUOUS
 10
259.785114
 20
43.002953
 40
8.612838
 50
175.084053
 51
178.184560
  0
ARC
  8
1
 62
7
  6
CONTINUOUS
 10
257.000658
 20
43.242516
 40
5.818096
 50
170.520904
 51
175.084737
  0
ARC
  8
1
 62
7
  6
CONTINUOUS
 10
257.236241
 20
43.165459
 40
6.063267
 50
163.679113
 51
170.169314
  0
ARC
  8
1
 62
7
  6
CONTINUOUS
 10
261.512280
 20
41.914085
 40
10.518651
 50
159.910169
 51
163.682874
  0
ARC
  8
1
 62
7
  6
CONTINUOUS
 10
284.271329
 20
33.595395
 40
34.750343
 50
158.768515
 51
159.918467
  0
ARC
  8
1
 62
7
  6
CONTINUOUS
 10
225.671939
 20
56.361904
 40
28.116202
 50
-21.231961
 51
-19.811104
  0
ARC
  8
1
 62
7
  6
CONTINUOUS
 10
242.876967
 20
50.163947
 40
9.828838
 50
-19.811104
 51
-15.776019
  0
ARC
  8
1
 62
7
  6
CONTINUOUS
 10
245.317501
 20
49.474448
 40
7.292775
 50
-15.776019
 51
-7.969074
  0
ARC
  8
1
 62
7
  6
CONTINUOUS
 10
240.751213
 20
50.113685
 40
11.903590
 50
-7.969074
 51
-3.174754
  0
ARC
  8
1
 62
7
  6
CONTINUOUS
 10
239.926460
 20
50.159431
 40
12.729611
 50
-3.174754
 51
1.353136
  0
ARC
  8
1
 62
7
  6
CONTINUOUS
 10
215.332050
 20
49.578485
 40
37.330881
 50
1.353136
 51
2.912521
  0
ARC
  8
1
 62
7
  6
CONTINUOUS
 10
211.830693
 20
49.400347
 40
40.836767
 50
2.912521
 51
4.346709
  0
ARC
  8
1
 62
7
  6
CONTINUOUS
 10
-421.823646
 20
40.390157
 40
673.919889
 50
-0.671214
 51
-0.617688
  0
ARC
  8
1
 62
7
  6
CONTINUOUS
 10
27.396864
 20
35.547060
 40
224.673273
 50
-0.617688
 51
-0.457123
  0
ARC
  8
1
 62
7
  6
CONTINUOUS
 10
117.206026
 20
34.830520
 40
134.861253
 50
-0.457123
 51
-0.189592
  0
ARC
  8
1
 62
7
  6
CONTINUOUS
 10
155.671974
 20
34.703236
 40
96.395095
 50
-0.189592
 51
0.184785
  0
ARC
  8
1
 62
7
  6
CONTINUOUS
 10
177.012299
 20
34.772061
 40
75.054658
 50
0.184785
 51
0.665783
  0
ARC
  8
1
 62
7
  6
CONTINUOUS
 10
163.868303
 20
34.619319
 40
88.199542
 50
0.665783
 51
1.193465
  0
ARC
  8
1
 62
7
  6
CONTINUOUS
 10
662.727052
 20
44.628694
 40
410.759645
 50
-178.973306
 51
-178.859989
  0
ARC
  8
1
 62
7
  6
CONTINUOUS
 10
323.807556
 20
38.555039
 40
71.785732
 50
-179.621227
 51
-178.973177
  0
ARC
  8
1
 62
7
  6
CONTINUOUS
 10
291.243619
 20
38.339904
 40
39.221084
 50
179.194027
 51
-179.621018
  0
ARC
  8
1
 62
7
  6
CONTINUOUS
 10
278.956245
 20
38.512797
 40
26.932494
 50
177.470169
 51
179.194105
  0
ARC
  8
1
 62
7
  6
CONTINUOUS
 10
282.986124
 20
38.286549
 40
30.968470
 50
176.580370
 51
177.381085
  0
ARC
  8
1
 62
7
  6
CONTINUOUS
 10
343.183512
 20
34.689463
 40
91.273233
 50
176.308569
 51
176.580367
  0
ARC
  8
1
 62
7
  6
CONTINUOUS
 10
155.472264
 20
46.799825
 40
96.828265
 50
-3.691320
 51
-3.434899
  0
ARC
  8
1
 62
7
  6
CONTINUOUS
 10
220.439683
 20
42.900337
 40
31.743922
 50
-3.434899
 51
-2.651766
  0
ARC
  8
1
 62
7
  6
CONTINUOUS
 10
233.092689
 20
42.314311
 40
19.077353
 50
-2.651766
 51
-1.346198
  0
ARC
  8
1
 62
7
  6
CONTINUOUS
 10
232.181423
 20
42.335726
 40
19.988871
 50
-1.346198
 51
0.000312
  0
ARC
  8
1
 62
7
  6
CONTINUOUS
 10
375.972485
 20
42.013573
 40
123.802610
 50
179.633374
 51
179.850857
  0
ARC
  8
1
 62
7
  6
CONTINUOUS
 10
270.190582
 20
42.690942
 40
18.018538
 50
178.144762
 51
179.634901
  0
ARC
  8
1
 62
7
  6
CONTINUOUS
 10
261.757737
 20
42.964502
 40
9.581258
 50
175.358704
 51
178.147209
  0
ARC
  8
1
 62
7
  6
CONTINUOUS
 10
258.658112
 20
43.216198
 40
6.471430
 50
171.249722
 51
175.359207
  0
ARC
  8
1
 62
7
  6
CONTINUOUS
 10
258.909022
 20
43.140371
 40
6.731056
 50
165.132396
 51
170.936694
  0
ARC
  8
1
 62
7
  6
CONTINUOUS
 10
263.598265
 20
41.896044
 40
11.582587
 50
161.739070
 51
165.135003
  0
ARC
  8
1
 62
7
  6
CONTINUOUS
 10
288.199390
 20
33.782737
 40
37.487048
 50
160.689837
 51
161.745066
  0
ARC
  8
1
 62
7
  6
CONTINUOUS
 10
222.891409
 20
56.666409
 40
31.714071
 50
-19.310396
 51
-18.063241
  0
ARC
  8
1
 62
7
  6
CONTINUOUS
 10
242.597881
 20
50.239331
 40
10.986014
 50
-18.063241
 51
-14.483551
  0
ARC
  8
1
 62
7
  6
CONTINUOUS
 10
245.307507
 20
49.539404
 40
8.187447
 50
-14.483551
 51
-7.516781
  0
ARC
  8
1
 62
7
  6
CONTINUOUS
 10
240.209217
 20
50.212126
 40
13.329929
 50
-7.516781
 51
-3.229996
  0
ARC
  8
1
 62
7
  6
CONTINUOUS
 10
239.364980
 20
50.259770
 40
14.175510
 50
-3.229996
 51
0.832876
  0
ARC
  8
1
 62
7
  6
CONTINUOUS
 10
212.445664
 20
49.868431
 40
41.097670
 50
0.832876
 51
2.245397
  0
ARC
  8
1
 62
7
  6
CONTINUOUS
 10
208.294507
 20
49.705666
 40
45.252017
 50
2.245397
 51
3.534500
  0
ARC
  8
1
 62
7
  6
CONTINUOUS
 10
152.350699
 20
38.100637
 40
106.341169
 50
-3.021440
 51
-2.680451
  0
ARC
  8
1
 62
7
  6
CONTINUOUS
 10
223.287516
 20
34.779599
 40
35.326653
 50
-2.680451
 51
-1.655471
  0
ARC
  8
1
 62
7
  6
CONTINUOUS
 10
237.582300
 20
34.366459
 40
21.025900
 50
-1.655471
 51
0.062432
  0
ARC
  8
1
 62
7
  6
CONTINUOUS
 10
243.709147
 20
34.373135
 40
14.899050
 50
0.062432
 51
2.480469
  0
ARC
  8
1
 62
7
  6
CONTINUOUS
 10
247.076028
 20
34.518986
 40
11.529012
 50
2.480469
 51
5.600816
  0
ARC
  8
1
 62
7
  6
CONTINUOUS
 10
248.283020
 20
34.637350
 40
10.316230
 50
5.600816
 51
9.831531
  0
ARC
  8
1
 62
7
  6
CONTINUOUS
 10
246.717754
 20
34.366094
 40
11.904826
 50
9.831531
 51
13.508028
  0
ARC
  8
1
 62
7
  6
CONTINUOUS
 10
246.939269
 20
34.419308
 40
11.677008
 50
13.508028
 51
17.268967
  0
ARC
  8
1
 62
7
  6
CONTINUOUS
 10
245.103167
 20
33.848517
 40
13.599786
 50
17.268967
 51
20.508219
  0
ARC
  8
1
 62
7
  6
CONTINUOUS
 10
245.550605
 20
34.015880
 40
13.122072
 50
20.508219
 51
23.873157
  0
ARC
  8
1
 62
7
  6
CONTINUOUS
 10
238.267097
 20
30.792355
 40
21.087033
 50
23.873157
 51
25.256321
  0
ARC
  8
1
 62
7
  6
CONTINUOUS
 10
415.491506
 20
114.293798
 40
174.823619
 50
-154.941849
 51
-154.775370
  0
ARC
  8
1
 62
7
  6
CONTINUOUS
 10
272.816078
 20
47.587707
 40
17.324475
 50
-156.609898
 51
-154.939071
  0
ARC
  8
1
 62
7
  6
CONTINUOUS
 10
265.111778
 20
44.255965
 40
8.930624
 50
-159.823054
 51
-156.606209
  0
ARC
  8
1
 62
7
  6
CONTINUOUS
 10
262.320865
 20
43.230376
 40
5.957237
 50
-164.615584
 51
-159.823123
  0
ARC
  8
1
 62
7
  6
CONTINUOUS
 10
262.349265
 20
43.207623
 40
5.978655
 50
-170.258635
 51
-164.898027
  0
ARC
  8
1
 62
7
  6
CONTINUOUS
 10
265.389268
 20
43.729649
 40
9.063154
 50
-173.819614
 51
-170.257831
  0
ARC
  8
1
 62
7
  6
CONTINUOUS
 10
274.251088
 20
44.690909
 40
17.976956
 50
-175.624291
 51
-173.814454
  0
ARC
  8
1
 62
7
  6
CONTINUOUS
 10
550.783984
 20
65.866452
 40
295.319427
 50
-175.731947
 51
-175.621307
  0
ARC
  8
1
 62
7
  6
CONTINUOUS
 10
235.651308
 20
42.348660
 40
20.689576
 50
4.266800
 51
5.844824
  0
ARC
  8
1
 62
7
  6
CONTINUOUS
 10
242.907155
 20
43.091418
 40
13.395811
 50
5.844824
 51
8.256003
  0
ARC
  8
1
 62
7
  6
CONTINUOUS
 10
208.926056
 20
38.160758
 40
47.732766
 50
8.256003
 51
8.930753
  0
ARC
  8
1
 62
7
  6
CONTINUOUS
 10
206.369482
 20
37.759003
 40
50.320715
 50
8.930753
 51
9.569697
  0
ARC
  8
1
 62
7
  6
CONTINUOUS
 10
302.384182
 20
53.768703
 40
47.019749
 50
-171.326864
 51
-170.643876
  0
ARC
  8
1
 62
7
  6
CONTINUOUS
 10
276.010815
 20
49.745602
 40
20.341297
 50
-172.905103
 51
-171.327039
  0
ARC
  8
1
 62
7
  6
CONTINUOUS
 10
273.115490
 20
49.355194
 40
17.419946
 50
-174.456215
 51
-173.003145
  0
ARC
  8
1
 62
7
  6
CONTINUOUS
 10
277.325529
 20
49.763859
 40
21.649773
 50
-175.626563
 51
-174.456119
  0
ARC
  8
1
 62
7
  6
CONTINUOUS
 10
284.172563
 20
50.287591
 40
28.516809
 50
-176.515895
 51
-175.626413
  0
ARC
  8
1
 62
7
  6
CONTINUOUS
 10
297.216751
 20
51.081877
 40
41.585157
 50
-177.126113
 51
-176.515756
  0
ARC
  8
1
 62
7
  6
CONTINUOUS
 10
331.908476
 20
52.823542
 40
76.320574
 50
-177.458637
 51
-177.126031
  0
ARC
  8
1
 62
7
  6
CONTINUOUS
 10
400.746692
 20
55.926246
 40
145.228669
 50
-177.681470
 51
-177.439966
  0
ARC
  8
1
 62
7
  6
CONTINUOUS
 10
441.882729
 20
57.591713
 40
186.398407
 50
-177.869540
 51
-177.681486
  0
ARC
  8
1
 62
7
  6
CONTINUOUS
 10
516.057976
 20
60.351030
 40
260.624959
 50
-178.003991
 51
-177.869552
  0
ARC
  8
1
 62
7
  6
CONTINUOUS
 10
689.338958
 20
66.389993
 40
434.011140
 50
-178.084707
 51
-178.003998
  0
ARC
  8
1
 62
7
  6
CONTINUOUS
 10
1556.336311
 20
95.382849
 40
1301.493126
 50
-178.111621
 51
-178.084710
  0
ARC
  8
1
 62
7
  6
CONTINUOUS
 10
153.350699
 20
38.100637
 40
106.341169
 50
-3.021440
 51
-2.680451
  0
ARC
  8
1
 62
7
  6
CONTINUOUS
 10
224.287516
 20
34.779599
 40
35.326653
 50
-2.680451
 51
-1.655471
  0
ARC
  8
1
 62
7
  6
CONTINUOUS
 10
238.582300
 20
34.366459
 40
21.025900
 50
-1.655471
 51
0.062432
  0
ARC
  8
1
 62
7
  6
CONTINUOUS
 10
244.709147
 20
34.373135
 40
14.899050
 50
0.062432
 51
2.480469
  0
ARC
  8
1
 62
7
  6
CONTINUOUS
 10
248.076028
 20
34.518986
 40
11.529012
 50
2.480469
 51
5.600816
  0
ARC
  8
1
 62
7
  6
CONTINUOUS
 10
249.283020
 20
34.637350
 40
10.316230
 50
5.600816
 51
9.831531
  0
ARC
  8
1
 62
7
  6
CONTINUOUS
 10
247.717754
 20
34.366094
 40
11.904826
 50
9.831531
 51
13.508028
  0
ARC
  8
1
 62
7
  6
CONTINUOUS
 10
247.939269
 20
34.419308
 40
11.677008
 50
13.508028
 51
17.268967
  0
ARC
  8
1
 62
7
  6
CONTINUOUS
 10
246.103167
 20
33.848517
 40
13.599786
 50
17.268967
 51
20.508219
  0
ARC
  8
1
 62
7
  6
CONTINUOUS
 10
246.550605
 20
34.015880
 40
13.122072
 50
20.508219
 51
23.873157
  0
ARC
  8
1
 62
7
  6
CONTINUOUS
 10
239.267097
 20
30.792355
 40
21.087033
 50
23.873157
 51
25.256321
  0
ARC
  8
1
 62
7
  6
CONTINUOUS
 10
416.491506
 20
114.293798
 40
174.823619
 50
-154.941849
 51
-154.775370
  0
ARC
  8
1
 62
7
  6
CONTINUOUS
 10
273.816078
 20
47.587707
 40
17.324475
 50
-156.609898
 51
-154.939071
  0
ARC
  8
1
 62
7
  6
CONTINUOUS
 10
266.111778
 20
44.255965
 40
8.930624
 50
-159.823054
 51
-156.606209
  0
ARC
  8
1
 62
7
  6
CONTINUOUS
 10
263.320865
 20
43.230376
 40
5.957237
 50
-164.615584
 51
-159.823123
  0
ARC
  8
1
 62
7
  6
CONTINUOUS
 10
263.349265
 20
43.207623
 40
5.978655
 50
-170.258635
 51
-164.898027
  0
ARC
  8
1
 62
7
  6
CONTINUOUS
 10
266.389268
 20
43.729649
 40
9.063154
 50
-173.819614
 51
-170.257831
  0
ARC
  8
1
 62
7
  6
CONTINUOUS
 10
275.251088
 20
44.690909
 40
17.976956
 50
-175.624291
 51
-173.814454
  0
ARC
  8
1
 62
7
  6
CONTINUOUS
 10
551.783984
 20
65.866452
 40
295.319427
 50
-175.731947
 51
-175.621307
  0
ARC
  8
1
 62
7
  6
CONTINUOUS
 10
236.651308
 20
42.348660
 40
20.689576
 50
4.266800
 51
5.844824
  0
ARC
  8
1
 62
7
  6
CONTINUOUS
 10
243.907155
 20
43.091418
 40
13.395811
 50
5.844824
 51
8.256003
  0
ARC
  8
1
 62
7
  6
CONTINUOUS
 10
209.926056
 20
38.160758
 40
47.732766
 50
8.256003
 51
8.930753
  0
ARC
  8
1
 62
7
  6
CONTINUOUS
 10
207.369482
 20
37.759003
 40
50.320715
 50
8.930753
 51
9.569697
  0
ARC
  8
1
 62
7
  6
CONTINUOUS
 10
303.384182
 20
53.768703
 40
47.019749
 50
-171.326864
 51
-170.643876
  0
ARC
  8
1
 62
7
  6
CONTINUOUS
 10
277.010815
 20
49.745602
 40
20.341297
 50
-172.905103
 51
-171.327039
  0
ARC
  8
1
 62
7
  6
CONTINUOUS
 10
274.115490
 20
49.355194
 40
17.419946
 50
-174.456215
 51
-173.003145
  0
ARC
  8
1
 62
7
  6
CONTINUOUS
 10
278.325529
 20
49.763859
 40
21.649773
 50
-175.626563
 51
-174.456119
  0
ARC
  8
1
 62
7
  6
CONTINUOUS
 10
285.172563
 20
50.287591
 40
28.516809
 50
-176.515895
 51
-175.626413
  0
ARC
  8
1
 62
7
  6
CONTINUOUS
 10
298.216751
 20
51.081877
 40
41.585157
 50
-177.126113
 51
-176.515756
  0
ARC
  8
1
 62
7
  6
CONTINUOUS
 10
332.908476
 20
52.823542
 40
76.320574
 50
-177.458637
 51
-177.126031
  0
ARC
  8
1
 62
7
  6
CONTINUOUS
 10
401.746692
 20
55.926246
 40
145.228669
 50
-177.681470
 51
-177.439966
  0
ARC
  8
1
 62
7
  6
CONTINUOUS
 10
442.882729
 20
57.591713
 40
186.398407
 50
-177.869540
 51
-177.681486
  0
ARC
  8
1
 62
7
  6
CONTINUOUS
 10
517.057976
 20
60.351030
 40
260.624959
 50
-178.003991
 51
-177.869552
  0
ARC
  8
1
 62
7
  6
CONTINUOUS
 10
690.338958
 20
66.389993
 40
434.011140
 50
-178.084707
 51
-178.003998
  0
ARC
  8
1
 62
7
  6
CONTINUOUS
 10
1557.336311
 20
95.382849
 40
1301.493126
 50
-178.111621
 51
-178.084710
  0
ARC
  8
1
 62
7
  6
CONTINUOUS
 10
183.578847
 20
38.937571
 40
77.738541
 50
-4.753513
 51
-4.203127
  0
ARC
  8
1
 62
7
  6
CONTINUOUS
 10
235.537839
 20
35.119090
 40
25.639427
 50
-4.203127
 51
-2.541844
  0
ARC
  8
1
 62
7
  6
CONTINUOUS
 10
246.173545
 20
34.646943
 40
14.993246
 50
-2.541844
 51
0.276690
  0
ARC
  8
1
 62
7
  6
CONTINUOUS
 10
250.747338
 20
34.669030
 40
10.419399
 50
0.276690
 51
4.296065
  0
ARC
  8
1
 62
7
  6
CONTINUOUS
 10
253.229502
 20
34.855494
 40
7.930243
 50
4.296065
 51
9.543045
  0
ARC
  8
1
 62
7
  6
CONTINUOUS
 10
253.635794
 20
34.923798
 40
7.518248
 50
9.543045
 51
15.554956
  0
ARC
  8
1
 62
7
  6
CONTINUOUS
 10
248.393341
 20
33.464520
 40
12.960014
 50
15.554956
 51
19.069091
  0
ARC
  8
1
 62
7
  6
CONTINUOUS
 10
245.636943
 20
32.511697
 40
15.876449
 50
19.069091
 51
21.962877
  0
ARC
  8
1
 62
7
  6
CONTINUOUS
 10
177.069442
 20
4.860292
 40
89.809544
 50
21.962877
 51
22.477105
  0
ARC
  8
1
 62
7
  6
CONTINUOUS
 10
350.590620
 20
77.078486
 40
98.140470
 50
-157.764224
 51
-157.293844
  0
ARC
  8
1
 62
7
  6
CONTINUOUS
 10
301.790843
 20
56.996761
 40
45.370574
 50
-158.999222
 51
-157.917764
  0
ARC
  8
1
 62
7
  6
CONTINUOUS
 10
326.832616
 20
66.608482
 40
72.193616
 50
-159.676790
 51
-159.000190
  0
ARC
  8
1
 62
7
  6
CONTINUOUS
 10
432.830500
 20
105.865449
 40
185.227508
 50
-159.940390
 51
-159.677272
  0
ARC
  8
1
 62
7
  6
CONTINUOUS
 10
-39.361010
 20
-66.554496
 40
317.458736
 50
20.059565
 51
20.213063
  0
ARC
  8
1
 62
7
  6
CONTINUOUS
 10
178.004388
 20
13.476670
 40
85.828203
 50
20.213063
 51
20.781905
  0
ARC
  8
1
 62
7
  6
CONTINUOUS
 10
172.547109
 20
11.405617
 40
91.665253
 50
20.781905
 51
21.235431
  0
ARC
  8
1
 62
7
  6
CONTINUOUS
 10
327.828855
 20
71.603898
 40
74.876860
 50
-159.421614
 51
-158.865875
  0
ARC
  8
1
 62
7
  6
CONTINUOUS
 10
286.184193
 20
55.969086
 40
30.393995
 50
-160.787953
 51
-159.420800
  0
ARC
  8
1
 62
7
  6
CONTINUOUS
 10
275.331761
 20
52.187742
 40
18.901657
 50
-162.978377
 51
-160.786718
  0
ARC
  8
1
 62
7
  6
CONTINUOUS
 10
270.288511
 20
50.643959
 40
13.627413
 50
-166.007272
 51
-162.977678
  0
ARC
  8
1
 62
7
  6
CONTINUOUS
 10
269.943429
 20
50.521494
 40
13.263007
 50
-170.602952
 51
-166.160157
  0
ARC
  8
1
 62
7
  6
CONTINUOUS
 10
273.826192
 20
51.163446
 40
17.198480
 50
-174.040770
 51
-170.605023
  0
ARC
  8
1
 62
7
  6
CONTINUOUS
 10
281.044817
 20
51.917454
 40
24.456378
 50
-176.468247
 51
-174.039620
  0
ARC
  8
1
 62
7
  6
CONTINUOUS
 10
297.918748
 20
52.960325
 40
41.362505
 50
-177.909240
 51
-176.466270
  0
ARC
  8
1
 62
7
  6
CONTINUOUS
 10
381.656117
 20
56.020210
 40
125.155761
 50
-178.386158
 51
-177.907915
  0
ARC
  8
1
 62
7
  6
CONTINUOUS
 10
184.578847
 20
38.937571
 40
77.738541
 50
-4.753513
 51
-4.203127
  0
ARC
  8
1
 62
7
  6
CONTINUOUS
 10
236.537839
 20
35.119090
 40
25.639427
 50
-4.203127
 51
-2.541844
  0
ARC
  8
1
 62
7
  6
CONTINUOUS
 10
247.173545
 20
34.646943
 40
14.993246
 50
-2.541844
 51
0.276690
  0
ARC
  8
1
 62
7
  6
CONTINUOUS
 10
251.747338
 20
34.669030
 40
10.419399
 50
0.276690
 51
4.296065
  0
ARC
  8
1
 62
7
  6
CONTINUOUS
 10
254.229502
 20
34.855494
 40
7.930243
 50
4.296065
 51
9.543045
  0
ARC
  8
1
 62
7
  6
CONTINUOUS
 10
254.635794
 20
34.923798
 40
7.518248
 50
9.543045
 51
15.554956
  0
ARC
  8
1
 62
7
  6
CONTINUOUS
 10
249.393341
 20
33.464520
 40
12.960014
 50
15.554956
 51
19.069091
  0
ARC
  8
1
 62
7
  6
CONTINUOUS
 10
246.636943
 20
32.511697
 40
15.876449
 50
19.069091
 51
21.962877
  0
ARC
  8
1
 62
7
  6
CONTINUOUS
 10
178.069442
 20
4.860292
 40
89.809544
 50
21.962877
 51
22.477105
  0
ARC
  8
1
 62
7
  6
CONTINUOUS
 10
351.590620
 20
77.078486
 40
98.140470
 50
-157.764224
 51
-157.293844
  0
ARC
  8
1
 62
7
  6
CONTINUOUS
 10
302.790843
 20
56.996761
 40
45.370574
 50
-158.999222
 51
-157.917764
  0
ARC
  8
1
 62
7
  6
CONTINUOUS
 10
327.832616
 20
66.608482
 40
72.193616
 50
-159.676790
 51
-159.000190
  0
ARC
  8
1
 62
7
  6
CONTINUOUS
 10
433.830500
 20
105.865449
 40
185.227508
 50
-159.940390
 51
-159.677272
  0
ARC
  8
1
 62
7
  6
CONTINUOUS
 10
-38.361010
 20
-66.554496
 40
317.458736
 50
20.059565
 51
20.213063
  0
ARC
  8
1
 62
7
  6
CONTINUOUS
 10
179.004388
 20
13.476670
 40
85.828203
 50
20.213063
 51
20.781905
  0
ARC
  8
1
 62
7
  6
CONTINUOUS
 10
173.547109
 20
11.405617
 40
91.665253
 50
20.781905
 51
21.235431
  0
ARC
  8
1
 62
7
  6
CONTINUOUS
 10
328.828855
 20
71.603898
 40
74.876860
 50
-159.421614
 51
-158.865875
  0
ARC
  8
1
 62
7
  6
CONTINUOUS
 10
287.184193
 20
55.969086
 40
30.393995
 50
-160.787953
 51
-159.420800
  0
ARC
  8
1
 62
7
  6
CONTINUOUS
 10
276.331761
 20
52.187742
 40
18.901657
 50
-162.978377
 51
-160.786718
  0
ARC
  8
1
 62
7
  6
CONTINUOUS
 10
271.288511
 20
50.643959
 40
13.627413
 50
-166.007272
 51
-162.977678
  0
ARC
  8
1
 62
7
  6
CONTINUOUS
 10
270.943429
 20
50.521494
 40
13.263007
 50
-170.602952
 51
-166.160157
  0
ARC
  8
1
 62
7
  6
CONTINUOUS
 10
274.826192
 20
51.163446
 40
17.198480
 50
-174.040770
 51
-170.605023
  0
ARC
  8
1
 62
7
  6
CONTINUOUS
 10
282.044817
 20
51.917454
 40
24.456378
 50
-176.468247
 51
-174.039620
  0
ARC
  8
1
 62
7
  6
CONTINUOUS
 10
298.918748
 20
52.960325
 40
41.362505
 50
-177.909240
 51
-176.466270
  0
ARC
  8
1
 62
7
  6
CONTINUOUS
 10
382.656117
 20
56.020210
 40
125.155761
 50
-178.386158
 51
-177.907915
  0
ARC
  8
1
 62
7
  6
CONTINUOUS
 10
86.293359
 20
12.735974
 40
178.354571
 50
6.360714
 51
6.654720
  0
ARC
  8
1
 62
7
  6
CONTINUOUS
 10
204.521557
 20
26.529880
 40
59.324412
 50
6.654720
 51
7.537831
  0
ARC
  8
1
 62
7
  6
CONTINUOUS
 10
228.220260
 20
29.665794
 40
35.419131
 50
7.537831
 51
9.014775
  0
ARC
  8
1
 62
7
  6
CONTINUOUS
 10
238.326249
 20
31.269097
 40
25.186752
 50
9.014775
 51
11.088762
  0
ARC
  8
1
 62
7
  6
CONTINUOUS
 10
243.853731
 20
32.352420
 40
19.554111
 50
11.088762
 51
13.759046
  0
ARC
  8
1
 62
7
  6
CONTINUOUS
 10
246.132182
 20
32.910334
 40
17.208347
 50
13.759046
 51
15.881955
  0
ARC
  8
1
 62
7
  6
CONTINUOUS
 10
242.623068
 20
31.911932
 40
20.856728
 50
15.881955
 51
17.635348
  0
ARC
  8
1
 62
7
  6
CONTINUOUS
 10
243.807209
 20
32.288367
 40
19.614193
 50
17.635348
 51
19.501122
  0
ARC
  8
1
 62
7
  6
CONTINUOUS
 10
239.380658
 20
30.720746
 40
24.310126
 50
19.501122
 51
21.006642
  0
ARC
  8
1
 62
7
  6
CONTINUOUS
 10
241.097284
 20
31.379926
 40
22.471288
 50
21.006642
 51
22.634316
  0
ARC
  8
1
 62
7
  6
CONTINUOUS
 10
233.999472
 20
28.420403
 40
30.161394
 50
22.634316
 51
24.622446
  0
ARC
  8
1
 62
7
  6
CONTINUOUS
 10
216.889980
 20
20.578956
 40
48.982207
 50
24.622446
 51
25.846035
  0
ARC
  8
1
 62
7
  6
CONTINUOUS
 10
131.612871
 20
-20.730170
 40
143.737835
 50
25.846035
 51
26.263232
  0
ARC
  8
1
 62
7
  6
CONTINUOUS
 10
410.853504
 20
117.071828
 40
167.653754
 50
-154.090045
 51
-153.731994
  0
ARC
  8
1
 62
7
  6
CONTINUOUS
 10
307.491883
 20
66.859525
 40
52.741178
 50
-155.230286
 51
-154.090438
  0
ARC
  8
1
 62
7
  6
CONTINUOUS
 10
290.760233
 20
59.117326
 40
34.305095
 50
-156.732588
 51
-155.263379
  0
ARC
  8
1
 62
7
  6
CONTINUOUS
 10
284.200033
 20
56.296896
 40
27.164294
 50
-158.587228
 51
-156.731780
  0
ARC
  8
1
 62
7
  6
CONTINUOUS
 10
279.714441
 20
54.538217
 40
22.346255
 50
-160.838711
 51
-158.586372
  0
ARC
  8
1
 62
7
  6
CONTINUOUS
 10
276.446428
 20
53.402877
 40
18.886645
 50
-163.497443
 51
-160.838060
  0
ARC
  8
1
 62
7
  6
CONTINUOUS
 10
273.874970
 20
52.642629
 40
16.205158
 50
-169.165221
 51
-163.492095
  0
ARC
  8
1
 62
7
  6
CONTINUOUS
 10
279.465384
 20
53.732836
 40
21.900857
 50
-171.023872
 51
-169.113158
  0
ARC
  8
1
 62
7
  6
CONTINUOUS
 10
288.281876
 20
55.125599
 40
30.826681
 50
-172.383520
 51
-171.023629
  0
ARC
  8
1
 62
7
  6
CONTINUOUS
 10
308.903532
 20
57.883494
 40
51.631937
 50
-173.196393
 51
-172.383144
  0
ARC
  8
1
 62
7
  6
CONTINUOUS
 10
411.881756
 20
70.170161
 40
155.340551
 50
-173.466707
 51
-173.196143
  0
ARC
  8
1
 62
7
  6
CONTINUOUS
 10
87.293359
 20
12.735974
 40
178.354571
 50
6.360714
 51
6.654720
  0
ARC
  8
1
 62
7
  6
CONTINUOUS
 10
205.521557
 20
26.529880
 40
59.324412
 50
6.654720
 51
7.537831
  0
ARC
  8
1
 62
7
  6
CONTINUOUS
 10
229.220260
 20
29.665794
 40
35.419131
 50
7.537831
 51
9.014775
  0
ARC
  8
1
 62
7
  6
CONTINUOUS
 10
239.326249
 20
31.269097
 40
25.186752
 50
9.014775
 51
11.088762
  0
ARC
  8
1
 62
7
  6
CONTINUOUS
 10
244.853731
 20
32.352420
 40
19.554111
 50
11.088762
 51
13.759046
  0
ARC
  8
1
 62
7
  6
CONTINUOUS
 10
247.132182
 20
32.910334
 40
17.208347
 50
13.759046
 51
15.881955
  0
ARC
  8
1
 62
7
  6
CONTINUOUS
 10
243.623068
 20
31.911932
 40
20.856728
 50
15.881955
 51
17.635348
  0
ARC
  8
1
 62
7
  6
CONTINUOUS
 10
244.807209
 20
32.288367
 40
19.614193
 50
17.635348
 51
19.501122
  0
ARC
  8
1
 62
7
  6
CONTINUOUS
 10
240.380658
 20
30.720746
 40
24.310126
 50
19.501122
 51
21.006642
  0
ARC
  8
1
 62
7
  6
CONTINUOUS
 10
242.097284
 20
31.379926
 40
22.471288
 50
21.006642
 51
22.634316
  0
ARC
  8
1
 62
7
  6
CONTINUOUS
 10
234.999472
 20
28.420403
 40
30.161394
 50
22.634316
 51
24.622446
  0
ARC
  8
1
 62
7
  6
CONTINUOUS
 10
217.889980
 20
20.578956
 40
48.982207
 50
24.622446
 51
25.846035
  0
ARC
  8
1
 62
7
  6
CONTINUOUS
 10
132.612871
 20
-20.730170
 40
143.737835
 50
25.846035
 51
26.263232
  0
ARC
  8
1
 62
7
  6
CONTINUOUS
 10
411.853504
 20
117.071828
 40
167.653754
 50
-154.090045
 51
-153.731994
  0
ARC
  8
1
 62
7
  6
CONTINUOUS
 10
308.491883
 20
66.859525
 40
52.741178
 50
-155.230286
 51
-154.090438
  0
ARC
  8
1
 62
7
  6
CONTINUOUS
 10
291.760233
 20
59.117326
 40
34.305095
 50
-156.732588
 51
-155.263379
  0
ARC
  8
1
 62
7
  6
CONTINUOUS
 10
285.200033
 20
56.296896
 40
27.164294
 50
-158.587228
 51
-156.731780
  0
ARC
  8
1
 62
7
  6
CONTINUOUS
 10
280.714441
 20
54.538217
 40
22.346255
 50
-160.838711
 51
-158.586372
  0
ARC
  8
1
 62
7
  6
CONTINUOUS
 10
277.446428
 20
53.402877
 40
18.886645
 50
-163.497443
 51
-160.838060
  0
ARC
  8
1
 62
7
  6
CONTINUOUS
 10
274.874970
 20
52.642629
 40
16.205158
 50
-169.165221
 51
-163.492095
  0
ARC
  8
1
 62
7
  6
CONTINUOUS
 10
280.465384
 20
53.732836
 40
21.900857
 50
-171.023872
 51
-169.113158
  0
ARC
  8
1
 62
7
  6
CONTINUOUS
 10
289.281876
 20
55.125599
 40
30.826681
 50
-172.383520
 51
-171.023629
  0
ARC
  8
1
 62
7
  6
CONTINUOUS
 10
309.903532
 20
57.883494
 40
51.631937
 50
-173.196393
 51
-172.383144
  0
ARC
  8
1
 62
7
  6
CONTINUOUS
 10
412.881756
 20
70.170161
 40
155.340551
 50
-173.466707
 51
-173.196143
  0
ARC
  8
1
 62
7
  6
CONTINUOUS
 10
261.632175
 20
109.161140
 40
37.000213
 50
-109.059107
 51
-108.404750
  0
ARC
  8
1
 62
7
  6
CONTINUOUS
 10
253.775267
 20
85.548940
 40
12.115137
 50
-108.404750
 51
-106.421407
  0
ARC
  8
1
 62
7
  6
CONTINUOUS
 10
252.316611
 20
80.599682
 40
6.955405
 50
-106.421407
 51
-103.013702
  0
ARC
  8
1
 62
7
  6
CONTINUOUS
 10
251.814593
 20
78.427571
 40
4.726036
 50
-103.013702
 51
-98.080590
  0
ARC
  8
1
 62
7
  6
CONTINUOUS
 10
251.644089
 20
77.226634
 40
3.513056
 50
-98.080590
 51
-78.448410
  0
ARC
  8
1
 62
7
  6
CONTINUOUS
 10
250.478147
 20
82.931131
 40
9.335486
 50
-78.448410
 51
-73.399213
  0
ARC
  8
1
 62
7
  6
CONTINUOUS
 10
247.509785
 20
92.887801
 40
19.725215
 50
-73.399213
 51
-70.961403
  0
ARC
  8
1
 62
7
  6
CONTINUOUS
 10
258.227032
 20
61.416692
 40
13.521089
 50
104.921300
 51
108.466394
  0
ARC
  8
1
 62
7
  6
CONTINUOUS
 10
256.130609
 20
69.300096
 40
5.363699
 50
96.214319
 51
104.965958
  0
ARC
  8
1
 62
7
  6
CONTINUOUS
 10
255.984761
 20
70.199800
 40
4.453748
 50
87.910805
 51
95.601956
  0
ARC
  8
1
 62
7
  6
CONTINUOUS
 10
255.933024
 20
68.815964
 40
5.838551
 50
81.994334
 51
87.898492
  0
ARC
  8
1
 62
7
  6
CONTINUOUS
 10
255.560183
 20
66.159675
 40
8.520878
 50
77.897753
 51
81.999290
  0
ARC
  8
1
 62
7
  6
CONTINUOUS
 10
254.251120
 20
60.043437
 40
14.775637
 50
75.510262
 51
77.906838
  0
ARC
  8
1
 62
7
  6
CONTINUOUS
 10
246.602222
 20
30.426660
 40
45.364183
 50
74.729601
 51
75.516208
  0
ARC
  8
1
 62
7
  6
CONTINUOUS
 10
261.632175
 20
110.435787
 40
37.000213
 50
-109.059107
 51
-108.404750
  0
ARC
  8
1
 62
7
  6
CONTINUOUS
 10
253.775267
 20
86.823587
 40
12.115137
 50
-108.404750
 51
-106.421407
  0
ARC
  8
1
 62
7
  6
CONTINUOUS
 10
252.316611
 20
81.874329
 40
6.955405
 50
-106.421407
 51
-103.013702
  0
ARC
  8
1
 62
7
  6
CONTINUOUS
 10
251.814593
 20
79.702218
 40
4.726036
 50
-103.013702
 51
-98.080590
  0
ARC
  8
1
 62
7
  6
CONTINUOUS
 10
251.644089
 20
78.501281
 40
3.513056
 50
-98.080590
 51
-78.448410
  0
ARC
  8
1
 62
7
  6
CONTINUOUS
 10
250.478147
 20
84.205778
 40
9.335486
 50
-78.448410
 51
-73.399213
  0
ARC
  8
1
 62
7
  6
CONTINUOUS
 10
247.509785
 20
94.162448
 40
19.725215
 50
-73.399213
 51
-70.961403
  0
ARC
  8
1
 62
7
  6
CONTINUOUS
 10
258.227032
 20
62.691339
 40
13.521089
 50
104.921300
 51
108.466394
  0
ARC
  8
1
 62
7
  6
CONTINUOUS
 10
256.130609
 20
70.574743
 40
5.363699
 50
96.214319
 51
104.965958
  0
ARC
  8
1
 62
7
  6
CONTINUOUS
 10
255.984761
 20
71.474448
 40
4.453748
 50
87.910805
 51
95.601956
  0
ARC
  8
1
 62
7
  6
CONTINUOUS
 10
255.933024
 20
70.090611
 40
5.838551
 50
81.994334
 51
87.898492
  0
ARC
  8
1
 62
7
  6
CONTINUOUS
 10
255.560183
 20
67.434322
 40
8.520878
 50
77.897753
 51
81.999290
  0
ARC
  8
1
 62
7
  6
CONTINUOUS
 10
254.251120
 20
61.318084
 40
14.775637
 50
75.510262
 51
77.906838
  0
ARC
  8
1
 62
7
  6
CONTINUOUS
 10
246.602222
 20
31.701307
 40
45.364183
 50
74.729601
 51
75.516208
  0
ARC
  8
1
 62
7
  6
CONTINUOUS
 10
73.514817
 20
124.156662
 40
37.000213
 50
-109.059107
 51
-108.404750
  0
ARC
  8
1
 62
7
  6
CONTINUOUS
 10
65.657909
 20
100.544461
 40
12.115137
 50
-108.404750
 51
-106.421407
  0
ARC
  8
1
 62
7
  6
CONTINUOUS
 10
64.199254
 20
95.595203
 40
6.955405
 50
-106.421407
 51
-103.013702
  0
ARC
  8
1
 62
7
  6
CONTINUOUS
 10
63.697235
 20
93.423092
 40
4.726036
 50
-103.013702
 51
-98.080590
  0
ARC
  8
1
 62
7
  6
CONTINUOUS
 10
63.526732
 20
92.222156
 40
3.513056
 50
-98.080590
 51
-78.448410
  0
ARC
  8
1
 62
7
  6
CONTINUOUS
 10
62.360789
 20
97.926652
 40
9.335486
 50
-78.448410
 51
-73.399213
  0
ARC
  8
1
 62
7
  6
CONTINUOUS
 10
59.392428
 20
107.883322
 40
19.725215
 50
-73.399213
 51
-70.961403
  0
ARC
  8
1
 62
7
  6
CONTINUOUS
 10
70.109675
 20
76.412213
 40
13.521089
 50
104.921300
 51
108.466394
  0
ARC
  8
1
 62
7
  6
CONTINUOUS
 10
68.013251
 20
84.295617
 40
5.363699
 50
96.214319
 51
104.965958
  0
ARC
  8
1
 62
7
  6
CONTINUOUS
 10
67.867403
 20
85.195322
 40
4.453748
 50
87.910805
 51
95.601956
  0
ARC
  8
1
 62
7
  6
CONTINUOUS
 10
67.815666
 20
83.811485
 40
5.838551
 50
81.994334
 51
87.898492
  0
ARC
  8
1
 62
7
  6
CONTINUOUS
 10
67.442826
 20
81.155196
 40
8.520878
 50
77.897753
 51
81.999290
  0
ARC
  8
1
 62
7
  6
CONTINUOUS
 10
66.133763
 20
75.038958
 40
14.775637
 50
75.510262
 51
77.906838
  0
ARC
  8
1
 62
7
  6
CONTINUOUS
 10
58.484865
 20
45.422181
 40
45.364183
 50
74.729601
 51
75.516208
  0
ARC
  8
1
 62
7
  6
CONTINUOUS
 10
73.514817
 20
122.882014
 40
37.000213
 50
-109.059107
 51
-108.404750
  0
ARC
  8
1
 62
7
  6
CONTINUOUS
 10
65.657909
 20
99.269814
 40
12.115137
 50
-108.404750
 51
-106.421407
  0
ARC
  8
1
 62
7
  6
CONTINUOUS
 10
64.199254
 20
94.320556
 40
6.955405
 50
-106.421407
 51
-103.013702
  0
ARC
  8
1
 62
7
  6
CONTINUOUS
 10
63.697235
 20
92.148445
 40
4.726036
 50
-103.013702
 51
-98.080590
  0
ARC
  8
1
 62
7
  6
CONTINUOUS
 10
63.526732
 20
90.947509
 40
3.513056
 50
-98.080590
 51
-78.448410
  0
ARC
  8
1
 62
7
  6
CONTINUOUS
 10
62.360789
 20
96.652005
 40
9.335486
 50
-78.448410
 51
-73.399213
  0
ARC
  8
1
 62
7
  6
CONTINUOUS
 10
59.392428
 20
106.608675
 40
19.725215
 50
-73.399213
 51
-70.961403
  0
ARC
  8
1
 62
7
  6
CONTINUOUS
 10
70.109675
 20
75.137566
 40
13.521089
 50
104.921300
 51
108.466394
  0
ARC
  8
1
 62
7
  6
CONTINUOUS
 10
68.013251
 20
83.020970
 40
5.363699
 50
96.214319
 51
104.965958
  0
ARC
  8
1
 62
7
  6
CONTINUOUS
 10
67.867403
 20
83.920675
 40
4.453748
 50
87.910805
 51
95.601956
  0
ARC
  8
1
 62
7
  6
CONTINUOUS
 10
67.815666
 20
82.536838
 40
5.838551
 50
81.994334
 51
87.898492
  0
ARC
  8
1
 62
7
  6
CONTINUOUS
 10
67.442826
 20
79.880549
 40
8.520878
 50
77.897753
 51
81.999290
  0
ARC
  8
1
 62
7
  6
CONTINUOUS
 10
66.133763
 20
73.764311
 40
14.775637
 50
75.510262
 51
77.906838
  0
ARC
  8
1
 62
7
  6
CONTINUOUS
 10
58.484865
 20
44.147534
 40
45.364183
 50
74.729601
 51
75.516208
  0
ARC
  8
1
 62
7
  6
CONTINUOUS
 10
270.206424
 20
55.035697
 40
19.819888
 50
-174.852131
 51
-172.636288
  0
ARC
  8
1
 62
7
  6
CONTINUOUS
 10
270.137187
 20
55.029763
 40
19.750398
 50
-177.077405
 51
-174.851254
  0
ARC
  8
1
 62
7
  6
CONTINUOUS
 10
270.009680
 20
55.023478
 40
19.622736
 50
-179.319069
 51
-177.076751
  0
ARC
  8
1
 62
7
  6
CONTINUOUS
 10
269.828082
 20
55.021471
 40
19.441127
 50
178.417181
 51
-179.318624
  0
ARC
  8
1
 62
7
  6
CONTINUOUS
 10
269.597927
 20
55.027917
 40
19.210882
 50
176.125832
 51
178.417438
  0
ARC
  8
1
 62
7
  6
CONTINUOUS
 10
269.325913
 20
55.046368
 40
18.938242
 50
173.801596
 51
176.125924
  0
ARC
  8
1
 62
7
  6
CONTINUOUS
 10
269.019677
 20
55.079613
 40
18.630207
 50
171.439457
 51
173.801552
  0
ARC
  8
1
 62
7
  6
CONTINUOUS
 10
268.687553
 20
55.129562
 40
18.294348
 50
169.034735
 51
171.439313
  0
ARC
  8
1
 62
7
  6
CONTINUOUS
 10
268.338321
 20
55.197162
 40
17.938634
 50
166.583163
 51
169.034536
  0
ARC
  8
1
 62
7
  6
CONTINUOUS
 10
267.980956
 20
55.282346
 40
17.571257
 50
164.080974
 51
166.582961
  0
ARC
  8
1
 62
7
  6
CONTINUOUS
 10
267.624389
 20
55.384000
 40
17.200483
 50
161.525004
 51
164.080832
  0
ARC
  8
1
 62
7
  6
CONTINUOUS
 10
267.277284
 20
55.499969
 40
16.834517
 50
158.912801
 51
161.524995
  0
ARC
  8
1
 62
7
  6
CONTINUOUS
 10
266.947833
 20
55.627074
 40
16.481397
 50
156.242756
 51
158.913012
  0
ARC
  8
1
 62
7
  6
CONTINUOUS
 10
266.643587
 20
55.761154
 40
16.148917
 50
153.514220
 51
156.243285
  0
ARC
  8
1
 62
7
  6
CONTINUOUS
 10
266.371302
 20
55.897122
 40
15.844572
 50
150.727633
 51
153.515176
  0
ARC
  8
1
 62
7
  6
CONTINUOUS
 10
298.487479
 20
54.322828
 40
46.973038
 50
-179.100413
 51
-177.770455
  0
ARC
  8
1
 62
7
  6
CONTINUOUS
 10
294.667863
 20
54.255832
 40
43.152841
 50
179.482959
 51
-179.109733
  0
ARC
  8
1
 62
7
  6
CONTINUOUS
 10
291.134854
 20
54.280834
 40
39.619751
 50
177.983252
 51
179.473009
  0
ARC
  8
1
 62
7
  6
CONTINUOUS
 10
287.878124
 20
54.388780
 40
36.361240
 50
176.395177
 51
177.972646
  0
ARC
  8
1
 62
7
  6
CONTINUOUS
 10
284.887344
 20
54.570613
 40
33.364946
 50
174.713343
 51
176.383893
  0
ARC
  8
1
 62
7
  6
CONTINUOUS
 10
282.152184
 20
54.817279
 40
30.618694
 50
172.932352
 51
174.701371
  0
ARC
  8
1
 62
7
  6
CONTINUOUS
 10
279.662317
 20
55.119721
 40
28.110534
 50
171.046917
 51
172.919691
  0
ARC
  8
1
 62
7
  6
CONTINUOUS
 10
277.407412
 20
55.468884
 40
25.828765
 50
169.052016
 51
171.033582
  0
ARC
  8
1
 62
7
  6
CONTINUOUS
 10
275.377142
 20
55.855713
 40
23.761981
 50
166.943089
 51
169.038042
  0
ARC
  8
1
 62
7
  6
CONTINUOUS
 10
273.561177
 20
56.271153
 40
21.899110
 50
164.716272
 51
166.928537
  0
LINE
  8
1
 62
7
  6
CONTINUOUS
 10
252.436587
 20
62.043738
 11
252.550000
 21
62.442355
  0
ARC
  8
1
 62
7
  6
CONTINUOUS
 10
106.153420
 20
88.324341
 40
147.804905
 50
-14.028633
 51
-13.538613
  0
ARC
  8
1
 62
7
  6
CONTINUOUS
 10
106.164804
 20
88.321570
 40
147.793189
 50
-13.538602
 51
-13.048553
  0
ARC
  8
1
 62
7
  6
CONTINUOUS
 10
106.144619
 20
88.326243
 40
147.813908
 50
-13.048551
 51
-12.558545
  0
ARC
  8
1
 62
7
  6
CONTINUOUS
 10
287.492313
 20
60.323838
 40
30.948765
 50
-166.909385
 51
-165.348015
  0
ARC
  8
1
 62
7
  6
CONTINUOUS
 10
287.322405
 20
60.283782
 40
30.774200
 50
-168.477741
 51
-166.910375
  0
ARC
  8
1
 62
7
  6
CONTINUOUS
 10
287.219571
 20
60.262434
 40
30.669174
 50
-170.049484
 51
-168.478444
  0
ARC
  8
1
 62
7
  6
CONTINUOUS
 10
287.184424
 20
60.256045
 40
30.633452
 50
-171.622256
 51
-170.049896
  0
ARC
  8
1
 62
7
  6
CONTINUOUS
 10
287.217576
 20
60.260865
 40
30.666952
 50
-173.193684
 51
-171.622371
  0
ARC
  8
1
 62
7
  6
CONTINUOUS
 10
287.319638
 20
60.273144
 40
30.769750
 50
-174.761413
 51
-173.193504
  0
ARC
  8
1
 62
7
  6
CONTINUOUS
 10
287.491223
 20
60.289134
 40
30.942078
 50
-176.323116
 51
-174.760937
  0
ARC
  8
1
 62
7
  6
CONTINUOUS
 10
287.732942
 20
60.305085
 40
31.184323
 50
-177.876524
 51
-176.322351
  0
ARC
  8
1
 62
7
  6
CONTINUOUS
 10
288.045408
 20
60.317247
 40
31.497025
 50
-179.419438
 51
-177.875476
  0
ARC
  8
1
 62
7
  6
CONTINUOUS
 10
350.159808
 20
78.597558
 40
95.255855
 50
-165.048877
 51
-164.096306
  0
ARC
  8
1
 62
7
  6
CONTINUOUS
 10
350.037652
 20
78.564658
 40
95.129346
 50
-166.002478
 51
-165.049041
  0
ARC
  8
1
 62
7
  6
CONTINUOUS
 10
349.991680
 20
78.553031
 40
95.081927
 50
-166.956353
 51
-166.002576
  0
ARC
  8
1
 62
7
  6
CONTINUOUS
 10
350.022505
 20
78.560119
 40
95.113556
 50
-167.909971
 51
-166.956384
  0
ARC
  8
1
 62
7
  6
CONTINUOUS
 10
350.130742
 20
78.583362
 40
95.224261
 50
-168.862807
 51
-167.909936
  0
LINE
  8
1
 62
7
  6
CONTINUOUS
 10
256.699794
 20
60.189946
 11
256.550000
 21
60.967858
  0
ARC
  8
1
 62
7
  6
CONTINUOUS
 10
40.432642
 20
106.833164
 40
4.500000
 50
180.000000
 51
-90.000000
  0
ARC
  8
1
 62
7
  6
CONTINUOUS
 10
40.432642
 20
158.833164
 40
4.500000
 50
90.000000
 51
180.000000
  0
ARC
  8
1
 62
7
  6
CONTINUOUS
 10
92.432642
 20
106.833164
 40
4.500000
 50
-90.000000
 51
-0.000000
  0
ARC
  8
1
 62
7
  6
CONTINUOUS
 10
92.432642
 20
158.833164
 40
4.500000
 50
0.000000
 51
90.000000
  0
ARC
  8
1
 62
7
  6
CONTINUOUS
 10
78.932642
 20
99.833164
 40
1.000000
 50
-90.000000
 51
0.000000
  0
ARC
  8
1
 62
7
  6
CONTINUOUS
 10
53.932642
 20
99.833164
 40
1.000000
 50
180.000000
 51
-90.000000
  0
ARC
  8
1
 62
7
  6
CONTINUOUS
 10
81.932642
 20
100.333164
 40
2.000000
 50
90.000000
 51
180.000000
  0
ARC
  8
1
 62
7
  6
CONTINUOUS
 10
50.932642
 20
100.333164
 40
2.000000
 50
0.000000
 51
90.000000
  0
LINE
  8
1
 62
7
  6
CONTINUOUS
 10
301.475910
 20
141.675180
 11
274.144536
 21
141.675180
  0
LINE
  8
1
 62
7
  6
CONTINUOUS
 10
274.144536
 20
141.675180
 11
263.211986
 21
133.996366
  0
LINE
  8
1
 62
7
  6
CONTINUOUS
 10
265.588453
 20
136.180374
 11
266.072739
 21
135.490881
  0
LINE
  8
1
 62
7
  6
CONTINUOUS
 10
266.072739
 20
135.490881
 11
263.211986
 21
133.996366
  0
LINE
  8
1
 62
7
  6
CONTINUOUS
 10
263.211986
 20
133.996366
 11
265.588453
 21
136.180374
  0
TEXT
  8
1
 62
7
  6
CONTINUOUS
 10
273.719008
 20
144.692257
 40
4.000000
 41
0.900000
  1
ネームプレート
  7
KANJI
 50
0.000000
 51
0.000000
  0
TEXT
  8
1
 62
7
  6
CONTINUOUS
 10
209.011766
 20
178.846510
 40
4.000000
 41
0.900000
  1
（モータ取付部肉厚）
  7
KANJI
 50
0.000000
 51
0.000000
  0
TEXT
  8
1
 62
7
  6
CONTINUOUS
 10
210.850482
 20
174.778037
 40
3.000000
 41
0.630000
  1
ＷＩＤＴＨ　ＯＦ　ＦＬＡＮＧＥ
  7
KANJI
 50
0.000000
 51
0.000000
  0
TEXT
  8
1
 62
7
  6
CONTINUOUS
 10
274.540619
 20
136.151393
 40
3.500000
 41
0.720000
  1
ＮＡＭＥ　ＰＬＡＴＥ
  7
KANJI
 50
0.000000
 51
0.000000
  0
LINE
  8
1
 62
7
  6
CONTINUOUS
 10
271.056341
 20
68.559267
 11
271.056341
 21
97.833164
  0
LINE
  8
1
 62
7
  6
CONTINUOUS
 10
261.800000
 20
97.833164
 11
272.556341
 21
97.833164
  0
LINE
  8
1
 62
7
  6
CONTINUOUS
 10
259.180530
 20
68.559267
 11
272.556341
 21
68.559267
  0
LINE
  8
1
 62
7
  6
CONTINUOUS
 10
271.056341
 20
97.833164
 11
271.472341
 21
94.633164
  0
LINE
  8
1
 62
7
  6
CONTINUOUS
 10
271.472341
 20
94.633164
 11
270.640341
 21
94.633164
  0
LINE
  8
1
 62
7
  6
CONTINUOUS
 10
270.640341
 20
94.633164
 11
271.056341
 21
97.833164
  0
LINE
  8
1
 62
7
  6
CONTINUOUS
 10
271.056341
 20
68.559267
 11
270.640341
 21
71.759267
  0
LINE
  8
1
 62
7
  6
CONTINUOUS
 10
270.640341
 20
71.759267
 11
271.472341
 21
71.759267
  0
LINE
  8
1
 62
7
  6
CONTINUOUS
 10
271.472341
 20
71.759267
 11
271.056341
 21
68.559267
  0
TEXT
  8
1
 62
7
  6
CONTINUOUS
 10
269.056341
 20
77.516665
 40
3.200000
 41
0.900000
  1
150
  7
KANJI
 50
90.000000
 51
0.000000
  0
TEXT
  8
1
 62
7
  6
CONTINUOUS
 10
269.056341
 20
75.436665
 40
3.200000
 41
0.900000
  1
(
  7
KANJI
 50
90.000000
 51
0.000000
  0
TEXT
  8
1
 62
7
  6
CONTINUOUS
 10
269.056341
 20
85.836665
 40
3.200000
 41
0.900000
  1
)
  7
KANJI
 50
90.000000
 51
0.000000
  0
LINE
  8
1
 62
7
  6
CONTINUOUS
 10
283.305584
 20
32.495432
 11
283.305584
 21
97.833164
  0
LINE
  8
1
 62
7
  6
CONTINUOUS
 10
261.800000
 20
97.833164
 11
284.805584
 21
97.833164
  0
LINE
  8
1
 62
7
  6
CONTINUOUS
 10
266.550000
 20
32.495432
 11
284.805584
 21
32.495432
  0
LINE
  8
1
 62
7
  6
CONTINUOUS
 10
283.305584
 20
97.833164
 11
283.721584
 21
94.633164
  0
LINE
  8
1
 62
7
  6
CONTINUOUS
 10
283.721584
 20
94.633164
 11
282.889584
 21
94.633164
  0
LINE
  8
1
 62
7
  6
CONTINUOUS
 10
282.889584
 20
94.633164
 11
283.305584
 21
97.833164
  0
LINE
  8
1
 62
7
  6
CONTINUOUS
 10
283.305584
 20
32.495432
 11
282.889584
 21
35.695432
  0
LINE
  8
1
 62
7
  6
CONTINUOUS
 10
282.889584
 20
35.695432
 11
283.721584
 21
35.695432
  0
LINE
  8
1
 62
7
  6
CONTINUOUS
 10
283.721584
 20
35.695432
 11
283.305584
 21
32.495432
  0
TEXT
  8
1
 62
7
  6
CONTINUOUS
 10
280.505584
 20
56.006293
 40
3.200000
 41
0.900000
  1
300
  7
KANJI
 50
90.000000
 51
0.000000
  0
TEXT
  8
1
 62
7
  6
CONTINUOUS
 10
278.425584
 20
65.286293
 40
1.920000
 41
0.900000
  1
+30
  7
KANJI
 50
90.000000
 51
0.000000
  0
TEXT
  8
1
 62
7
  6
CONTINUOUS
 10
281.305584
 20
67.014293
 40
1.920000
 41
0.900000
  1
 0
  7
KANJI
 50
90.000000
 51
0.000000
  0
LINE
  8
1
 62
7
  6
CONTINUOUS
 10
165.406337
 20
129.433164
 11
165.406337
 21
135.833164
  0
LINE
  8
1
 62
7
  6
CONTINUOUS
 10
165.406337
 20
135.833164
 11
165.406337
 21
136.833164
  0
LINE
  8
1
 62
7
  6
CONTINUOUS
 10
165.406337
 20
136.833164
 11
165.406337
 21
144.039253
  0
LINE
  8
1
 62
7
  6
CONTINUOUS
 10
175.800000
 20
135.833164
 11
163.906337
 21
135.833164
  0
LINE
  8
1
 62
7
  6
CONTINUOUS
 10
191.800000
 20
136.833164
 11
163.906337
 21
136.833164
  0
LINE
  8
1
 62
7
  6
CONTINUOUS
 10
165.406337
 20
136.833164
 11
164.990337
 21
140.033164
  0
LINE
  8
1
 62
7
  6
CONTINUOUS
 10
164.990337
 20
140.033164
 11
165.822337
 21
140.033164
  0
LINE
  8
1
 62
7
  6
CONTINUOUS
 10
165.822337
 20
140.033164
 11
165.406337
 21
136.833164
  0
LINE
  8
1
 62
7
  6
CONTINUOUS
 10
165.406337
 20
135.833164
 11
165.822337
 21
132.633164
  0
LINE
  8
1
 62
7
  6
CONTINUOUS
 10
165.822337
 20
132.633164
 11
164.990337
 21
132.633164
  0
LINE
  8
1
 62
7
  6
CONTINUOUS
 10
164.990337
 20
132.633164
 11
165.406337
 21
135.833164
  0
TEXT
  8
1
 62
7
  6
CONTINUOUS
 10
163.406337
 20
143.079253
 40
3.200000
 41
0.900000
  1
1
  7
KANJI
 50
90.000000
 51
0.000000
  0
LINE
  8
1
 62
7
  6
CONTINUOUS
 10
111.597114
 20
102.333164
 11
111.597114
 21
163.333164
  0
LINE
  8
1
 62
7
  6
CONTINUOUS
 10
93.432642
 20
102.333164
 11
113.097114
 21
102.333164
  0
LINE
  8
1
 62
7
  6
CONTINUOUS
 10
93.432642
 20
163.333164
 11
113.097114
 21
163.333164
  0
LINE
  8
1
 62
7
  6
CONTINUOUS
 10
111.597114
 20
163.333164
 11
112.013114
 21
160.133164
  0
LINE
  8
1
 62
7
  6
CONTINUOUS
 10
112.013114
 20
160.133164
 11
111.181114
 21
160.133164
  0
LINE
  8
1
 62
7
  6
CONTINUOUS
 10
111.181114
 20
160.133164
 11
111.597114
 21
163.333164
  0
LINE
  8
1
 62
7
  6
CONTINUOUS
 10
111.597114
 20
102.333164
 11
111.181114
 21
105.533164
  0
LINE
  8
1
 62
7
  6
CONTINUOUS
 10
111.181114
 20
105.533164
 11
112.013114
 21
105.533164
  0
LINE
  8
1
 62
7
  6
CONTINUOUS
 10
112.013114
 20
105.533164
 11
111.597114
 21
102.333164
  0
TEXT
  8
1
 62
7
  6
CONTINUOUS
 10
109.597114
 20
131.097998
 40
3.200000
 41
0.900000
  1
61
  7
KANJI
 50
90.000000
 51
0.000000
  0
LINE
  8
1
 62
7
  6
CONTINUOUS
 10
35.932642
 20
184.170017
 11
96.932642
 21
184.170017
  0
LINE
  8
1
 62
7
  6
CONTINUOUS
 10
35.932642
 20
159.833164
 11
35.932642
 21
185.670017
  0
LINE
  8
1
 62
7
  6
CONTINUOUS
 10
96.932642
 20
159.833164
 11
96.932642
 21
185.670017
  0
LINE
  8
1
 62
7
  6
CONTINUOUS
 10
96.932642
 20
184.170017
 11
93.732642
 21
183.754017
  0
LINE
  8
1
 62
7
  6
CONTINUOUS
 10
93.732642
 20
183.754017
 11
93.732642
 21
184.586017
  0
LINE
  8
1
 62
7
  6
CONTINUOUS
 10
93.732642
 20
184.586017
 11
96.932642
 21
184.170017
  0
LINE
  8
1
 62
7
  6
CONTINUOUS
 10
35.932642
 20
184.170017
 11
39.132642
 21
184.586017
  0
LINE
  8
1
 62
7
  6
CONTINUOUS
 10
39.132642
 20
184.586017
 11
39.132642
 21
183.754017
  0
LINE
  8
1
 62
7
  6
CONTINUOUS
 10
39.132642
 20
183.754017
 11
35.932642
 21
184.170017
  0
TEXT
  8
1
 62
7
  6
CONTINUOUS
 10
64.225003
 20
186.170017
 40
3.200000
 41
0.900000
  1
61
  7
KANJI
 50
0.000000
 51
0.000000
  0
LINE
  8
1
 62
7
  6
CONTINUOUS
 10
154.236179
 20
122.433164
 11
154.236179
 21
128.833164
  0
LINE
  8
1
 62
7
  6
CONTINUOUS
 10
154.236179
 20
128.833164
 11
154.236179
 21
136.833164
  0
LINE
  8
1
 62
7
  6
CONTINUOUS
 10
154.236179
 20
136.833164
 11
154.236179
 21
153.318015
  0
LINE
  8
1
 62
7
  6
CONTINUOUS
 10
175.800000
 20
128.833164
 11
152.736179
 21
128.833164
  0
LINE
  8
1
 62
7
  6
CONTINUOUS
 10
191.800000
 20
136.833164
 11
152.736179
 21
136.833164
  0
LINE
  8
1
 62
7
  6
CONTINUOUS
 10
154.236179
 20
136.833164
 11
153.820179
 21
140.033164
  0
LINE
  8
1
 62
7
  6
CONTINUOUS
 10
153.820179
 20
140.033164
 11
154.652179
 21
140.033164
  0
LINE
  8
1
 62
7
  6
CONTINUOUS
 10
154.652179
 20
140.033164
 11
154.236179
 21
136.833164
  0
LINE
  8
1
 62
7
  6
CONTINUOUS
 10
154.236179
 20
128.833164
 11
154.652179
 21
125.633164
  0
LINE
  8
1
 62
7
  6
CONTINUOUS
 10
154.652179
 20
125.633164
 11
153.820179
 21
125.633164
  0
LINE
  8
1
 62
7
  6
CONTINUOUS
 10
153.820179
 20
125.633164
 11
154.236179
 21
128.833164
  0
TEXT
  8
1
 62
7
  6
CONTINUOUS
 10
151.436179
 20
143.030015
 40
3.200000
 41
0.900000
  1
8
  7
KANJI
 50
90.000000
 51
0.000000
  0
TEXT
  8
1
 62
7
  6
CONTINUOUS
 10
149.356179
 20
146.550015
 40
1.920000
 41
0.900000
  1
 0
  7
KANJI
 50
90.000000
 51
0.000000
  0
TEXT
  8
1
 62
7
  6
CONTINUOUS
 10
152.236179
 20
146.550015
 40
1.920000
 41
0.900000
  1
-0.03
  7
KANJI
 50
90.000000
 51
0.000000
  0
TEXT
  8
1
 62
7
  6
CONTINUOUS
 10
151.436179
 20
139.385570
 40
3.200000
 41
0.900000
  1
φ
  7
KANJI
 50
90.000000
 51
0.000000
  0
LINE
  8
1
 62
7
  6
CONTINUOUS
 10
176.800000
 20
145.991126
 11
192.800000
 21
145.991126
  0
LINE
  8
1
 62
7
  6
CONTINUOUS
 10
176.800000
 20
136.833164
 11
176.800000
 21
147.491126
  0
LINE
  8
1
 62
7
  6
CONTINUOUS
 10
192.800000
 20
137.833164
 11
192.800000
 21
147.491126
  0
LINE
  8
1
 62
7
  6
CONTINUOUS
 10
176.800000
 20
145.991126
 11
180.000000
 21
146.407126
  0
LINE
  8
1
 62
7
  6
CONTINUOUS
 10
180.000000
 20
146.407126
 11
180.000000
 21
145.575126
  0
LINE
  8
1
 62
7
  6
CONTINUOUS
 10
180.000000
 20
145.575126
 11
176.800000
 21
145.991126
  0
LINE
  8
1
 62
7
  6
CONTINUOUS
 10
192.800000
 20
145.991126
 11
189.600000
 21
145.575126
  0
LINE
  8
1
 62
7
  6
CONTINUOUS
 10
189.600000
 20
145.575126
 11
189.600000
 21
146.407126
  0
LINE
  8
1
 62
7
  6
CONTINUOUS
 10
189.600000
 20
146.407126
 11
192.800000
 21
145.991126
  0
TEXT
  8
1
 62
7
  6
CONTINUOUS
 10
183.315610
 20
147.991126
 40
3.200000
 41
0.900000
  1
16
  7
KANJI
 50
0.000000
 51
0.000000
  0
LINE
  8
1
 62
7
  6
CONTINUOUS
 10
176.800000
 20
189.584000
 11
200.800000
 21
189.584000
  0
LINE
  8
1
 62
7
  6
CONTINUOUS
 10
176.800000
 20
136.833164
 11
176.800000
 21
191.084000
  0
LINE
  8
1
 62
7
  6
CONTINUOUS
 10
200.800000
 20
164.333164
 11
200.800000
 21
191.084000
  0
LINE
  8
1
 62
7
  6
CONTINUOUS
 10
200.800000
 20
189.584000
 11
197.600000
 21
189.168000
  0
LINE
  8
1
 62
7
  6
CONTINUOUS
 10
197.600000
 20
189.168000
 11
197.600000
 21
190.000000
  0
LINE
  8
1
 62
7
  6
CONTINUOUS
 10
197.600000
 20
190.000000
 11
200.800000
 21
189.584000
  0
LINE
  8
1
 62
7
  6
CONTINUOUS
 10
176.800000
 20
189.584000
 11
180.000000
 21
190.000000
  0
LINE
  8
1
 62
7
  6
CONTINUOUS
 10
180.000000
 20
190.000000
 11
180.000000
 21
189.168000
  0
LINE
  8
1
 62
7
  6
CONTINUOUS
 10
180.000000
 20
189.168000
 11
176.800000
 21
189.584000
  0
TEXT
  8
1
 62
7
  6
CONTINUOUS
 10
185.023206
 20
191.584000
 40
3.200000
 41
0.900000
  1
24
  7
KANJI
 50
0.000000
 51
0.000000
  0
LINE
  8
1
 62
7
  6
CONTINUOUS
 10
207.200000
 20
177.289210
 11
200.800000
 21
177.289210
  0
LINE
  8
1
 62
7
  6
CONTINUOUS
 10
197.800000
 20
177.289210
 11
200.800000
 21
177.289210
  0
LINE
  8
1
 62
7
  6
CONTINUOUS
 10
197.800000
 20
177.289210
 11
191.283055
 21
177.289210
  0
LINE
  8
1
 62
7
  6
CONTINUOUS
 10
197.800000
 20
160.833164
 11
197.800000
 21
178.789210
  0
LINE
  8
1
 62
7
  6
CONTINUOUS
 10
200.800000
 20
164.333164
 11
200.800000
 21
178.789210
  0
LINE
  8
1
 62
7
  6
CONTINUOUS
 10
200.800000
 20
177.289210
 11
204.000000
 21
177.705210
  0
LINE
  8
1
 62
7
  6
CONTINUOUS
 10
204.000000
 20
177.705210
 11
204.000000
 21
176.873210
  0
LINE
  8
1
 62
7
  6
CONTINUOUS
 10
204.000000
 20
176.873210
 11
200.800000
 21
177.289210
  0
LINE
  8
1
 62
7
  6
CONTINUOUS
 10
197.800000
 20
177.289210
 11
194.600000
 21
176.873210
  0
LINE
  8
1
 62
7
  6
CONTINUOUS
 10
194.600000
 20
176.873210
 11
194.600000
 21
177.705210
  0
LINE
  8
1
 62
7
  6
CONTINUOUS
 10
194.600000
 20
177.705210
 11
197.800000
 21
177.289210
  0
TEXT
  8
1
 62
7
  6
CONTINUOUS
 10
191.283055
 20
179.289210
 40
3.200000
 41
0.900000
  1
3
  7
KANJI
 50
0.000000
 51
0.000000
  0
LINE
  8
1
 62
7
  6
CONTINUOUS
 10
200.800000
 20
189.584000
 11
260.800000
 21
189.584000
  0
LINE
  8
1
 62
7
  6
CONTINUOUS
 10
260.800000
 20
164.333164
 11
260.800000
 21
191.084000
  0
LINE
  8
1
 62
7
  6
CONTINUOUS
 10
200.800000
 20
164.333164
 11
200.800000
 21
191.084000
  0
LINE
  8
1
 62
7
  6
CONTINUOUS
 10
260.800000
 20
189.584000
 11
257.600000
 21
189.168000
  0
LINE
  8
1
 62
7
  6
CONTINUOUS
 10
257.600000
 20
189.168000
 11
257.600000
 21
190.000000
  0
LINE
  8
1
 62
7
  6
CONTINUOUS
 10
257.600000
 20
190.000000
 11
260.800000
 21
189.584000
  0
LINE
  8
1
 62
7
  6
CONTINUOUS
 10
200.800000
 20
189.584000
 11
204.000000
 21
190.000000
  0
LINE
  8
1
 62
7
  6
CONTINUOUS
 10
204.000000
 20
190.000000
 11
204.000000
 21
189.168000
  0
LINE
  8
1
 62
7
  6
CONTINUOUS
 10
204.000000
 20
189.168000
 11
200.800000
 21
189.584000
  0
TEXT
  8
1
 62
7
  6
CONTINUOUS
 10
226.271803
 20
191.584000
 40
3.200000
 41
0.900000
  1
60
  7
KANJI
 50
0.000000
 51
0.000000
  0
TEXT
  8
1
 62
7
  6
CONTINUOUS
 10
232.671803
 20
192.224000
 40
1.920000
 41
0.900000
  1
±1
  7
KANJI
 50
0.000000
 51
0.000000
  0
LINE
  8
1
 62
7
  6
CONTINUOUS
 10
142.507513
 20
105.833164
 11
142.507513
 21
159.833164
  0
LINE
  8
1
 62
7
  6
CONTINUOUS
 10
196.800000
 20
105.833164
 11
141.007513
 21
105.833164
  0
LINE
  8
1
 62
7
  6
CONTINUOUS
 10
196.800000
 20
159.833164
 11
141.007513
 21
159.833164
  0
LINE
  8
1
 62
7
  6
CONTINUOUS
 10
142.507513
 20
159.833164
 11
142.923513
 21
156.633164
  0
LINE
  8
1
 62
7
  6
CONTINUOUS
 10
142.923513
 20
156.633164
 11
142.091513
 21
156.633164
  0
LINE
  8
1
 62
7
  6
CONTINUOUS
 10
142.091513
 20
156.633164
 11
142.507513
 21
159.833164
  0
LINE
  8
1
 62
7
  6
CONTINUOUS
 10
142.507513
 20
105.833164
 11
142.091513
 21
109.033164
  0
LINE
  8
1
 62
7
  6
CONTINUOUS
 10
142.091513
 20
109.033164
 11
142.923513
 21
109.033164
  0
LINE
  8
1
 62
7
  6
CONTINUOUS
 10
142.923513
 20
109.033164
 11
142.507513
 21
105.833164
  0
TEXT
  8
1
 62
7
  6
CONTINUOUS
 10
139.707513
 20
127.120976
 40
3.200000
 41
0.900000
  1
54h7
  7
KANJI
 50
90.000000
 51
0.000000
  0
TEXT
  8
1
 62
7
  6
CONTINUOUS
 10
137.627513
 20
139.280976
 40
1.920000
 41
0.900000
  1
 0
  7
KANJI
 50
90.000000
 51
0.000000
  0
TEXT
  8
1
 62
7
  6
CONTINUOUS
 10
140.507513
 20
139.280976
 40
1.920000
 41
0.900000
  1
-0.03
  7
KANJI
 50
90.000000
 51
0.000000
  0
TEXT
  8
1
 62
7
  6
CONTINUOUS
 10
139.707513
 20
123.476531
 40
3.200000
 41
0.900000
  1
φ
  7
KANJI
 50
90.000000
 51
0.000000
  0
LINE
  8
1
 62
7
  6
CONTINUOUS
 10
52.932642
 20
79.850322
 11
79.932642
 21
79.850322
  0
LINE
  8
1
 62
7
  6
CONTINUOUS
 10
52.932642
 20
98.833164
 11
52.932642
 21
78.350322
  0
LINE
  8
1
 62
7
  6
CONTINUOUS
 10
79.932642
 20
98.833164
 11
79.932642
 21
78.350322
  0
LINE
  8
1
 62
7
  6
CONTINUOUS
 10
52.932642
 20
79.850322
 11
56.132642
 21
80.266322
  0
LINE
  8
1
 62
7
  6
CONTINUOUS
 10
56.132642
 20
80.266322
 11
56.132642
 21
79.434322
  0
LINE
  8
1
 62
7
  6
CONTINUOUS
 10
56.132642
 20
79.434322
 11
52.932642
 21
79.850322
  0
LINE
  8
1
 62
7
  6
CONTINUOUS
 10
79.932642
 20
79.850322
 11
76.732642
 21
79.434322
  0
LINE
  8
1
 62
7
  6
CONTINUOUS
 10
76.732642
 20
79.434322
 11
76.732642
 21
80.266322
  0
LINE
  8
1
 62
7
  6
CONTINUOUS
 10
76.732642
 20
80.266322
 11
79.932642
 21
79.850322
  0
TEXT
  8
1
 62
7
  6
CONTINUOUS
 10
64.221251
 20
81.850322
 40
3.200000
 41
0.900000
  1
27
  7
KANJI
 50
0.000000
 51
0.000000
  0
LINE
  8
1
 62
7
  6
CONTINUOUS
 10
111.597114
 20
108.733164
 11
111.597114
 21
102.333164
  0
LINE
  8
1
 62
7
  6
CONTINUOUS
 10
111.597114
 20
98.833164
 11
111.597114
 21
102.333164
  0
LINE
  8
1
 62
7
  6
CONTINUOUS
 10
111.597114
 20
98.833164
 11
111.597114
 21
88.011515
  0
LINE
  8
1
 62
7
  6
CONTINUOUS
 10
79.932642
 20
98.833164
 11
113.097114
 21
98.833164
  0
LINE
  8
1
 62
7
  6
CONTINUOUS
 10
93.432642
 20
102.333164
 11
113.097114
 21
102.333164
  0
LINE
  8
1
 62
7
  6
CONTINUOUS
 10
111.597114
 20
102.333164
 11
111.181114
 21
105.533164
  0
LINE
  8
1
 62
7
  6
CONTINUOUS
 10
111.181114
 20
105.533164
 11
112.013114
 21
105.533164
  0
LINE
  8
1
 62
7
  6
CONTINUOUS
 10
112.013114
 20
105.533164
 11
111.597114
 21
102.333164
  0
LINE
  8
1
 62
7
  6
CONTINUOUS
 10
111.597114
 20
98.833164
 11
112.013114
 21
95.633164
  0
LINE
  8
1
 62
7
  6
CONTINUOUS
 10
112.013114
 20
95.633164
 11
111.181114
 21
95.633164
  0
LINE
  8
1
 62
7
  6
CONTINUOUS
 10
111.181114
 20
95.633164
 11
111.597114
 21
98.833164
  0
TEXT
  8
1
 62
7
  6
CONTINUOUS
 10
109.597114
 20
88.011515
 40
3.200000
 41
0.900000
  1
3.5
  7
KANJI
 50
90.000000
 51
0.000000
  0
LINE
  8
1
 62
7
  6
CONTINUOUS
 10
44.704153
 20
160.271690
 11
88.161132
 21
105.394638
  0
LINE
  8
1
 62
7
  6
CONTINUOUS
 10
88.161132
 20
105.394638
 11
85.848401
 21
107.645044
  0
LINE
  8
1
 62
7
  6
CONTINUOUS
 10
85.848401
 20
107.645044
 11
86.500654
 21
108.161562
  0
LINE
  8
1
 62
7
  6
CONTINUOUS
 10
86.500654
 20
108.161562
 11
88.161132
 21
105.394638
  0
LINE
  8
1
 62
7
  6
CONTINUOUS
 10
44.704153
 20
160.271690
 11
47.016884
 21
158.021284
  0
LINE
  8
1
 62
7
  6
CONTINUOUS
 10
47.016884
 20
158.021284
 11
46.364631
 21
157.504766
  0
LINE
  8
1
 62
7
  6
CONTINUOUS
 10
46.364631
 20
157.504766
 11
44.704153
 21
160.271690
  0
TEXT
  8
1
 62
7
  6
CONTINUOUS
 10
76.052626
 20
123.906719
 40
3.200000
 41
0.900000
  1
70
  7
KANJI
 50
308.375601
 51
0.000000
  0
TEXT
  8
1
 62
7
  6
CONTINUOUS
 10
73.790104
 20
126.763810
 40
3.200000
 41
0.900000
  1
φ
  7
KANJI
 50
308.375601
 51
0.000000
  0
LINE
  8
1
 62
7
  6
CONTINUOUS
 10
83.685635
 20
158.603431
 11
83.074595
 21
159.214470
  0
LINE
  8
1
 62
7
  6
CONTINUOUS
 10
83.685635
 20
160.062897
 11
83.074595
 21
159.451858
  0
LINE
  8
1
 62
7
  6
CONTINUOUS
 10
81.702909
 20
158.080172
 11
82.313949
 21
158.691211
  0
LINE
  8
1
 62
7
  6
CONTINUOUS
 10
82.557471
 20
158.685076
 11
83.162376
 21
158.080172
  0
LINE
  8
1
 62
7
  6
CONTINUOUS
 10
82.551336
 20
158.691211
 11
82.557471
 21
158.685076
  0
LINE
  8
1
 62
7
  6
CONTINUOUS
 10
81.179650
 20
160.062897
 11
81.790690
 21
159.451858
  0
LINE
  8
1
 62
7
  6
CONTINUOUS
 10
81.179650
 20
158.603431
 11
81.790690
 21
159.214470
  0
LINE
  8
1
 62
7
  6
CONTINUOUS
 10
83.162376
 20
160.586156
 11
82.551336
 21
159.975117
  0
LINE
  8
1
 62
7
  6
CONTINUOUS
 10
81.702909
 20
160.586156
 11
82.313949
 21
159.975117
  0
LINE
  8
1
 62
7
  6
CONTINUOUS
 10
82.432642
 20
167.133164
 11
82.432642
 21
151.533164
  0
LINE
  8
1
 62
7
  6
CONTINUOUS
 10
90.232642
 20
159.333164
 11
74.632642
 21
159.333164
  0
ARC
  8
1
 62
7
  6
CONTINUOUS
 10
82.432642
 20
159.333164
 40
0.635000
 50
-7.458449
 51
7.458449
  0
ARC
  8
1
 62
7
  6
CONTINUOUS
 10
82.432642
 20
159.333164
 40
1.450000
 50
-59.783802
 51
-30.216198
  0
ARC
  8
1
 62
7
  6
CONTINUOUS
 10
82.432642
 20
159.333164
 40
0.635000
 50
-97.458449
 51
-82.541551
  0
ARC
  8
1
 62
7
  6
CONTINUOUS
 10
82.432642
 20
159.333164
 40
1.450000
 50
-149.783802
 51
-120.216198
  0
ARC
  8
1
 62
7
  6
CONTINUOUS
 10
82.432642
 20
159.333164
 40
0.635000
 50
172.541551
 51
-172.541551
  0
ARC
  8
1
 62
7
  6
CONTINUOUS
 10
82.432642
 20
159.333164
 40
1.450000
 50
120.216198
 51
149.783802
  0
ARC
  8
1
 62
7
  6
CONTINUOUS
 10
82.432642
 20
159.333164
 40
0.635000
 50
82.541551
 51
97.458449
  0
ARC
  8
1
 62
7
  6
CONTINUOUS
 10
82.432642
 20
159.333164
 40
1.450000
 50
30.216198
 51
59.783802
  0
CIRCLE
  8
1
 62
7
  6
CONTINUOUS
 10
82.432642
 20
159.333164
 40
2.800000
  0
ARC
  8
1
 62
7
  6
CONTINUOUS
 10
83.105237
 20
159.245111
 40
0.043333
 50
172.541551
 51
-135.000000
  0
ARC
  8
1
 62
7
  6
CONTINUOUS
 10
83.105237
 20
159.421216
 40
0.043333
 50
135.000000
 51
-172.541551
  0
ARC
  8
1
 62
7
  6
CONTINUOUS
 10
82.344590
 20
158.660570
 40
0.043333
 50
82.541551
 51
135.000000
  0
ARC
  8
1
 62
7
  6
CONTINUOUS
 10
82.520695
 20
158.660570
 40
0.043333
 50
45.000000
 51
97.458449
  0
ARC
  8
1
 62
7
  6
CONTINUOUS
 10
81.760048
 20
159.421216
 40
0.043333
 50
-7.458449
 51
45.000000
  0
ARC
  8
1
 62
7
  6
CONTINUOUS
 10
81.760048
 20
159.245111
 40
0.043333
 50
-45.000000
 51
7.458449
  0
ARC
  8
1
 62
7
  6
CONTINUOUS
 10
82.520695
 20
160.005758
 40
0.043333
 50
-97.458449
 51
-45.000000
  0
ARC
  8
1
 62
7
  6
CONTINUOUS
 10
82.344590
 20
160.005758
 40
0.043333
 50
-135.000000
 51
-82.541551
  0
LINE
  8
1
 62
7
  6
CONTINUOUS
 10
94.185635
 20
116.103431
 11
93.574595
 21
116.714470
  0
LINE
  8
1
 62
7
  6
CONTINUOUS
 10
94.185635
 20
117.562897
 11
93.574595
 21
116.951858
  0
LINE
  8
1
 62
7
  6
CONTINUOUS
 10
92.202909
 20
115.580172
 11
92.813949
 21
116.191211
  0
LINE
  8
1
 62
7
  6
CONTINUOUS
 10
93.057471
 20
116.185076
 11
93.662376
 21
115.580172
  0
LINE
  8
1
 62
7
  6
CONTINUOUS
 10
93.051336
 20
116.191211
 11
93.057471
 21
116.185076
  0
LINE
  8
1
 62
7
  6
CONTINUOUS
 10
91.679650
 20
117.562897
 11
92.290690
 21
116.951858
  0
LINE
  8
1
 62
7
  6
CONTINUOUS
 10
91.679650
 20
116.103431
 11
92.290690
 21
116.714470
  0
LINE
  8
1
 62
7
  6
CONTINUOUS
 10
93.662376
 20
118.086156
 11
93.051336
 21
117.475117
  0
LINE
  8
1
 62
7
  6
CONTINUOUS
 10
92.202909
 20
118.086156
 11
92.813949
 21
117.475117
  0
LINE
  8
1
 62
7
  6
CONTINUOUS
 10
92.932642
 20
124.633164
 11
92.932642
 21
109.033164
  0
LINE
  8
1
 62
7
  6
CONTINUOUS
 10
100.732642
 20
116.833164
 11
85.132642
 21
116.833164
  0
ARC
  8
1
 62
7
  6
CONTINUOUS
 10
92.932642
 20
116.833164
 40
0.635000
 50
-7.458449
 51
7.458449
  0
ARC
  8
1
 62
7
  6
CONTINUOUS
 10
92.932642
 20
116.833164
 40
1.450000
 50
-59.783802
 51
-30.216198
  0
ARC
  8
1
 62
7
  6
CONTINUOUS
 10
92.932642
 20
116.833164
 40
0.635000
 50
-97.458449
 51
-82.541551
  0
ARC
  8
1
 62
7
  6
CONTINUOUS
 10
92.932642
 20
116.833164
 40
1.450000
 50
-149.783802
 51
-120.216198
  0
ARC
  8
1
 62
7
  6
CONTINUOUS
 10
92.932642
 20
116.833164
 40
0.635000
 50
172.541551
 51
-172.541551
  0
ARC
  8
1
 62
7
  6
CONTINUOUS
 10
92.932642
 20
116.833164
 40
1.450000
 50
120.216198
 51
149.783802
  0
ARC
  8
1
 62
7
  6
CONTINUOUS
 10
92.932642
 20
116.833164
 40
0.635000
 50
82.541551
 51
97.458449
  0
ARC
  8
1
 62
7
  6
CONTINUOUS
 10
92.932642
 20
116.833164
 40
1.450000
 50
30.216198
 51
59.783802
  0
CIRCLE
  8
1
 62
7
  6
CONTINUOUS
 10
92.932642
 20
116.833164
 40
2.800000
  0
ARC
  8
1
 62
7
  6
CONTINUOUS
 10
93.605237
 20
116.745111
 40
0.043333
 50
172.541551
 51
-135.000000
  0
ARC
  8
1
 62
7
  6
CONTINUOUS
 10
93.605237
 20
116.921216
 40
0.043333
 50
135.000000
 51
-172.541551
  0
ARC
  8
1
 62
7
  6
CONTINUOUS
 10
92.844590
 20
116.160570
 40
0.043333
 50
82.541551
 51
135.000000
  0
ARC
  8
1
 62
7
  6
CONTINUOUS
 10
93.020695
 20
116.160570
 40
0.043333
 50
45.000000
 51
97.458449
  0
ARC
  8
1
 62
7
  6
CONTINUOUS
 10
92.260048
 20
116.921216
 40
0.043333
 50
-7.458449
 51
45.000000
  0
ARC
  8
1
 62
7
  6
CONTINUOUS
 10
92.260048
 20
116.745111
 40
0.043333
 50
-45.000000
 51
7.458449
  0
ARC
  8
1
 62
7
  6
CONTINUOUS
 10
93.020695
 20
117.505758
 40
0.043333
 50
-97.458449
 51
-45.000000
  0
ARC
  8
1
 62
7
  6
CONTINUOUS
 10
92.844590
 20
117.505758
 40
0.043333
 50
-135.000000
 51
-82.541551
  0
LINE
  8
1
 62
7
  6
CONTINUOUS
 10
51.685635
 20
105.603431
 11
51.074595
 21
106.214470
  0
LINE
  8
1
 62
7
  6
CONTINUOUS
 10
51.685635
 20
107.062897
 11
51.074595
 21
106.451858
  0
LINE
  8
1
 62
7
  6
CONTINUOUS
 10
49.702909
 20
105.080172
 11
50.313949
 21
105.691211
  0
LINE
  8
1
 62
7
  6
CONTINUOUS
 10
50.557471
 20
105.685076
 11
51.162376
 21
105.080172
  0
LINE
  8
1
 62
7
  6
CONTINUOUS
 10
50.551336
 20
105.691211
 11
50.557471
 21
105.685076
  0
LINE
  8
1
 62
7
  6
CONTINUOUS
 10
49.179650
 20
107.062897
 11
49.790690
 21
106.451858
  0
LINE
  8
1
 62
7
  6
CONTINUOUS
 10
49.179650
 20
105.603431
 11
49.790690
 21
106.214470
  0
LINE
  8
1
 62
7
  6
CONTINUOUS
 10
51.162376
 20
107.586156
 11
50.551336
 21
106.975117
  0
LINE
  8
1
 62
7
  6
CONTINUOUS
 10
49.702909
 20
107.586156
 11
50.313949
 21
106.975117
  0
LINE
  8
1
 62
7
  6
CONTINUOUS
 10
50.432642
 20
114.133164
 11
50.432642
 21
98.533164
  0
LINE
  8
1
 62
7
  6
CONTINUOUS
 10
58.232642
 20
106.333164
 11
42.632642
 21
106.333164
  0
ARC
  8
1
 62
7
  6
CONTINUOUS
 10
50.432642
 20
106.333164
 40
0.635000
 50
-7.458449
 51
7.458449
  0
ARC
  8
1
 62
7
  6
CONTINUOUS
 10
50.432642
 20
106.333164
 40
1.450000
 50
-59.783802
 51
-30.216198
  0
ARC
  8
1
 62
7
  6
CONTINUOUS
 10
50.432642
 20
106.333164
 40
0.635000
 50
-97.458449
 51
-82.541551
  0
ARC
  8
1
 62
7
  6
CONTINUOUS
 10
50.432642
 20
106.333164
 40
1.450000
 50
-149.783802
 51
-120.216198
  0
ARC
  8
1
 62
7
  6
CONTINUOUS
 10
50.432642
 20
106.333164
 40
0.635000
 50
172.541551
 51
-172.541551
  0
ARC
  8
1
 62
7
  6
CONTINUOUS
 10
50.432642
 20
106.333164
 40
1.450000
 50
120.216198
 51
149.783802
  0
ARC
  8
1
 62
7
  6
CONTINUOUS
 10
50.432642
 20
106.333164
 40
0.635000
 50
82.541551
 51
97.458449
  0
ARC
  8
1
 62
7
  6
CONTINUOUS
 10
50.432642
 20
106.333164
 40
1.450000
 50
30.216198
 51
59.783802
  0
CIRCLE
  8
1
 62
7
  6
CONTINUOUS
 10
50.432642
 20
106.333164
 40
2.800000
  0
ARC
  8
1
 62
7
  6
CONTINUOUS
 10
51.105237
 20
106.245111
 40
0.043333
 50
172.541551
 51
-135.000000
  0
ARC
  8
1
 62
7
  6
CONTINUOUS
 10
51.105237
 20
106.421216
 40
0.043333
 50
135.000000
 51
-172.541551
  0
ARC
  8
1
 62
7
  6
CONTINUOUS
 10
50.344590
 20
105.660570
 40
0.043333
 50
82.541551
 51
135.000000
  0
ARC
  8
1
 62
7
  6
CONTINUOUS
 10
50.520695
 20
105.660570
 40
0.043333
 50
45.000000
 51
97.458449
  0
ARC
  8
1
 62
7
  6
CONTINUOUS
 10
49.760048
 20
106.421216
 40
0.043333
 50
-7.458449
 51
45.000000
  0
ARC
  8
1
 62
7
  6
CONTINUOUS
 10
49.760048
 20
106.245111
 40
0.043333
 50
-45.000000
 51
7.458449
  0
ARC
  8
1
 62
7
  6
CONTINUOUS
 10
50.520695
 20
107.005758
 40
0.043333
 50
-97.458449
 51
-45.000000
  0
ARC
  8
1
 62
7
  6
CONTINUOUS
 10
50.344590
 20
107.005758
 40
0.043333
 50
-135.000000
 51
-82.541551
  0
LINE
  8
1
 62
7
  6
CONTINUOUS
 10
41.185635
 20
148.103431
 11
40.574595
 21
148.714470
  0
LINE
  8
1
 62
7
  6
CONTINUOUS
 10
41.185635
 20
149.562897
 11
40.574595
 21
148.951858
  0
LINE
  8
1
 62
7
  6
CONTINUOUS
 10
39.202909
 20
147.580172
 11
39.813949
 21
148.191211
  0
LINE
  8
1
 62
7
  6
CONTINUOUS
 10
40.057471
 20
148.185076
 11
40.662376
 21
147.580172
  0
LINE
  8
1
 62
7
  6
CONTINUOUS
 10
40.051336
 20
148.191211
 11
40.057471
 21
148.185076
  0
LINE
  8
1
 62
7
  6
CONTINUOUS
 10
38.679650
 20
149.562897
 11
39.290690
 21
148.951858
  0
LINE
  8
1
 62
7
  6
CONTINUOUS
 10
38.679650
 20
148.103431
 11
39.290690
 21
148.714470
  0
LINE
  8
1
 62
7
  6
CONTINUOUS
 10
40.662376
 20
150.086156
 11
40.051336
 21
149.475117
  0
LINE
  8
1
 62
7
  6
CONTINUOUS
 10
39.202909
 20
150.086156
 11
39.813949
 21
149.475117
  0
LINE
  8
1
 62
7
  6
CONTINUOUS
 10
39.932642
 20
156.633164
 11
39.932642
 21
141.033164
  0
LINE
  8
1
 62
7
  6
CONTINUOUS
 10
47.732642
 20
148.833164
 11
32.132642
 21
148.833164
  0
ARC
  8
1
 62
7
  6
CONTINUOUS
 10
39.932642
 20
148.833164
 40
0.635000
 50
-7.458449
 51
7.458449
  0
ARC
  8
1
 62
7
  6
CONTINUOUS
 10
39.932642
 20
148.833164
 40
1.450000
 50
-59.783802
 51
-30.216198
  0
ARC
  8
1
 62
7
  6
CONTINUOUS
 10
39.932642
 20
148.833164
 40
0.635000
 50
-97.458449
 51
-82.541551
  0
ARC
  8
1
 62
7
  6
CONTINUOUS
 10
39.932642
 20
148.833164
 40
1.450000
 50
-149.783802
 51
-120.216198
  0
ARC
  8
1
 62
7
  6
CONTINUOUS
 10
39.932642
 20
148.833164
 40
0.635000
 50
172.541551
 51
-172.541551
  0
ARC
  8
1
 62
7
  6
CONTINUOUS
 10
39.932642
 20
148.833164
 40
1.450000
 50
120.216198
 51
149.783802
  0
ARC
  8
1
 62
7
  6
CONTINUOUS
 10
39.932642
 20
148.833164
 40
0.635000
 50
82.541551
 51
97.458449
  0
ARC
  8
1
 62
7
  6
CONTINUOUS
 10
39.932642
 20
148.833164
 40
1.450000
 50
30.216198
 51
59.783802
  0
CIRCLE
  8
1
 62
7
  6
CONTINUOUS
 10
39.932642
 20
148.833164
 40
2.800000
  0
ARC
  8
1
 62
7
  6
CONTINUOUS
 10
40.605237
 20
148.745111
 40
0.043333
 50
172.541551
 51
-135.000000
  0
ARC
  8
1
 62
7
  6
CONTINUOUS
 10
40.605237
 20
148.921216
 40
0.043333
 50
135.000000
 51
-172.541551
  0
ARC
  8
1
 62
7
  6
CONTINUOUS
 10
39.844590
 20
148.160570
 40
0.043333
 50
82.541551
 51
135.000000
  0
ARC
  8
1
 62
7
  6
CONTINUOUS
 10
40.020695
 20
148.160570
 40
0.043333
 50
45.000000
 51
97.458449
  0
ARC
  8
1
 62
7
  6
CONTINUOUS
 10
39.260048
 20
148.921216
 40
0.043333
 50
-7.458449
 51
45.000000
  0
ARC
  8
1
 62
7
  6
CONTINUOUS
 10
39.260048
 20
148.745111
 40
0.043333
 50
-45.000000
 51
7.458449
  0
ARC
  8
1
 62
7
  6
CONTINUOUS
 10
40.020695
 20
149.505758
 40
0.043333
 50
-97.458449
 51
-45.000000
  0
ARC
  8
1
 62
7
  6
CONTINUOUS
 10
39.844590
 20
149.505758
 40
0.043333
 50
-135.000000
 51
-82.541551
  0
LINE
  8
1
 62
7
  6
CONTINUOUS
 10
271.822235
 20
127.374674
 11
297.822235
 21
127.374674
  0
LINE
  8
1
 62
7
  6
CONTINUOUS
 10
297.822235
 20
127.374674
 11
297.822235
 21
119.095995
  0
LINE
  8
1
 62
7
  6
CONTINUOUS
 10
297.822235
 20
119.095995
 11
271.822235
 21
119.095995
  0
LINE
  8
1
 62
7
  6
CONTINUOUS
 10
271.822235
 20
119.095995
 11
271.822235
 21
127.374674
  0
LINE
  8
1
 62
7
  6
CONTINUOUS
 10
277.822235
 20
127.374674
 11
277.822235
 21
119.095995
  0
LINE
  8
1
 62
7
  6
CONTINUOUS
 10
274.822235
 20
119.595995
 11
274.822235
 21
126.874674
  0
LINE
  8
1
 62
7
  6
CONTINUOUS
 10
274.822235
 20
126.874674
 11
273.322235
 21
124.374674
  0
LINE
  8
1
 62
7
  6
CONTINUOUS
 10
273.322235
 20
124.374674
 11
275.822235
 21
124.374674
  0
TEXT
  8
1
 62
7
  6
CONTINUOUS
 10
277.416962
 20
120.188190
 40
3.000000
 41
0.630000
  1
LETTER DIR.
  7
KANJI
 50
0.000000
 51
0.000000
  0
TEXT
  8
1
 62
7
  6
CONTINUOUS
 10
278.921566
 20
123.927823
 40
3.000000
 41
0.900000
  1
文字ノ向キ
  7
KANJI
 50
0.000000
 51
0.000000
  0
LINE
  8
1
 62
7
  6
CONTINUOUS
 10
200.800000
 20
177.289210
 11
208.800000
 21
177.289210
  0
LINE
  8
1
 62
7
  6
CONTINUOUS
 10
200.800000
 20
164.333164
 11
200.800000
 21
178.789210
  0
LINE
  8
1
 62
7
  6
CONTINUOUS
 10
208.800000
 20
164.333164
 11
208.800000
 21
178.789210
  0
LINE
  8
1
 62
7
  6
CONTINUOUS
 10
208.800000
 20
177.289210
 11
205.600000
 21
176.873210
  0
LINE
  8
1
 62
7
  6
CONTINUOUS
 10
205.600000
 20
176.873210
 11
205.600000
 21
177.705210
  0
LINE
  8
1
 62
7
  6
CONTINUOUS
 10
205.600000
 20
177.705210
 11
208.800000
 21
177.289210
  0
TEXT
  8
1
 62
7
  6
CONTINUOUS
 10
204.031768
 20
179.289210
 40
3.200000
 41
0.900000
  1
8
  7
KANJI
 50
0.000000
 51
0.000000
  0
LINE
  8
1
 62
7
  6
CONTINUOUS
 10
91.753850
 20
159.757856
 11
94.904010
 21
171.731592
  0
LINE
  8
1
 62
7
  6
CONTINUOUS
 10
94.904010
 20
171.731592
 11
74.779565
 21
171.731592
  0
LINE
  8
1
 62
7
  6
CONTINUOUS
 10
91.753850
 20
159.757856
 11
92.165720
 21
162.958390
  0
LINE
  8
1
 62
7
  6
CONTINUOUS
 10
92.165720
 20
162.958390
 11
92.970339
 21
162.746703
  0
LINE
  8
1
 62
7
  6
CONTINUOUS
 10
92.970339
 20
162.746703
 11
91.753850
 21
159.757856
  0
TEXT
  8
1
 62
7
  6
CONTINUOUS
 10
83.864010
 20
173.731592
 40
3.200000
 41
0.900000
  1
4.5
  7
KANJI
 50
0.000000
 51
0.000000
  0
TEXT
  8
1
 62
7
  6
CONTINUOUS
 10
74.779565
 20
173.731592
 40
3.200000
 41
0.900000
  1
4-φ
  7
KANJI
 50
0.000000
 51
0.000000
  0
ENDSEC
  0
EOF
