  0
SECTION
  2
HEADER
  9
$ACADVER
  1
AC1003
  9
$INSBASE
 10
0.000000
 20
0.000000
  9
$EXTMIN
 10
0.000000
 20
0.000000
  9
$EXTMAX
 10
420.000000
 20
297.000000
  9
$LIMMIN
 10
0.000000
 20
0.000000
  9
$LIMMAX
 10
420.000000
 20
297.000000
  9
$VIEWCTR
 10
210.000000
 20
148.500000
  9
$VIEWSIZE
 40
297.000000
  9
$PEXTMIN
 10
0.000000
 20
0.000000
 30
0.000000
  9
$PEXTMAX
 10
420.000000
 20
297.000000
 30
0.000000
  9
$SNAPMODE
 70
     0
  9
$SNAPUNIT
 10
1.000000
 20
1.000000
  9
$SNAPBASE
 10
0.000000
 20
0.000000
  9
$SNAPANG
 50
0.000000
  9
$SNAPISOPAIR
 70
     0
  9
$SNAPSTYLE
 70
     0
  9
$GRIDMODE
 70
     0
  9
$GRIDUNIT
 10
0.000000
 20
0.000000
  9
$ORTHOMODE
 70
     0
  9
$REGENMODE
 70
     1
  9
$FILLMODE
 70
     1
  9
$QTEXTMODE
 70
     0
  9
$DRAGMODE
 70
     2
  9
$LTSCALE
 40
0.250000
  9
$OSMODE
 70
     0
  9
$ATTMODE
 70
     1
  9
$TEXTSIZE
 40
0.200000
  9
$TRACEWID
 40
0.050000
  9
$TEXTSTYLE
  7
STANDARD
  9
$CLAYER
  8
0
  9
$CELTYPE
  6
BYLAYER
  9
$CECOLOR
 62
   256
  9
$DIMSCALE
 40
1.000000
  9
$DIMASZ
 40
1.000000
  9
$DIMEXO
 40
0.000000
  9
$DIMDLI
 40
0.500000
  9
$DIMRND
 40
0.000000
  9
$DIMDLE
 40
0.000000
  9
$DIMEXE
 40
0.000000
  9
$DIMTP
 40
0.000000
  9
$DIMTM
 40
0.000000
  9
$DIMTXT
 40
0.180000
  9
$DIMCEN
 40
0.000000
  9
$DIMTSZ
 40
0.000000
  9
$DIMTOL
 70
     0
  9
$DIMLIM
 70
     0
  9
$DIMTIH
 70
     1
  9
$DIMTOH
 70
     1
  9
$DIMSE1
 70
     0
  9
$DIMSE2
 70
     0
  9
$DIMTAD
 70
     0
  9
$DIMZIN
 70
     0
  9
$DIMBLK
  1

  9
$DIMASO
 70
     0
  9
$DIMSHO
 70
     0
  9
$DIMPOST
  1

  9
$DIMAPOST
  1

  9
$DIMALT
 70
     0
  9
$DIMALTD
 70
     0
  9
$DIMALTF
 40
25.400000
  9
$DIMLFAC
 40
1.000000
  9
$DIMTOFL
 70
     0
  9
$DIMTVP
 40
0.000000
  9
$DIMTIX
 70
     0
  9
$DIMSOXD
 70
     0
  9
$DIMSAH
 70
     0
  9
$DIMBLKL
  1

  9
$DIMBLKR
  1

  9
$LUNITS
 70
     2
  9
$LUPREC
 70
     2
  9
$AXISMODE
 70
     0
  9
$AXISUNIT
 10
1.000000
 20
1.000000
  9
$SKETCHINC
 40
0.000000
  9
$FILLETRAD
 40
0.000000
  9
$AUNITS
 70
     1
  9
$AUPREC
 70
     2
  9
$MENU
  1
ACAD
  9
$ELEVATION
 40
0.000000
  9
$THICKNESS
 40
0.000000
  9
$VIEWDIR
 10
0.000000
 20
0.000000
 30
1.000000
  9
$LIMCHECK
 70
     1
  9
$BLIPMODE
 70
     1
  9
$CHAMFERA
 40
0.000000
  9
$CHAMFERB
 40
0.000000
  9
$FASTZOOM
 70
     1
  9
$SKPOLY
 70
     0
  9
$TDCREATE
 40
0.000000
  9
$TDUPDATE
 40
0.000000
  9
$TDINDWG
 40
0.000000
  9
$TDUSRTIMER
 40
0.000000
  9
$USRTIMER
 70
     1
  9
$ANGBASE
 50
0.000000
  9
$ANGDIR
 70
     0
  9
$PDMODE
 70
     0
  9
$PDSIZE
 40
0.000000
  9
$PLINEWID
 40
0.000000
  9
$COORDS
 70
     2
  9
$USERI1
 70
     0
  9
$USERI2
 70
     0
  9
$USERI3
 70
     0
  9
$USERI4
 70
     0
  9
$USERI5
 70
     0
  9
$USERR1
 40
0.000000
  9
$USERR2
 40
0.000000
  9
$USERR3
 40
0.000000
  9
$USERR4
 40
0.000000
  9
$USERR5
 40
0.000000
  0
ENDSEC
  0
SECTION
  2
TABLES
  0
TABLE
  2
LTYPE
 70
     5
  0
LTYPE
  2
CONTINUOUS
 70
    64
  3
Solid line
 72
    65
 73
     0
 40
0.0
  0
LTYPE
  2
HIDDEN
 70
    64
  3
------------------------
 72
    65
 73
     2
 40
12.6
 49
8.4
 49
-4.2
  0
LTYPE
  2
DOT
 70
    64
  3
････････････････････････
 72
    65
 73
     2
 40
8.0
 49
6.0
 49
-2.0
  0
LTYPE
  2
DASHDOT
 70
    64
  3
--･--･--･--･--･--･--･--
 72
    65
 73
     4
 40
50.5
 49
30.0
 49
-9.0
 49
2.5
 49
-9.0
  0
LTYPE
  2
DIVIDE
 70
    64
  3
--･･--･･--･･--･･--･･--
 72
    65
 73
     6
 40
58.0
 49
30.0
 49
-9.0
 49
2.5
 49
-5.0
 49
2.5
 49
-9.0
  0
ENDTAB
  0
TABLE
  2
LAYER
 70
1
  0
LAYER
  2
1
 70
64
 62
7
  6
CONTINUOUS
  0
ENDTAB
  0
TABLE
  2
STYLE
 70
     2
  0
STYLE
  2
STANDARD
 70
    64
 40
0.0
 41
1.0
 50
0.0
 71
     0
 42
0.2
  3
TXT
  4

  0
STYLE
  2
KANJI
 70
    64
 40
0.0
 41
1.0
 50
0.0
 71
     0
 42
0.2
  3
TXT
  4
BIGFONT
  0
ENDTAB
  0
TABLE
  2
VIEW
 70
     0
  0
ENDTAB
  0
ENDSEC
  0
SECTION
  2
BLOCKS
  0
ENDSEC
  0
SECTION
  2
ENTITIES
  0
LINE
  8
1
 62
7
  6
DIVIDE
 10
0.000000
 20
300.507874
 11
0.000000
 21
300.000000
  0
LINE
  8
1
 62
7
  6
CONTINUOUS
 10
20.000000
 20
300.507874
 11
20.000000
 21
300.000000
  0
LINE
  8
1
 62
7
  6
CONTINUOUS
 10
281.945078
 20
52.434279
 11
282.119904
 21
52.609105
  0
LINE
  8
1
 62
7
  6
CONTINUOUS
 10
281.945078
 20
52.151436
 11
282.402747
 21
52.609105
  0
LINE
  8
1
 62
7
  6
CONTINUOUS
 10
281.945078
 20
51.868594
 11
282.685590
 21
52.609105
  0
LINE
  8
1
 62
7
  6
CONTINUOUS
 10
281.945078
 20
51.585751
 11
282.968433
 21
52.609105
  0
LINE
  8
1
 62
7
  6
CONTINUOUS
 10
281.945078
 20
51.302908
 11
283.251275
 21
52.609105
  0
LINE
  8
1
 62
7
  6
CONTINUOUS
 10
281.945078
 20
51.020066
 11
283.534118
 21
52.609105
  0
LINE
  8
1
 62
7
  6
CONTINUOUS
 10
281.945078
 20
50.737223
 11
283.816961
 21
52.609105
  0
LINE
  8
1
 62
7
  6
CONTINUOUS
 10
282.099803
 20
50.609105
 11
284.099803
 21
52.609105
  0
LINE
  8
1
 62
7
  6
CONTINUOUS
 10
282.382646
 20
50.609105
 11
284.382646
 21
52.609105
  0
LINE
  8
1
 62
7
  6
CONTINUOUS
 10
282.665489
 20
50.609105
 11
284.665489
 21
52.609105
  0
LINE
  8
1
 62
7
  6
CONTINUOUS
 10
282.948332
 20
50.609105
 11
284.948332
 21
52.609105
  0
LINE
  8
1
 62
7
  6
CONTINUOUS
 10
283.231174
 20
50.609105
 11
285.231174
 21
52.609105
  0
LINE
  8
1
 62
7
  6
CONTINUOUS
 10
286.397875
 20
53.492963
 11
286.514017
 21
53.609105
  0
LINE
  8
1
 62
7
  6
CONTINUOUS
 10
283.514017
 20
50.609105
 11
285.514017
 21
52.609105
  0
LINE
  8
1
 62
7
  6
CONTINUOUS
 10
286.397875
 20
53.210121
 11
286.796860
 21
53.609105
  0
LINE
  8
1
 62
7
  6
CONTINUOUS
 10
283.796860
 20
50.609105
 11
285.796860
 21
52.609105
  0
LINE
  8
1
 62
7
  6
CONTINUOUS
 10
286.397875
 20
52.927278
 11
287.079702
 21
53.609105
  0
LINE
  8
1
 62
7
  6
CONTINUOUS
 10
284.079702
 20
50.609105
 11
286.079702
 21
52.609105
  0
LINE
  8
1
 62
7
  6
CONTINUOUS
 10
286.397875
 20
52.644435
 11
287.362545
 21
53.609105
  0
LINE
  8
1
 62
7
  6
CONTINUOUS
 10
284.362545
 20
50.609105
 11
286.362545
 21
52.609105
  0
LINE
  8
1
 62
7
  6
CONTINUOUS
 10
284.645388
 20
50.609105
 11
287.397875
 21
53.361592
  0
LINE
  8
1
 62
7
  6
CONTINUOUS
 10
284.928231
 20
50.609105
 11
287.397875
 21
53.078750
  0
LINE
  8
1
 62
7
  6
CONTINUOUS
 10
285.211073
 20
50.609105
 11
287.397875
 21
52.795907
  0
LINE
  8
1
 62
7
  6
CONTINUOUS
 10
285.493916
 20
50.609105
 11
287.397875
 21
52.513064
  0
LINE
  8
1
 62
7
  6
CONTINUOUS
 10
285.776759
 20
50.609105
 11
287.397875
 21
52.230222
  0
LINE
  8
1
 62
7
  6
CONTINUOUS
 10
286.059601
 20
50.609105
 11
287.397875
 21
51.947379
  0
LINE
  8
1
 62
7
  6
CONTINUOUS
 10
286.342444
 20
50.609105
 11
287.397875
 21
51.664536
  0
LINE
  8
1
 62
7
  6
CONTINUOUS
 10
286.397875
 20
50.381693
 11
287.397875
 21
51.381693
  0
LINE
  8
1
 62
7
  6
CONTINUOUS
 10
286.397875
 20
50.098851
 11
287.397875
 21
51.098851
  0
LINE
  8
1
 62
7
  6
CONTINUOUS
 10
286.397875
 20
49.816008
 11
287.397875
 21
50.816008
  0
LINE
  8
1
 62
7
  6
CONTINUOUS
 10
286.473815
 20
49.609105
 11
287.397875
 21
50.533165
  0
LINE
  8
1
 62
7
  6
CONTINUOUS
 10
286.756658
 20
49.609105
 11
287.397875
 21
50.250323
  0
LINE
  8
1
 62
7
  6
CONTINUOUS
 10
287.039500
 20
49.609105
 11
287.397875
 21
49.967480
  0
LINE
  8
1
 62
7
  6
CONTINUOUS
 10
287.322343
 20
49.609105
 11
287.397875
 21
49.684637
  0
LINE
  8
1
 62
7
  6
CONTINUOUS
 10
88.636710
 20
80.883003
 11
88.636710
 21
72.667057
  0
LINE
  8
1
 62
7
  6
CONTINUOUS
 10
87.636710
 20
72.677637
 11
87.636710
 21
80.883003
  0
LINE
  8
1
 62
7
  6
CONTINUOUS
 10
86.636710
 20
80.883003
 11
86.636710
 21
72.474156
  0
LINE
  8
1
 62
7
  6
CONTINUOUS
 10
85.587955
 20
72.141951
 11
85.587955
 21
80.883003
  0
LINE
  8
1
 62
7
  6
CONTINUOUS
 10
84.636710
 20
80.883003
 11
84.636710
 21
71.871446
  0
LINE
  8
1
 62
7
  6
CONTINUOUS
 10
286.397875
 20
80.883003
 11
286.397875
 21
58.946183
  0
LINE
  8
1
 62
7
  6
CONTINUOUS
 10
285.397875
 20
58.956763
 11
285.397875
 21
80.883003
  0
LINE
  8
1
 62
7
  6
CONTINUOUS
 10
284.397875
 20
80.883003
 11
284.397875
 21
58.753282
  0
LINE
  8
1
 62
7
  6
CONTINUOUS
 10
283.349120
 20
58.421077
 11
283.349120
 21
80.883003
  0
LINE
  8
1
 62
7
  6
CONTINUOUS
 10
282.397875
 20
80.883003
 11
282.397875
 21
58.150572
  0
LINE
  8
1
 62
7
  6
CONTINUOUS
 10
290.647875
 20
85.383003
 11
290.647875
 21
81.883003
  0
LINE
  8
1
 62
7
  6
CONTINUOUS
 10
289.647875
 20
85.383003
 11
289.647875
 21
81.883003
  0
LINE
  8
1
 62
7
  6
CONTINUOUS
 10
271.047875
 20
81.883003
 11
290.647875
 21
81.883003
  0
LINE
  8
1
 62
7
  6
CONTINUOUS
 10
271.047875
 20
85.383003
 11
271.047875
 21
81.883003
  0
LINE
  8
1
 62
7
  6
CONTINUOUS
 10
82.136710
 20
81.883003
 11
82.136710
 21
80.883003
  0
LINE
  8
1
 62
7
  6
CONTINUOUS
 10
82.136710
 20
80.883003
 11
91.136710
 21
80.883003
  0
LINE
  8
1
 62
7
  6
CONTINUOUS
 10
91.136710
 20
80.883003
 11
91.136710
 21
81.883003
  0
LINE
  8
1
 62
7
  6
CONTINUOUS
 10
60.136710
 20
128.089681
 11
60.136710
 21
135.317961
  0
LINE
  8
1
 62
7
  6
CONTINUOUS
 10
56.644679
 20
131.883003
 11
63.718508
 21
131.883003
  0
LINE
  8
1
 62
7
  6
CONTINUOUS
 10
102.636710
 20
145.875033
 11
102.636710
 21
138.801205
  0
LINE
  8
1
 62
7
  6
CONTINUOUS
 10
98.843388
 20
142.383003
 11
106.071667
 21
142.383003
  0
LINE
  8
1
 62
7
  6
CONTINUOUS
 10
116.628740
 20
99.883003
 11
109.554912
 21
99.883003
  0
LINE
  8
1
 62
7
  6
CONTINUOUS
 10
113.136710
 20
103.676324
 11
113.136710
 21
96.448045
  0
LINE
  8
1
 62
7
  6
CONTINUOUS
 10
74.430031
 20
89.383003
 11
67.201752
 21
89.383003
  0
LINE
  8
1
 62
7
  6
CONTINUOUS
 10
70.636710
 20
85.890972
 11
70.636710
 21
92.964801
  0
LINE
  8
1
 62
7
  6
CONTINUOUS
 10
73.136710
 20
82.883003
 11
73.136710
 21
83.383003
  0
LINE
  8
1
 62
7
  6
CONTINUOUS
 10
100.136710
 20
83.383003
 11
100.136710
 21
82.883003
  0
LINE
  8
1
 62
7
  6
CONTINUOUS
 10
99.136710
 20
81.883003
 11
86.636710
 21
81.883003
  0
LINE
  8
1
 62
7
  6
CONTINUOUS
 10
86.636710
 20
81.883003
 11
74.136710
 21
81.883003
  0
LINE
  8
1
 62
7
  6
CONTINUOUS
 10
289.647875
 20
146.383003
 11
289.647875
 21
85.383003
  0
LINE
  8
1
 62
7
  6
CONTINUOUS
 10
258.847875
 20
145.883003
 11
258.847875
 21
146.383003
  0
LINE
  8
1
 62
7
  6
CONTINUOUS
 10
259.947875
 20
115.883003
 11
259.947875
 21
99.558912
  0
LINE
  8
1
 62
7
  6
CONTINUOUS
 10
260.947875
 20
115.883003
 11
260.947875
 21
99.558912
  0
LINE
  8
1
 62
7
  6
CONTINUOUS
 10
261.947875
 20
115.883003
 11
261.947875
 21
99.558912
  0
LINE
  8
1
 62
7
  6
CONTINUOUS
 10
262.947875
 20
115.883003
 11
262.947875
 21
99.558912
  0
LINE
  8
1
 62
7
  6
CONTINUOUS
 10
263.947875
 20
115.883003
 11
263.947875
 21
99.558912
  0
LINE
  8
1
 62
7
  6
CONTINUOUS
 10
264.947875
 20
115.883003
 11
264.947875
 21
99.558912
  0
LINE
  8
1
 62
7
  6
CONTINUOUS
 10
265.947875
 20
115.883003
 11
265.947875
 21
99.558912
  0
LINE
  8
1
 62
7
  6
CONTINUOUS
 10
266.947875
 20
115.883003
 11
266.947875
 21
99.558912
  0
LINE
  8
1
 62
7
  6
CONTINUOUS
 10
267.947875
 20
115.883003
 11
267.947875
 21
99.558912
  0
LINE
  8
1
 62
7
  6
CONTINUOUS
 10
268.947875
 20
115.883003
 11
268.947875
 21
99.558912
  0
LINE
  8
1
 62
7
  6
CONTINUOUS
 10
268.947875
 20
91.460842
 11
268.947875
 21
85.883003
  0
LINE
  8
1
 62
7
  6
CONTINUOUS
 10
259.947875
 20
92.811546
 11
259.947875
 21
95.883003
  0
LINE
  8
1
 62
7
  6
CONTINUOUS
 10
268.947875
 20
95.883003
 11
268.947875
 21
92.811546
  0
LINE
  8
1
 62
7
  6
CONTINUOUS
 10
259.947875
 20
85.883003
 11
259.947875
 21
91.460842
  0
LINE
  8
1
 62
7
  6
CONTINUOUS
 10
267.947875
 20
92.449844
 11
267.947875
 21
95.883003
  0
LINE
  8
1
 62
7
  6
CONTINUOUS
 10
267.947875
 20
91.099140
 11
267.947875
 21
85.883003
  0
LINE
  8
1
 62
7
  6
CONTINUOUS
 10
266.947875
 20
85.883003
 11
266.947875
 21
90.737438
  0
LINE
  8
1
 62
7
  6
CONTINUOUS
 10
265.947875
 20
90.375735
 11
265.947875
 21
85.883003
  0
LINE
  8
1
 62
7
  6
CONTINUOUS
 10
262.947875
 20
85.883003
 11
262.947875
 21
90.375735
  0
LINE
  8
1
 62
7
  6
CONTINUOUS
 10
261.947875
 20
90.737438
 11
261.947875
 21
85.883003
  0
LINE
  8
1
 62
7
  6
CONTINUOUS
 10
260.947875
 20
85.883003
 11
260.947875
 21
91.099140
  0
LINE
  8
1
 62
7
  6
CONTINUOUS
 10
260.947875
 20
92.449844
 11
260.947875
 21
95.883003
  0
LINE
  8
1
 62
7
  6
CONTINUOUS
 10
268.947875
 20
91.460842
 11
268.947875
 21
85.883003
  0
LINE
  8
1
 62
7
  6
CONTINUOUS
 10
259.947875
 20
92.811546
 11
259.947875
 21
95.883003
  0
LINE
  8
1
 62
7
  6
CONTINUOUS
 10
268.947875
 20
95.883003
 11
268.947875
 21
92.811546
  0
LINE
  8
1
 62
7
  6
CONTINUOUS
 10
259.947875
 20
85.883003
 11
259.947875
 21
91.460842
  0
LINE
  8
1
 62
7
  6
CONTINUOUS
 10
267.947875
 20
92.449844
 11
267.947875
 21
95.883003
  0
LINE
  8
1
 62
7
  6
CONTINUOUS
 10
267.947875
 20
91.099140
 11
267.947875
 21
85.883003
  0
LINE
  8
1
 62
7
  6
CONTINUOUS
 10
266.947875
 20
85.883003
 11
266.947875
 21
90.737438
  0
LINE
  8
1
 62
7
  6
CONTINUOUS
 10
265.947875
 20
90.375735
 11
265.947875
 21
85.883003
  0
LINE
  8
1
 62
7
  6
CONTINUOUS
 10
262.947875
 20
85.883003
 11
262.947875
 21
90.375735
  0
LINE
  8
1
 62
7
  6
CONTINUOUS
 10
261.947875
 20
90.737438
 11
261.947875
 21
85.883003
  0
LINE
  8
1
 62
7
  6
CONTINUOUS
 10
260.947875
 20
85.883003
 11
260.947875
 21
91.099140
  0
LINE
  8
1
 62
7
  6
CONTINUOUS
 10
260.947875
 20
92.449844
 11
260.947875
 21
95.883003
  0
LINE
  8
1
 62
7
  6
CONTINUOUS
 10
259.947875
 20
132.207093
 11
259.947875
 21
115.883003
  0
LINE
  8
1
 62
7
  6
CONTINUOUS
 10
260.947875
 20
132.207093
 11
260.947875
 21
115.883003
  0
LINE
  8
1
 62
7
  6
CONTINUOUS
 10
261.947875
 20
132.207093
 11
261.947875
 21
115.883003
  0
LINE
  8
1
 62
7
  6
CONTINUOUS
 10
262.947875
 20
132.207093
 11
262.947875
 21
115.883003
  0
LINE
  8
1
 62
7
  6
CONTINUOUS
 10
263.947875
 20
132.207093
 11
263.947875
 21
115.883003
  0
LINE
  8
1
 62
7
  6
CONTINUOUS
 10
264.947875
 20
132.207093
 11
264.947875
 21
115.883003
  0
LINE
  8
1
 62
7
  6
CONTINUOUS
 10
265.947875
 20
132.207093
 11
265.947875
 21
115.883003
  0
LINE
  8
1
 62
7
  6
CONTINUOUS
 10
266.947875
 20
132.207093
 11
266.947875
 21
115.883003
  0
LINE
  8
1
 62
7
  6
CONTINUOUS
 10
267.947875
 20
132.207093
 11
267.947875
 21
115.883003
  0
LINE
  8
1
 62
7
  6
CONTINUOUS
 10
268.947875
 20
132.207093
 11
268.947875
 21
115.883003
  0
LINE
  8
1
 62
7
  6
CONTINUOUS
 10
268.947875
 20
145.883003
 11
268.947875
 21
140.305163
  0
LINE
  8
1
 62
7
  6
CONTINUOUS
 10
259.947875
 20
135.883003
 11
259.947875
 21
138.954459
  0
LINE
  8
1
 62
7
  6
CONTINUOUS
 10
268.947875
 20
138.954459
 11
268.947875
 21
135.883003
  0
LINE
  8
1
 62
7
  6
CONTINUOUS
 10
259.947875
 20
140.305163
 11
259.947875
 21
145.883003
  0
LINE
  8
1
 62
7
  6
CONTINUOUS
 10
267.947875
 20
135.883003
 11
267.947875
 21
139.316162
  0
LINE
  8
1
 62
7
  6
CONTINUOUS
 10
267.947875
 20
145.883003
 11
267.947875
 21
140.666866
  0
LINE
  8
1
 62
7
  6
CONTINUOUS
 10
266.947875
 20
141.028568
 11
266.947875
 21
145.883003
  0
LINE
  8
1
 62
7
  6
CONTINUOUS
 10
265.947875
 20
145.883003
 11
265.947875
 21
141.390270
  0
LINE
  8
1
 62
7
  6
CONTINUOUS
 10
262.947875
 20
141.390270
 11
262.947875
 21
145.883003
  0
LINE
  8
1
 62
7
  6
CONTINUOUS
 10
261.947875
 20
145.883003
 11
261.947875
 21
141.028568
  0
LINE
  8
1
 62
7
  6
CONTINUOUS
 10
260.947875
 20
140.666866
 11
260.947875
 21
145.883003
  0
LINE
  8
1
 62
7
  6
CONTINUOUS
 10
260.947875
 20
135.883003
 11
260.947875
 21
139.316162
  0
LINE
  8
1
 62
7
  6
CONTINUOUS
 10
268.947875
 20
145.883003
 11
268.947875
 21
140.305163
  0
LINE
  8
1
 62
7
  6
CONTINUOUS
 10
259.947875
 20
135.883003
 11
259.947875
 21
138.954459
  0
LINE
  8
1
 62
7
  6
CONTINUOUS
 10
268.947875
 20
138.954459
 11
268.947875
 21
135.883003
  0
LINE
  8
1
 62
7
  6
CONTINUOUS
 10
259.947875
 20
140.305163
 11
259.947875
 21
145.883003
  0
LINE
  8
1
 62
7
  6
CONTINUOUS
 10
267.947875
 20
135.883003
 11
267.947875
 21
139.316162
  0
LINE
  8
1
 62
7
  6
CONTINUOUS
 10
267.947875
 20
145.883003
 11
267.947875
 21
140.666866
  0
LINE
  8
1
 62
7
  6
CONTINUOUS
 10
266.947875
 20
141.028568
 11
266.947875
 21
145.883003
  0
LINE
  8
1
 62
7
  6
CONTINUOUS
 10
265.947875
 20
145.883003
 11
265.947875
 21
141.390270
  0
LINE
  8
1
 62
7
  6
CONTINUOUS
 10
262.947875
 20
141.390270
 11
262.947875
 21
145.883003
  0
LINE
  8
1
 62
7
  6
CONTINUOUS
 10
261.947875
 20
145.883003
 11
261.947875
 21
141.028568
  0
LINE
  8
1
 62
7
  6
CONTINUOUS
 10
260.947875
 20
140.666866
 11
260.947875
 21
145.883003
  0
LINE
  8
1
 62
7
  6
CONTINUOUS
 10
260.947875
 20
135.883003
 11
260.947875
 21
139.316162
  0
LINE
  8
1
 62
7
  6
CONTINUOUS
 10
83.990958
 20
118.883003
 11
89.282461
 21
118.883003
  0
LINE
  8
1
 62
7
  6
CONTINUOUS
 10
286.397875
 20
35.545271
 11
286.397875
 21
50.609105
  0
LINE
  8
1
 62
7
  6
CONTINUOUS
 10
285.397875
 20
35.545271
 11
285.397875
 21
50.609105
  0
LINE
  8
1
 62
7
  6
CONTINUOUS
 10
284.397875
 20
31.871718
 11
284.397875
 21
50.609105
  0
LINE
  8
1
 62
7
  6
CONTINUOUS
 10
283.297057
 20
30.849597
 11
283.339640
 21
50.609105
  0
LINE
  8
1
 62
7
  6
CONTINUOUS
 10
282.397875
 20
35.545271
 11
282.397875
 21
50.609105
  0
LINE
  8
1
 62
7
  6
CONTINUOUS
 10
272.397875
 20
7.645271
 11
295.397875
 21
7.645271
  0
LINE
  8
1
 62
7
  6
CONTINUOUS
 10
272.397875
 20
15.545271
 11
272.397875
 21
7.645271
  0
LINE
  8
1
 62
7
  6
CONTINUOUS
 10
295.397875
 20
7.645271
 11
295.397875
 21
15.545271
  0
LINE
  8
1
 62
7
  6
CONTINUOUS
 10
274.397875
 20
11.798100
 11
274.397875
 21
7.645271
  0
LINE
  8
1
 62
7
  6
CONTINUOUS
 10
273.397875
 20
7.645271
 11
274.397875
 21
7.645271
  0
LINE
  8
1
 62
7
  6
CONTINUOUS
 10
273.397875
 20
11.798100
 11
274.397875
 21
11.798100
  0
LINE
  8
1
 62
7
  6
CONTINUOUS
 10
273.397875
 20
7.645271
 11
273.397875
 21
11.798100
  0
LINE
  8
1
 62
7
  6
CONTINUOUS
 10
276.897875
 20
11.798100
 11
276.897875
 21
7.645271
  0
LINE
  8
1
 62
7
  6
CONTINUOUS
 10
275.897875
 20
7.645271
 11
276.897875
 21
7.645271
  0
LINE
  8
1
 62
7
  6
CONTINUOUS
 10
275.897875
 20
11.798100
 11
276.897875
 21
11.798100
  0
LINE
  8
1
 62
7
  6
CONTINUOUS
 10
275.897875
 20
7.645271
 11
275.897875
 21
11.798100
  0
LINE
  8
1
 62
7
  6
CONTINUOUS
 10
279.397875
 20
11.798100
 11
279.397875
 21
7.645271
  0
LINE
  8
1
 62
7
  6
CONTINUOUS
 10
278.397875
 20
7.645271
 11
279.397875
 21
7.645271
  0
LINE
  8
1
 62
7
  6
CONTINUOUS
 10
278.397875
 20
11.798100
 11
279.397875
 21
11.798100
  0
LINE
  8
1
 62
7
  6
CONTINUOUS
 10
278.397875
 20
7.645271
 11
278.397875
 21
11.798100
  0
LINE
  8
1
 62
7
  6
CONTINUOUS
 10
281.897875
 20
11.798100
 11
281.897875
 21
7.645271
  0
LINE
  8
1
 62
7
  6
CONTINUOUS
 10
280.897875
 20
7.645271
 11
281.897875
 21
7.645271
  0
LINE
  8
1
 62
7
  6
CONTINUOUS
 10
280.897875
 20
11.798100
 11
281.897875
 21
11.798100
  0
LINE
  8
1
 62
7
  6
CONTINUOUS
 10
280.897875
 20
7.645271
 11
280.897875
 21
11.798100
  0
LINE
  8
1
 62
7
  6
CONTINUOUS
 10
284.397875
 20
11.798100
 11
284.397875
 21
7.645271
  0
LINE
  8
1
 62
7
  6
CONTINUOUS
 10
283.397875
 20
7.645271
 11
284.397875
 21
7.645271
  0
LINE
  8
1
 62
7
  6
CONTINUOUS
 10
283.397875
 20
11.798100
 11
284.397875
 21
11.798100
  0
LINE
  8
1
 62
7
  6
CONTINUOUS
 10
283.397875
 20
7.645271
 11
283.397875
 21
11.798100
  0
LINE
  8
1
 62
7
  6
CONTINUOUS
 10
286.897875
 20
11.798100
 11
286.897875
 21
7.645271
  0
LINE
  8
1
 62
7
  6
CONTINUOUS
 10
285.897875
 20
7.645271
 11
286.897875
 21
7.645271
  0
LINE
  8
1
 62
7
  6
CONTINUOUS
 10
285.897875
 20
11.798100
 11
286.897875
 21
11.798100
  0
LINE
  8
1
 62
7
  6
CONTINUOUS
 10
285.897875
 20
7.645271
 11
285.897875
 21
11.798100
  0
LINE
  8
1
 62
7
  6
CONTINUOUS
 10
289.397875
 20
11.798100
 11
289.397875
 21
7.645271
  0
LINE
  8
1
 62
7
  6
CONTINUOUS
 10
288.397875
 20
7.645271
 11
289.397875
 21
7.645271
  0
LINE
  8
1
 62
7
  6
CONTINUOUS
 10
288.397875
 20
11.798100
 11
289.397875
 21
11.798100
  0
LINE
  8
1
 62
7
  6
CONTINUOUS
 10
288.397875
 20
7.645271
 11
288.397875
 21
11.798100
  0
LINE
  8
1
 62
7
  6
CONTINUOUS
 10
291.897875
 20
11.798100
 11
291.897875
 21
7.645271
  0
LINE
  8
1
 62
7
  6
CONTINUOUS
 10
290.897875
 20
7.645271
 11
291.897875
 21
7.645271
  0
LINE
  8
1
 62
7
  6
CONTINUOUS
 10
290.897875
 20
11.798100
 11
291.897875
 21
11.798100
  0
LINE
  8
1
 62
7
  6
CONTINUOUS
 10
290.897875
 20
7.645271
 11
290.897875
 21
11.798100
  0
LINE
  8
1
 62
7
  6
CONTINUOUS
 10
294.397875
 20
11.798100
 11
294.397875
 21
7.645271
  0
LINE
  8
1
 62
7
  6
CONTINUOUS
 10
293.397875
 20
7.645271
 11
294.397875
 21
7.645271
  0
LINE
  8
1
 62
7
  6
CONTINUOUS
 10
293.397875
 20
11.798100
 11
294.397875
 21
11.798100
  0
LINE
  8
1
 62
7
  6
CONTINUOUS
 10
293.397875
 20
7.645271
 11
293.397875
 21
11.798100
  0
LINE
  8
1
 62
7
  6
CONTINUOUS
 10
295.397875
 20
15.545271
 11
289.847875
 21
15.545271
  0
LINE
  8
1
 62
7
  6
CONTINUOUS
 10
294.397875
 20
15.545271
 11
293.397875
 21
15.545271
  0
LINE
  8
1
 62
7
  6
CONTINUOUS
 10
291.897875
 20
15.545271
 11
290.897875
 21
15.545271
  0
LINE
  8
1
 62
7
  6
CONTINUOUS
 10
284.397875
 20
15.545271
 11
292.897875
 21
15.545271
  0
LINE
  8
1
 62
7
  6
CONTINUOUS
 10
284.397875
 20
15.545271
 11
295.397875
 21
15.545271
  0
LINE
  8
1
 62
7
  6
CONTINUOUS
 10
283.282745
 20
15.545271
 11
284.397875
 21
15.545271
  0
LINE
  8
1
 62
7
  6
CONTINUOUS
 10
283.282745
 20
15.545271
 11
284.397875
 21
15.545271
  0
LINE
  8
1
 62
7
  6
CONTINUOUS
 10
272.397875
 20
15.545271
 11
283.282745
 21
15.545271
  0
LINE
  8
1
 62
7
  6
CONTINUOUS
 10
272.397875
 20
15.545271
 11
283.282745
 21
15.545271
  0
LINE
  8
1
 62
7
  6
CONTINUOUS
 10
278.147875
 20
81.883003
 11
278.147875
 21
80.883003
  0
LINE
  8
1
 62
7
  6
CONTINUOUS
 10
278.147875
 20
80.883003
 11
290.647875
 21
80.883003
  0
LINE
  8
1
 62
7
  6
CONTINUOUS
 10
290.647875
 20
80.883003
 11
290.647875
 21
81.883003
  0
LINE
  8
1
 62
7
  6
CONTINUOUS
 10
270.047875
 20
115.883003
 11
270.047875
 21
146.383003
  0
LINE
  8
1
 62
7
  6
CONTINUOUS
 10
258.847875
 20
145.883003
 11
270.047875
 21
145.883003
  0
LINE
  8
1
 62
7
  6
CONTINUOUS
 10
270.047875
 20
145.883003
 11
270.047875
 21
115.883003
  0
LINE
  8
1
 62
7
  6
CONTINUOUS
 10
258.847875
 20
115.883003
 11
258.847875
 21
145.883003
  0
LINE
  8
1
 62
7
  6
CONTINUOUS
 10
215.425917
 20
115.883003
 11
291.641093
 21
115.883003
  0
LINE
  8
1
 62
7
  6
CONTINUOUS
 10
117.136710
 20
141.883003
 11
117.136710
 21
89.883003
  0
LINE
  8
1
 62
7
  6
CONTINUOUS
 10
112.636710
 20
85.383003
 11
86.636710
 21
85.383003
  0
LINE
  8
1
 62
7
  6
CONTINUOUS
 10
86.636710
 20
146.383003
 11
112.636710
 21
146.383003
  0
LINE
  8
1
 62
7
  6
CONTINUOUS
 10
241.647875
 20
119.883003
 11
241.647875
 21
142.883003
  0
LINE
  8
1
 62
7
  6
CONTINUOUS
 10
241.647875
 20
142.883003
 11
244.647875
 21
142.883003
  0
LINE
  8
1
 62
7
  6
CONTINUOUS
 10
86.636710
 20
78.473684
 11
86.636710
 21
149.138156
  0
LINE
  8
1
 62
7
  6
CONTINUOUS
 10
52.848599
 20
115.883003
 11
120.522450
 21
115.883003
  0
LINE
  8
1
 62
7
  6
CONTINUOUS
 10
56.136710
 20
89.883003
 11
56.136710
 21
141.883003
  0
LINE
  8
1
 62
7
  6
CONTINUOUS
 10
86.636710
 20
85.383003
 11
60.636710
 21
85.383003
  0
LINE
  8
1
 62
7
  6
CONTINUOUS
 10
59.750454
 20
142.769258
 11
63.862753
 21
138.656959
  0
LINE
  8
1
 62
7
  6
CONTINUOUS
 10
60.636710
 20
146.383003
 11
86.636710
 21
146.383003
  0
LINE
  8
1
 62
7
  6
CONTINUOUS
 10
258.847875
 20
115.883003
 11
258.847875
 21
145.883003
  0
LINE
  8
1
 62
7
  6
CONTINUOUS
 10
258.847875
 20
146.383003
 11
244.647875
 21
146.383003
  0
LINE
  8
1
 62
7
  6
CONTINUOUS
 10
290.647875
 20
115.883003
 11
290.647875
 21
146.383003
  0
LINE
  8
1
 62
7
  6
CONTINUOUS
 10
290.647875
 20
146.383003
 11
270.047875
 21
146.383003
  0
LINE
  8
1
 62
7
  6
CONTINUOUS
 10
236.647875
 20
119.883003
 11
241.647875
 21
119.883003
  0
LINE
  8
1
 62
7
  6
CONTINUOUS
 10
241.647875
 20
115.883003
 11
241.647875
 21
119.883003
  0
LINE
  8
1
 62
7
  6
CONTINUOUS
 10
244.647875
 20
115.883003
 11
244.647875
 21
146.383003
  0
LINE
  8
1
 62
7
  6
CONTINUOUS
 10
270.047875
 20
135.883003
 11
290.647875
 21
135.883003
  0
LINE
  8
1
 62
7
  6
CONTINUOUS
 10
258.847875
 20
135.883003
 11
270.047875
 21
135.883003
  0
LINE
  8
1
 62
7
  6
CONTINUOUS
 10
252.647875
 20
135.883003
 11
252.647875
 21
146.383003
  0
LINE
  8
1
 62
7
  6
CONTINUOUS
 10
258.847875
 20
135.883003
 11
252.647875
 21
135.883003
  0
LINE
  8
1
 62
7
  6
CONTINUOUS
 10
220.647875
 20
111.883003
 11
220.647875
 21
115.883003
  0
LINE
  8
1
 62
7
  6
CONTINUOUS
 10
270.047875
 20
85.383003
 11
270.047875
 21
115.883003
  0
LINE
  8
1
 62
7
  6
CONTINUOUS
 10
270.047875
 20
85.883003
 11
258.847875
 21
85.883003
  0
LINE
  8
1
 62
7
  6
CONTINUOUS
 10
270.047875
 20
115.883003
 11
270.047875
 21
85.883003
  0
LINE
  8
1
 62
7
  6
CONTINUOUS
 10
258.847875
 20
85.883003
 11
258.847875
 21
115.883003
  0
LINE
  8
1
 62
7
  6
CONTINUOUS
 10
241.647875
 20
88.883003
 11
241.647875
 21
111.883003
  0
LINE
  8
1
 62
7
  6
CONTINUOUS
 10
244.647875
 20
88.883003
 11
241.647875
 21
88.883003
  0
LINE
  8
1
 62
7
  6
CONTINUOUS
 10
244.647875
 20
88.883003
 11
244.647875
 21
85.383003
  0
LINE
  8
1
 62
7
  6
CONTINUOUS
 10
258.847875
 20
85.883003
 11
258.847875
 21
115.883003
  0
LINE
  8
1
 62
7
  6
CONTINUOUS
 10
244.647875
 20
85.383003
 11
258.847875
 21
85.383003
  0
LINE
  8
1
 62
7
  6
CONTINUOUS
 10
258.847875
 20
85.883003
 11
258.847875
 21
85.383003
  0
LINE
  8
1
 62
7
  6
CONTINUOUS
 10
290.647875
 20
85.383003
 11
290.647875
 21
115.883003
  0
LINE
  8
1
 62
7
  6
CONTINUOUS
 10
270.047875
 20
85.383003
 11
290.647875
 21
85.383003
  0
LINE
  8
1
 62
7
  6
CONTINUOUS
 10
241.647875
 20
111.883003
 11
220.647875
 21
111.883003
  0
LINE
  8
1
 62
7
  6
CONTINUOUS
 10
241.647875
 20
111.883003
 11
241.647875
 21
115.883003
  0
LINE
  8
1
 62
7
  6
CONTINUOUS
 10
244.647875
 20
88.883003
 11
244.647875
 21
115.883003
  0
LINE
  8
1
 62
7
  6
CONTINUOUS
 10
290.647875
 20
95.883003
 11
270.047875
 21
95.883003
  0
LINE
  8
1
 62
7
  6
CONTINUOUS
 10
270.047875
 20
95.883003
 11
258.847875
 21
95.883003
  0
LINE
  8
1
 62
7
  6
CONTINUOUS
 10
252.647875
 20
85.383003
 11
252.647875
 21
95.883003
  0
LINE
  8
1
 62
7
  6
CONTINUOUS
 10
252.647875
 20
95.883003
 11
258.847875
 21
95.883003
  0
LINE
  8
1
 62
7
  6
CONTINUOUS
 10
236.647875
 20
118.883003
 11
236.647875
 21
119.883003
  0
LINE
  8
1
 62
7
  6
CONTINUOUS
 10
220.647875
 20
118.883003
 11
236.647875
 21
118.883003
  0
LINE
  8
1
 62
7
  6
CONTINUOUS
 10
220.647875
 20
115.883003
 11
220.647875
 21
118.883003
  0
LINE
  8
1
 62
7
  6
CONTINUOUS
 10
113.522965
 20
142.769258
 11
109.410666
 21
138.656959
  0
LINE
  8
1
 62
7
  6
CONTINUOUS
 10
113.522965
 20
88.996748
 11
109.410666
 21
93.109046
  0
LINE
  8
1
 62
7
  6
CONTINUOUS
 10
59.750454
 20
88.996748
 11
63.862753
 21
93.109046
  0
LINE
  8
1
 62
7
  6
CONTINUOUS
 10
293.059861
 20
105.723207
 11
293.059861
 21
125.896364
  0
LINE
  8
1
 62
7
  6
CONTINUOUS
 10
281.945078
 20
52.609105
 11
286.397875
 21
52.609105
  0
LINE
  8
1
 62
7
  6
CONTINUOUS
 10
286.397875
 20
52.609105
 11
286.397875
 21
53.609105
  0
LINE
  8
1
 62
7
  6
CONTINUOUS
 10
286.397875
 20
53.609105
 11
287.397875
 21
53.609105
  0
LINE
  8
1
 62
7
  6
CONTINUOUS
 10
287.397875
 20
53.609105
 11
287.397875
 21
49.609105
  0
LINE
  8
1
 62
7
  6
CONTINUOUS
 10
287.397875
 20
49.609105
 11
286.397875
 21
49.609105
  0
LINE
  8
1
 62
7
  6
CONTINUOUS
 10
286.397875
 20
49.609105
 11
286.397875
 21
50.609105
  0
LINE
  8
1
 62
7
  6
CONTINUOUS
 10
286.397875
 20
50.609105
 11
281.945078
 21
50.609105
  0
LINE
  8
1
 62
7
  6
CONTINUOUS
 10
281.945078
 20
50.609105
 11
281.945078
 21
52.609105
  0
LINE
  8
1
 62
7
  6
CONTINUOUS
 10
283.342938
 20
52.609105
 11
283.351011
 21
57.147043
  0
LINE
  8
1
 62
7
  6
CONTINUOUS
 10
284.397875
 20
52.609105
 11
284.397875
 21
57.478635
  0
LINE
  8
1
 62
7
  6
CONTINUOUS
 10
285.397875
 20
52.609105
 11
285.397875
 21
57.682116
  0
LINE
  8
1
 62
7
  6
CONTINUOUS
 10
286.397875
 20
52.609105
 11
286.397875
 21
57.671536
  0
LINE
  8
1
 62
7
  6
CONTINUOUS
 10
282.397875
 20
52.609105
 11
282.397875
 21
56.875925
  0
LINE
  8
1
 62
7
  6
CONTINUOUS
 10
281.602397
 20
51.609105
 11
288.028404
 21
51.609105
  0
ARC
  8
1
 62
7
  6
CONTINUOUS
 10
86.636710
 20
115.883003
 40
27.000000
 50
-90.000000
 51
90.000000
  0
ARC
  8
1
 62
7
  6
CONTINUOUS
 10
86.636710
 20
115.883003
 40
24.000000
 50
-90.000000
 51
90.000000
  0
ARC
  8
1
 62
7
  6
CONTINUOUS
 10
86.636710
 20
115.883003
 40
27.000000
 50
90.000000
 51
-90.000000
  0
ARC
  8
1
 62
7
  6
CONTINUOUS
 10
86.636710
 20
115.883003
 40
24.000000
 50
90.000000
 51
-90.000000
  0
ARC
  8
1
 62
7
  6
CONTINUOUS
 10
86.636710
 20
115.883003
 40
35.000000
 50
125.592375
 51
146.948228
  0
ARC
  8
1
 62
7
  6
CONTINUOUS
 10
86.636710
 20
115.883003
 40
35.000000
 50
35.592375
 51
56.948228
  0
ARC
  8
1
 62
7
  6
CONTINUOUS
 10
86.636710
 20
115.883003
 40
35.000000
 50
-54.407625
 51
-33.051772
  0
ARC
  8
1
 62
7
  6
CONTINUOUS
 10
86.636710
 20
115.883003
 40
35.000000
 50
-144.407625
 51
-123.051772
  0
CIRCLE
  8
1
 62
7
  6
CONTINUOUS
 10
60.136710
 20
131.883003
 40
3.200000
  0
CIRCLE
  8
1
 62
7
  6
CONTINUOUS
 10
102.636710
 20
142.383003
 40
3.200000
  0
CIRCLE
  8
1
 62
7
  6
CONTINUOUS
 10
113.136710
 20
99.883003
 40
3.200000
  0
CIRCLE
  8
1
 62
7
  6
CONTINUOUS
 10
70.636710
 20
89.383003
 40
3.200000
  0
CIRCLE
  8
1
 62
7
  6
CONTINUOUS
 10
86.636710
 20
115.883003
 40
4.000000
  0
CIRCLE
  8
1
 62
7
  6
CONTINUOUS
 10
86.636710
 20
115.883003
 40
6.000000
  0
CIRCLE
  8
1
 62
7
  6
DIVIDE
 10
86.636710
 20
115.883003
 40
35.000000
  0
CIRCLE
  8
1
 62
7
  6
CONTINUOUS
 10
111.385447
 20
140.631740
 40
2.250000
  0
CIRCLE
  8
1
 62
7
  6
CONTINUOUS
 10
111.385447
 20
91.134265
 40
2.250000
  0
CIRCLE
  8
1
 62
7
  6
CONTINUOUS
 10
61.887972
 20
91.134265
 40
2.250000
  0
CIRCLE
  8
1
 62
7
  6
CONTINUOUS
 10
61.887972
 20
140.631740
 40
2.250000
  0
ARC
  8
1
 62
7
  6
CONTINUOUS
 10
93.718884
 20
105.931853
 40
37.000213
 50
-109.059107
 51
-108.404750
  0
ARC
  8
1
 62
7
  6
CONTINUOUS
 10
85.861976
 20
82.319653
 40
12.115137
 50
-108.404750
 51
-106.421407
  0
ARC
  8
1
 62
7
  6
CONTINUOUS
 10
84.403321
 20
77.370395
 40
6.955405
 50
-106.421407
 51
-103.013702
  0
ARC
  8
1
 62
7
  6
CONTINUOUS
 10
83.901303
 20
75.198284
 40
4.726036
 50
-103.013702
 51
-98.080590
  0
ARC
  8
1
 62
7
  6
CONTINUOUS
 10
83.730799
 20
73.997347
 40
3.513056
 50
-98.080590
 51
-78.448410
  0
ARC
  8
1
 62
7
  6
CONTINUOUS
 10
82.564856
 20
79.701844
 40
9.335486
 50
-78.448410
 51
-73.399213
  0
ARC
  8
1
 62
7
  6
CONTINUOUS
 10
79.596495
 20
89.658514
 40
19.725215
 50
-73.399213
 51
-70.961403
  0
ARC
  8
1
 62
7
  6
CONTINUOUS
 10
90.313742
 20
58.187405
 40
13.521089
 50
104.921300
 51
108.466394
  0
ARC
  8
1
 62
7
  6
CONTINUOUS
 10
88.217318
 20
66.070809
 40
5.363699
 50
96.214319
 51
104.965958
  0
ARC
  8
1
 62
7
  6
CONTINUOUS
 10
88.071471
 20
66.970513
 40
4.453748
 50
87.910805
 51
95.601956
  0
ARC
  8
1
 62
7
  6
CONTINUOUS
 10
88.019733
 20
65.586677
 40
5.838551
 50
81.994334
 51
87.898492
  0
ARC
  8
1
 62
7
  6
CONTINUOUS
 10
87.646893
 20
62.930388
 40
8.520878
 50
77.897753
 51
81.999290
  0
ARC
  8
1
 62
7
  6
CONTINUOUS
 10
86.337830
 20
56.814150
 40
14.775637
 50
75.510262
 51
77.906838
  0
ARC
  8
1
 62
7
  6
CONTINUOUS
 10
78.688932
 20
27.197373
 40
45.364183
 50
74.729601
 51
75.516208
  0
ARC
  8
1
 62
7
  6
CONTINUOUS
 10
93.718884
 20
107.206500
 40
37.000213
 50
-109.059107
 51
-108.404750
  0
ARC
  8
1
 62
7
  6
CONTINUOUS
 10
85.861976
 20
83.594300
 40
12.115137
 50
-108.404750
 51
-106.421407
  0
ARC
  8
1
 62
7
  6
CONTINUOUS
 10
84.403321
 20
78.645042
 40
6.955405
 50
-106.421407
 51
-103.013702
  0
ARC
  8
1
 62
7
  6
CONTINUOUS
 10
83.901303
 20
76.472931
 40
4.726036
 50
-103.013702
 51
-98.080590
  0
ARC
  8
1
 62
7
  6
CONTINUOUS
 10
83.730799
 20
75.271994
 40
3.513056
 50
-98.080590
 51
-78.448410
  0
ARC
  8
1
 62
7
  6
CONTINUOUS
 10
82.564856
 20
80.976491
 40
9.335486
 50
-78.448410
 51
-73.399213
  0
ARC
  8
1
 62
7
  6
CONTINUOUS
 10
79.596495
 20
90.933161
 40
19.725215
 50
-73.399213
 51
-70.961403
  0
ARC
  8
1
 62
7
  6
CONTINUOUS
 10
90.313742
 20
59.462052
 40
13.521089
 50
104.921300
 51
108.466394
  0
ARC
  8
1
 62
7
  6
CONTINUOUS
 10
88.217318
 20
67.345456
 40
5.363699
 50
96.214319
 51
104.965958
  0
ARC
  8
1
 62
7
  6
CONTINUOUS
 10
88.071471
 20
68.245160
 40
4.453748
 50
87.910805
 51
95.601956
  0
ARC
  8
1
 62
7
  6
CONTINUOUS
 10
88.019733
 20
66.861324
 40
5.838551
 50
81.994334
 51
87.898492
  0
ARC
  8
1
 62
7
  6
CONTINUOUS
 10
87.646893
 20
64.205035
 40
8.520878
 50
77.897753
 51
81.999290
  0
ARC
  8
1
 62
7
  6
CONTINUOUS
 10
86.337830
 20
58.088797
 40
14.775637
 50
75.510262
 51
77.906838
  0
ARC
  8
1
 62
7
  6
CONTINUOUS
 10
78.688932
 20
28.472020
 40
45.364183
 50
74.729601
 51
75.516208
  0
ARC
  8
1
 62
7
  6
CONTINUOUS
 10
291.480049
 20
93.485626
 40
37.000213
 50
-109.059107
 51
-108.404750
  0
ARC
  8
1
 62
7
  6
CONTINUOUS
 10
283.623142
 20
69.873426
 40
12.115137
 50
-108.404750
 51
-106.421407
  0
ARC
  8
1
 62
7
  6
CONTINUOUS
 10
282.164486
 20
64.924168
 40
6.955405
 50
-106.421407
 51
-103.013702
  0
ARC
  8
1
 62
7
  6
CONTINUOUS
 10
281.662468
 20
62.752057
 40
4.726036
 50
-103.013702
 51
-98.080590
  0
ARC
  8
1
 62
7
  6
CONTINUOUS
 10
281.491964
 20
61.551120
 40
3.513056
 50
-98.080590
 51
-78.448410
  0
ARC
  8
1
 62
7
  6
CONTINUOUS
 10
280.326021
 20
67.255616
 40
9.335486
 50
-78.448410
 51
-73.399213
  0
ARC
  8
1
 62
7
  6
CONTINUOUS
 10
277.357660
 20
77.212287
 40
19.725215
 50
-73.399213
 51
-70.961403
  0
ARC
  8
1
 62
7
  6
CONTINUOUS
 10
288.074907
 20
45.741178
 40
13.521089
 50
104.921300
 51
108.466394
  0
ARC
  8
1
 62
7
  6
CONTINUOUS
 10
285.978483
 20
53.624582
 40
5.363699
 50
96.214319
 51
104.965958
  0
ARC
  8
1
 62
7
  6
CONTINUOUS
 10
285.832636
 20
54.524286
 40
4.453748
 50
87.910805
 51
95.601956
  0
ARC
  8
1
 62
7
  6
CONTINUOUS
 10
285.780898
 20
53.140450
 40
5.838551
 50
81.994334
 51
87.898492
  0
ARC
  8
1
 62
7
  6
CONTINUOUS
 10
285.408058
 20
50.484161
 40
8.520878
 50
77.897753
 51
81.999290
  0
ARC
  8
1
 62
7
  6
CONTINUOUS
 10
284.098995
 20
44.367923
 40
14.775637
 50
75.510262
 51
77.906838
  0
ARC
  8
1
 62
7
  6
CONTINUOUS
 10
276.450097
 20
14.751146
 40
45.364183
 50
74.729601
 51
75.516208
  0
ARC
  8
1
 62
7
  6
CONTINUOUS
 10
291.480049
 20
92.210979
 40
37.000213
 50
-109.059107
 51
-108.404750
  0
ARC
  8
1
 62
7
  6
CONTINUOUS
 10
283.623142
 20
68.598779
 40
12.115137
 50
-108.404750
 51
-106.421407
  0
ARC
  8
1
 62
7
  6
CONTINUOUS
 10
282.164486
 20
63.649521
 40
6.955405
 50
-106.421407
 51
-103.013702
  0
ARC
  8
1
 62
7
  6
CONTINUOUS
 10
281.662468
 20
61.477410
 40
4.726036
 50
-103.013702
 51
-98.080590
  0
ARC
  8
1
 62
7
  6
CONTINUOUS
 10
281.491964
 20
60.276473
 40
3.513056
 50
-98.080590
 51
-78.448410
  0
ARC
  8
1
 62
7
  6
CONTINUOUS
 10
280.326021
 20
65.980969
 40
9.335486
 50
-78.448410
 51
-73.399213
  0
ARC
  8
1
 62
7
  6
CONTINUOUS
 10
277.357660
 20
75.937640
 40
19.725215
 50
-73.399213
 51
-70.961403
  0
ARC
  8
1
 62
7
  6
CONTINUOUS
 10
288.074907
 20
44.466531
 40
13.521089
 50
104.921300
 51
108.466394
  0
ARC
  8
1
 62
7
  6
CONTINUOUS
 10
285.978483
 20
52.349935
 40
5.363699
 50
96.214319
 51
104.965958
  0
ARC
  8
1
 62
7
  6
CONTINUOUS
 10
285.832636
 20
53.249639
 40
4.453748
 50
87.910805
 51
95.601956
  0
ARC
  8
1
 62
7
  6
CONTINUOUS
 10
285.780898
 20
51.865803
 40
5.838551
 50
81.994334
 51
87.898492
  0
ARC
  8
1
 62
7
  6
CONTINUOUS
 10
285.408058
 20
49.209514
 40
8.520878
 50
77.897753
 51
81.999290
  0
ARC
  8
1
 62
7
  6
CONTINUOUS
 10
284.098995
 20
43.093276
 40
14.775637
 50
75.510262
 51
77.906838
  0
ARC
  8
1
 62
7
  6
CONTINUOUS
 10
276.450097
 20
13.476499
 40
45.364183
 50
74.729601
 51
75.516208
  0
ARC
  8
1
 62
7
  6
CONTINUOUS
 10
117.141234
 20
-4.214187
 40
178.354571
 50
6.360714
 51
6.654720
  0
ARC
  8
1
 62
7
  6
CONTINUOUS
 10
235.369432
 20
9.579719
 40
59.324412
 50
6.654720
 51
7.537831
  0
ARC
  8
1
 62
7
  6
CONTINUOUS
 10
259.068134
 20
12.715632
 40
35.419131
 50
7.537831
 51
9.014775
  0
ARC
  8
1
 62
7
  6
CONTINUOUS
 10
269.174123
 20
14.318935
 40
25.186752
 50
9.014775
 51
11.088762
  0
ARC
  8
1
 62
7
  6
CONTINUOUS
 10
274.701605
 20
15.402258
 40
19.554111
 50
11.088762
 51
13.759046
  0
ARC
  8
1
 62
7
  6
CONTINUOUS
 10
276.980056
 20
15.960173
 40
17.208347
 50
13.759046
 51
15.881955
  0
ARC
  8
1
 62
7
  6
CONTINUOUS
 10
273.470943
 20
14.961770
 40
20.856728
 50
15.881955
 51
17.635348
  0
ARC
  8
1
 62
7
  6
CONTINUOUS
 10
274.655083
 20
15.338206
 40
19.614193
 50
17.635348
 51
19.501122
  0
ARC
  8
1
 62
7
  6
CONTINUOUS
 10
270.228533
 20
13.770585
 40
24.310126
 50
19.501122
 51
21.006642
  0
ARC
  8
1
 62
7
  6
CONTINUOUS
 10
271.945159
 20
14.429764
 40
22.471288
 50
21.006642
 51
22.634316
  0
ARC
  8
1
 62
7
  6
CONTINUOUS
 10
264.847347
 20
11.470241
 40
30.161394
 50
22.634316
 51
24.622446
  0
ARC
  8
1
 62
7
  6
CONTINUOUS
 10
247.737854
 20
3.628795
 40
48.982207
 50
24.622446
 51
25.846035
  0
ARC
  8
1
 62
7
  6
CONTINUOUS
 10
162.460746
 20
-37.680331
 40
143.737835
 50
25.846035
 51
26.263232
  0
ARC
  8
1
 62
7
  6
CONTINUOUS
 10
441.701379
 20
100.121667
 40
167.653754
 50
-154.090045
 51
-153.731994
  0
ARC
  8
1
 62
7
  6
CONTINUOUS
 10
338.339758
 20
49.909364
 40
52.741178
 50
-155.230286
 51
-154.090438
  0
ARC
  8
1
 62
7
  6
CONTINUOUS
 10
321.608108
 20
42.167164
 40
34.305095
 50
-156.732588
 51
-155.263379
  0
ARC
  8
1
 62
7
  6
CONTINUOUS
 10
315.047908
 20
39.346735
 40
27.164294
 50
-158.587228
 51
-156.731780
  0
ARC
  8
1
 62
7
  6
CONTINUOUS
 10
310.562315
 20
37.588055
 40
22.346255
 50
-160.838711
 51
-158.586372
  0
ARC
  8
1
 62
7
  6
CONTINUOUS
 10
307.294303
 20
36.452715
 40
18.886645
 50
-163.497443
 51
-160.838060
  0
ARC
  8
1
 62
7
  6
CONTINUOUS
 10
304.722844
 20
35.692468
 40
16.205158
 50
-169.165221
 51
-163.492095
  0
ARC
  8
1
 62
7
  6
CONTINUOUS
 10
310.313258
 20
36.782675
 40
21.900857
 50
-171.023872
 51
-169.113158
  0
ARC
  8
1
 62
7
  6
CONTINUOUS
 10
319.129751
 20
38.175438
 40
30.826681
 50
-172.383520
 51
-171.023629
  0
ARC
  8
1
 62
7
  6
CONTINUOUS
 10
339.751407
 20
40.933333
 40
51.631937
 50
-173.196393
 51
-172.383144
  0
ARC
  8
1
 62
7
  6
CONTINUOUS
 10
442.729631
 20
53.220000
 40
155.340551
 50
-173.466707
 51
-173.196143
  0
ARC
  8
1
 62
7
  6
CONTINUOUS
 10
116.141234
 20
-4.214187
 40
178.354571
 50
6.360714
 51
6.654720
  0
ARC
  8
1
 62
7
  6
CONTINUOUS
 10
234.369432
 20
9.579719
 40
59.324412
 50
6.654720
 51
7.537831
  0
ARC
  8
1
 62
7
  6
CONTINUOUS
 10
258.068134
 20
12.715632
 40
35.419131
 50
7.537831
 51
9.014775
  0
ARC
  8
1
 62
7
  6
CONTINUOUS
 10
268.174123
 20
14.318935
 40
25.186752
 50
9.014775
 51
11.088762
  0
ARC
  8
1
 62
7
  6
CONTINUOUS
 10
273.701605
 20
15.402258
 40
19.554111
 50
11.088762
 51
13.759046
  0
ARC
  8
1
 62
7
  6
CONTINUOUS
 10
275.980056
 20
15.960173
 40
17.208347
 50
13.759046
 51
15.881955
  0
ARC
  8
1
 62
7
  6
CONTINUOUS
 10
272.470943
 20
14.961770
 40
20.856728
 50
15.881955
 51
17.635348
  0
ARC
  8
1
 62
7
  6
CONTINUOUS
 10
273.655083
 20
15.338206
 40
19.614193
 50
17.635348
 51
19.501122
  0
ARC
  8
1
 62
7
  6
CONTINUOUS
 10
269.228533
 20
13.770585
 40
24.310126
 50
19.501122
 51
21.006642
  0
ARC
  8
1
 62
7
  6
CONTINUOUS
 10
270.945159
 20
14.429764
 40
22.471288
 50
21.006642
 51
22.634316
  0
ARC
  8
1
 62
7
  6
CONTINUOUS
 10
263.847347
 20
11.470241
 40
30.161394
 50
22.634316
 51
24.622446
  0
ARC
  8
1
 62
7
  6
CONTINUOUS
 10
246.737854
 20
3.628795
 40
48.982207
 50
24.622446
 51
25.846035
  0
ARC
  8
1
 62
7
  6
CONTINUOUS
 10
161.460746
 20
-37.680331
 40
143.737835
 50
25.846035
 51
26.263232
  0
ARC
  8
1
 62
7
  6
CONTINUOUS
 10
440.701379
 20
100.121667
 40
167.653754
 50
-154.090045
 51
-153.731994
  0
ARC
  8
1
 62
7
  6
CONTINUOUS
 10
337.339758
 20
49.909364
 40
52.741178
 50
-155.230286
 51
-154.090438
  0
ARC
  8
1
 62
7
  6
CONTINUOUS
 10
320.608108
 20
42.167164
 40
34.305095
 50
-156.732588
 51
-155.263379
  0
ARC
  8
1
 62
7
  6
CONTINUOUS
 10
314.047908
 20
39.346735
 40
27.164294
 50
-158.587228
 51
-156.731780
  0
ARC
  8
1
 62
7
  6
CONTINUOUS
 10
309.562315
 20
37.588055
 40
22.346255
 50
-160.838711
 51
-158.586372
  0
ARC
  8
1
 62
7
  6
CONTINUOUS
 10
306.294303
 20
36.452715
 40
18.886645
 50
-163.497443
 51
-160.838060
  0
ARC
  8
1
 62
7
  6
CONTINUOUS
 10
303.722844
 20
35.692468
 40
16.205158
 50
-169.165221
 51
-163.492095
  0
ARC
  8
1
 62
7
  6
CONTINUOUS
 10
309.313258
 20
36.782675
 40
21.900857
 50
-171.023872
 51
-169.113158
  0
ARC
  8
1
 62
7
  6
CONTINUOUS
 10
318.129751
 20
38.175438
 40
30.826681
 50
-172.383520
 51
-171.023629
  0
ARC
  8
1
 62
7
  6
CONTINUOUS
 10
338.751407
 20
40.933333
 40
51.631937
 50
-173.196393
 51
-172.383144
  0
ARC
  8
1
 62
7
  6
CONTINUOUS
 10
441.729631
 20
53.220000
 40
155.340551
 50
-173.466707
 51
-173.196143
  0
ARC
  8
1
 62
7
  6
CONTINUOUS
 10
214.426722
 20
21.987410
 40
77.738541
 50
-4.753513
 51
-4.203127
  0
ARC
  8
1
 62
7
  6
CONTINUOUS
 10
266.385713
 20
18.168929
 40
25.639427
 50
-4.203127
 51
-2.541844
  0
ARC
  8
1
 62
7
  6
CONTINUOUS
 10
277.021420
 20
17.696781
 40
14.993246
 50
-2.541844
 51
0.276690
  0
ARC
  8
1
 62
7
  6
CONTINUOUS
 10
281.595213
 20
17.718869
 40
10.419399
 50
0.276690
 51
4.296065
  0
ARC
  8
1
 62
7
  6
CONTINUOUS
 10
284.077376
 20
17.905332
 40
7.930243
 50
4.296065
 51
9.543045
  0
ARC
  8
1
 62
7
  6
CONTINUOUS
 10
284.483669
 20
17.973636
 40
7.518248
 50
9.543045
 51
15.554956
  0
ARC
  8
1
 62
7
  6
CONTINUOUS
 10
279.241215
 20
16.514359
 40
12.960014
 50
15.554956
 51
19.069091
  0
ARC
  8
1
 62
7
  6
CONTINUOUS
 10
276.484818
 20
15.561536
 40
15.876449
 50
19.069091
 51
21.962877
  0
ARC
  8
1
 62
7
  6
CONTINUOUS
 10
207.917316
 20
-12.089869
 40
89.809544
 50
21.962877
 51
22.477105
  0
ARC
  8
1
 62
7
  6
CONTINUOUS
 10
381.438495
 20
60.128325
 40
98.140470
 50
-157.764224
 51
-157.293844
  0
ARC
  8
1
 62
7
  6
CONTINUOUS
 10
332.638718
 20
40.046600
 40
45.370574
 50
-158.999222
 51
-157.917764
  0
ARC
  8
1
 62
7
  6
CONTINUOUS
 10
357.680491
 20
49.658320
 40
72.193616
 50
-159.676790
 51
-159.000190
  0
ARC
  8
1
 62
7
  6
CONTINUOUS
 10
463.678375
 20
88.915287
 40
185.227508
 50
-159.940390
 51
-159.677272
  0
ARC
  8
1
 62
7
  6
CONTINUOUS
 10
-8.513136
 20
-83.504657
 40
317.458736
 50
20.059565
 51
20.213063
  0
ARC
  8
1
 62
7
  6
CONTINUOUS
 10
208.852262
 20
-3.473491
 40
85.828203
 50
20.213063
 51
20.781905
  0
ARC
  8
1
 62
7
  6
CONTINUOUS
 10
203.394984
 20
-5.544545
 40
91.665253
 50
20.781905
 51
21.235431
  0
ARC
  8
1
 62
7
  6
CONTINUOUS
 10
358.676730
 20
54.653736
 40
74.876860
 50
-159.421614
 51
-158.865875
  0
ARC
  8
1
 62
7
  6
CONTINUOUS
 10
317.032067
 20
39.018925
 40
30.393995
 50
-160.787953
 51
-159.420800
  0
ARC
  8
1
 62
7
  6
CONTINUOUS
 10
306.179636
 20
35.237581
 40
18.901657
 50
-162.978377
 51
-160.786718
  0
ARC
  8
1
 62
7
  6
CONTINUOUS
 10
301.136385
 20
33.693797
 40
13.627413
 50
-166.007272
 51
-162.977678
  0
ARC
  8
1
 62
7
  6
CONTINUOUS
 10
300.791303
 20
33.571333
 40
13.263007
 50
-170.602952
 51
-166.160157
  0
ARC
  8
1
 62
7
  6
CONTINUOUS
 10
304.674067
 20
34.213284
 40
17.198480
 50
-174.040770
 51
-170.605023
  0
ARC
  8
1
 62
7
  6
CONTINUOUS
 10
311.892692
 20
34.967293
 40
24.456378
 50
-176.468247
 51
-174.039620
  0
ARC
  8
1
 62
7
  6
CONTINUOUS
 10
328.766623
 20
36.010164
 40
41.362505
 50
-177.909240
 51
-176.466270
  0
ARC
  8
1
 62
7
  6
CONTINUOUS
 10
412.503992
 20
39.070049
 40
125.155761
 50
-178.386158
 51
-177.907915
  0
ARC
  8
1
 62
7
  6
CONTINUOUS
 10
213.426722
 20
21.987410
 40
77.738541
 50
-4.753513
 51
-4.203127
  0
ARC
  8
1
 62
7
  6
CONTINUOUS
 10
265.385713
 20
18.168929
 40
25.639427
 50
-4.203127
 51
-2.541844
  0
ARC
  8
1
 62
7
  6
CONTINUOUS
 10
276.021420
 20
17.696781
 40
14.993246
 50
-2.541844
 51
0.276690
  0
ARC
  8
1
 62
7
  6
CONTINUOUS
 10
280.595213
 20
17.718869
 40
10.419399
 50
0.276690
 51
4.296065
  0
ARC
  8
1
 62
7
  6
CONTINUOUS
 10
283.077376
 20
17.905332
 40
7.930243
 50
4.296065
 51
9.543045
  0
ARC
  8
1
 62
7
  6
CONTINUOUS
 10
283.483669
 20
17.973636
 40
7.518248
 50
9.543045
 51
15.554956
  0
ARC
  8
1
 62
7
  6
CONTINUOUS
 10
278.241215
 20
16.514359
 40
12.960014
 50
15.554956
 51
19.069091
  0
ARC
  8
1
 62
7
  6
CONTINUOUS
 10
275.484818
 20
15.561536
 40
15.876449
 50
19.069091
 51
21.962877
  0
ARC
  8
1
 62
7
  6
CONTINUOUS
 10
206.917316
 20
-12.089869
 40
89.809544
 50
21.962877
 51
22.477105
  0
ARC
  8
1
 62
7
  6
CONTINUOUS
 10
380.438495
 20
60.128325
 40
98.140470
 50
-157.764224
 51
-157.293844
  0
ARC
  8
1
 62
7
  6
CONTINUOUS
 10
331.638718
 20
40.046600
 40
45.370574
 50
-158.999222
 51
-157.917764
  0
ARC
  8
1
 62
7
  6
CONTINUOUS
 10
356.680491
 20
49.658320
 40
72.193616
 50
-159.676790
 51
-159.000190
  0
ARC
  8
1
 62
7
  6
CONTINUOUS
 10
462.678375
 20
88.915287
 40
185.227508
 50
-159.940390
 51
-159.677272
  0
ARC
  8
1
 62
7
  6
CONTINUOUS
 10
-9.513136
 20
-83.504657
 40
317.458736
 50
20.059565
 51
20.213063
  0
ARC
  8
1
 62
7
  6
CONTINUOUS
 10
207.852262
 20
-3.473491
 40
85.828203
 50
20.213063
 51
20.781905
  0
ARC
  8
1
 62
7
  6
CONTINUOUS
 10
202.394984
 20
-5.544545
 40
91.665253
 50
20.781905
 51
21.235431
  0
ARC
  8
1
 62
7
  6
CONTINUOUS
 10
357.676730
 20
54.653736
 40
74.876860
 50
-159.421614
 51
-158.865875
  0
ARC
  8
1
 62
7
  6
CONTINUOUS
 10
316.032067
 20
39.018925
 40
30.393995
 50
-160.787953
 51
-159.420800
  0
ARC
  8
1
 62
7
  6
CONTINUOUS
 10
305.179636
 20
35.237581
 40
18.901657
 50
-162.978377
 51
-160.786718
  0
ARC
  8
1
 62
7
  6
CONTINUOUS
 10
300.136385
 20
33.693797
 40
13.627413
 50
-166.007272
 51
-162.977678
  0
ARC
  8
1
 62
7
  6
CONTINUOUS
 10
299.791303
 20
33.571333
 40
13.263007
 50
-170.602952
 51
-166.160157
  0
ARC
  8
1
 62
7
  6
CONTINUOUS
 10
303.674067
 20
34.213284
 40
17.198480
 50
-174.040770
 51
-170.605023
  0
ARC
  8
1
 62
7
  6
CONTINUOUS
 10
310.892692
 20
34.967293
 40
24.456378
 50
-176.468247
 51
-174.039620
  0
ARC
  8
1
 62
7
  6
CONTINUOUS
 10
327.766623
 20
36.010164
 40
41.362505
 50
-177.909240
 51
-176.466270
  0
ARC
  8
1
 62
7
  6
CONTINUOUS
 10
411.503992
 20
39.070049
 40
125.155761
 50
-178.386158
 51
-177.907915
  0
ARC
  8
1
 62
7
  6
CONTINUOUS
 10
183.198573
 20
21.150476
 40
106.341169
 50
-3.021440
 51
-2.680451
  0
ARC
  8
1
 62
7
  6
CONTINUOUS
 10
254.135391
 20
17.829437
 40
35.326653
 50
-2.680451
 51
-1.655471
  0
ARC
  8
1
 62
7
  6
CONTINUOUS
 10
268.430175
 20
17.416297
 40
21.025900
 50
-1.655471
 51
0.062432
  0
ARC
  8
1
 62
7
  6
CONTINUOUS
 10
274.557022
 20
17.422973
 40
14.899050
 50
0.062432
 51
2.480469
  0
ARC
  8
1
 62
7
  6
CONTINUOUS
 10
277.923903
 20
17.568825
 40
11.529012
 50
2.480469
 51
5.600816
  0
ARC
  8
1
 62
7
  6
CONTINUOUS
 10
279.130894
 20
17.687189
 40
10.316230
 50
5.600816
 51
9.831531
  0
ARC
  8
1
 62
7
  6
CONTINUOUS
 10
277.565628
 20
17.415933
 40
11.904826
 50
9.831531
 51
13.508028
  0
ARC
  8
1
 62
7
  6
CONTINUOUS
 10
277.787144
 20
17.469147
 40
11.677008
 50
13.508028
 51
17.268967
  0
ARC
  8
1
 62
7
  6
CONTINUOUS
 10
275.951041
 20
16.898356
 40
13.599786
 50
17.268967
 51
20.508219
  0
ARC
  8
1
 62
7
  6
CONTINUOUS
 10
276.398480
 20
17.065719
 40
13.122072
 50
20.508219
 51
23.873157
  0
ARC
  8
1
 62
7
  6
CONTINUOUS
 10
269.114971
 20
13.842194
 40
21.087033
 50
23.873157
 51
25.256321
  0
ARC
  8
1
 62
7
  6
CONTINUOUS
 10
446.339381
 20
97.343637
 40
174.823619
 50
-154.941849
 51
-154.775370
  0
ARC
  8
1
 62
7
  6
CONTINUOUS
 10
303.663953
 20
30.637546
 40
17.324475
 50
-156.609898
 51
-154.939071
  0
ARC
  8
1
 62
7
  6
CONTINUOUS
 10
295.959653
 20
27.305804
 40
8.930624
 50
-159.823054
 51
-156.606209
  0
ARC
  8
1
 62
7
  6
CONTINUOUS
 10
293.168740
 20
26.280215
 40
5.957237
 50
-164.615584
 51
-159.823123
  0
ARC
  8
1
 62
7
  6
CONTINUOUS
 10
293.197139
 20
26.257462
 40
5.978655
 50
-170.258635
 51
-164.898027
  0
ARC
  8
1
 62
7
  6
CONTINUOUS
 10
296.237143
 20
26.779487
 40
9.063154
 50
-173.819614
 51
-170.257831
  0
ARC
  8
1
 62
7
  6
CONTINUOUS
 10
305.098963
 20
27.740748
 40
17.976956
 50
-175.624291
 51
-173.814454
  0
ARC
  8
1
 62
7
  6
CONTINUOUS
 10
581.631859
 20
48.916291
 40
295.319427
 50
-175.731947
 51
-175.621307
  0
ARC
  8
1
 62
7
  6
CONTINUOUS
 10
266.499183
 20
25.398499
 40
20.689576
 50
4.266800
 51
5.844824
  0
ARC
  8
1
 62
7
  6
CONTINUOUS
 10
273.755030
 20
26.141257
 40
13.395811
 50
5.844824
 51
8.256003
  0
ARC
  8
1
 62
7
  6
CONTINUOUS
 10
239.773931
 20
21.210596
 40
47.732766
 50
8.256003
 51
8.930753
  0
ARC
  8
1
 62
7
  6
CONTINUOUS
 10
237.217356
 20
20.808841
 40
50.320715
 50
8.930753
 51
9.569697
  0
ARC
  8
1
 62
7
  6
CONTINUOUS
 10
333.232056
 20
36.818542
 40
47.019749
 50
-171.326864
 51
-170.643876
  0
ARC
  8
1
 62
7
  6
CONTINUOUS
 10
306.858690
 20
32.795441
 40
20.341297
 50
-172.905103
 51
-171.327039
  0
ARC
  8
1
 62
7
  6
CONTINUOUS
 10
303.963364
 20
32.405033
 40
17.419946
 50
-174.456215
 51
-173.003145
  0
ARC
  8
1
 62
7
  6
CONTINUOUS
 10
308.173403
 20
32.813697
 40
21.649773
 50
-175.626563
 51
-174.456119
  0
ARC
  8
1
 62
7
  6
CONTINUOUS
 10
315.020438
 20
33.337430
 40
28.516809
 50
-176.515895
 51
-175.626413
  0
ARC
  8
1
 62
7
  6
CONTINUOUS
 10
328.064626
 20
34.131715
 40
41.585157
 50
-177.126113
 51
-176.515756
  0
ARC
  8
1
 62
7
  6
CONTINUOUS
 10
362.756351
 20
35.873381
 40
76.320574
 50
-177.458637
 51
-177.126031
  0
ARC
  8
1
 62
7
  6
CONTINUOUS
 10
431.594567
 20
38.976085
 40
145.228669
 50
-177.681470
 51
-177.439966
  0
ARC
  8
1
 62
7
  6
CONTINUOUS
 10
472.730604
 20
40.641552
 40
186.398407
 50
-177.869540
 51
-177.681486
  0
ARC
  8
1
 62
7
  6
CONTINUOUS
 10
546.905851
 20
43.400868
 40
260.624959
 50
-178.003991
 51
-177.869552
  0
ARC
  8
1
 62
7
  6
CONTINUOUS
 10
720.186833
 20
49.439832
 40
434.011140
 50
-178.084707
 51
-178.003998
  0
ARC
  8
1
 62
7
  6
CONTINUOUS
 10
1587.184186
 20
78.432688
 40
1301.493127
 50
-178.111621
 51
-178.084710
  0
ARC
  8
1
 62
7
  6
CONTINUOUS
 10
182.198573
 20
21.150476
 40
106.341169
 50
-3.021440
 51
-2.680451
  0
ARC
  8
1
 62
7
  6
CONTINUOUS
 10
253.135391
 20
17.829437
 40
35.326653
 50
-2.680451
 51
-1.655471
  0
ARC
  8
1
 62
7
  6
CONTINUOUS
 10
267.430175
 20
17.416297
 40
21.025900
 50
-1.655471
 51
0.062432
  0
ARC
  8
1
 62
7
  6
CONTINUOUS
 10
273.557022
 20
17.422973
 40
14.899050
 50
0.062432
 51
2.480469
  0
ARC
  8
1
 62
7
  6
CONTINUOUS
 10
276.923903
 20
17.568825
 40
11.529012
 50
2.480469
 51
5.600816
  0
ARC
  8
1
 62
7
  6
CONTINUOUS
 10
278.130894
 20
17.687189
 40
10.316230
 50
5.600816
 51
9.831531
  0
ARC
  8
1
 62
7
  6
CONTINUOUS
 10
276.565628
 20
17.415933
 40
11.904826
 50
9.831531
 51
13.508028
  0
ARC
  8
1
 62
7
  6
CONTINUOUS
 10
276.787144
 20
17.469147
 40
11.677008
 50
13.508028
 51
17.268967
  0
ARC
  8
1
 62
7
  6
CONTINUOUS
 10
274.951041
 20
16.898356
 40
13.599786
 50
17.268967
 51
20.508219
  0
ARC
  8
1
 62
7
  6
CONTINUOUS
 10
275.398480
 20
17.065719
 40
13.122072
 50
20.508219
 51
23.873157
  0
ARC
  8
1
 62
7
  6
CONTINUOUS
 10
268.114971
 20
13.842194
 40
21.087033
 50
23.873157
 51
25.256321
  0
ARC
  8
1
 62
7
  6
CONTINUOUS
 10
445.339381
 20
97.343637
 40
174.823619
 50
-154.941849
 51
-154.775370
  0
ARC
  8
1
 62
7
  6
CONTINUOUS
 10
302.663953
 20
30.637546
 40
17.324475
 50
-156.609898
 51
-154.939071
  0
ARC
  8
1
 62
7
  6
CONTINUOUS
 10
294.959653
 20
27.305804
 40
8.930624
 50
-159.823054
 51
-156.606209
  0
ARC
  8
1
 62
7
  6
CONTINUOUS
 10
292.168740
 20
26.280215
 40
5.957237
 50
-164.615584
 51
-159.823123
  0
ARC
  8
1
 62
7
  6
CONTINUOUS
 10
292.197139
 20
26.257462
 40
5.978655
 50
-170.258635
 51
-164.898027
  0
ARC
  8
1
 62
7
  6
CONTINUOUS
 10
295.237143
 20
26.779487
 40
9.063154
 50
-173.819614
 51
-170.257831
  0
ARC
  8
1
 62
7
  6
CONTINUOUS
 10
304.098963
 20
27.740748
 40
17.976956
 50
-175.624291
 51
-173.814454
  0
ARC
  8
1
 62
7
  6
CONTINUOUS
 10
580.631859
 20
48.916291
 40
295.319427
 50
-175.731947
 51
-175.621307
  0
ARC
  8
1
 62
7
  6
CONTINUOUS
 10
265.499183
 20
25.398499
 40
20.689576
 50
4.266800
 51
5.844824
  0
ARC
  8
1
 62
7
  6
CONTINUOUS
 10
272.755030
 20
26.141257
 40
13.395811
 50
5.844824
 51
8.256003
  0
ARC
  8
1
 62
7
  6
CONTINUOUS
 10
238.773931
 20
21.210596
 40
47.732766
 50
8.256003
 51
8.930753
  0
ARC
  8
1
 62
7
  6
CONTINUOUS
 10
236.217356
 20
20.808841
 40
50.320715
 50
8.930753
 51
9.569697
  0
ARC
  8
1
 62
7
  6
CONTINUOUS
 10
332.232056
 20
36.818542
 40
47.019749
 50
-171.326864
 51
-170.643876
  0
ARC
  8
1
 62
7
  6
CONTINUOUS
 10
305.858690
 20
32.795441
 40
20.341297
 50
-172.905103
 51
-171.327039
  0
ARC
  8
1
 62
7
  6
CONTINUOUS
 10
302.963364
 20
32.405033
 40
17.419946
 50
-174.456215
 51
-173.003145
  0
ARC
  8
1
 62
7
  6
CONTINUOUS
 10
307.173403
 20
32.813697
 40
21.649773
 50
-175.626563
 51
-174.456119
  0
ARC
  8
1
 62
7
  6
CONTINUOUS
 10
314.020438
 20
33.337430
 40
28.516809
 50
-176.515895
 51
-175.626413
  0
ARC
  8
1
 62
7
  6
CONTINUOUS
 10
327.064626
 20
34.131715
 40
41.585157
 50
-177.126113
 51
-176.515756
  0
ARC
  8
1
 62
7
  6
CONTINUOUS
 10
361.756351
 20
35.873381
 40
76.320574
 50
-177.458637
 51
-177.126031
  0
ARC
  8
1
 62
7
  6
CONTINUOUS
 10
430.594567
 20
38.976085
 40
145.228669
 50
-177.681470
 51
-177.439966
  0
ARC
  8
1
 62
7
  6
CONTINUOUS
 10
471.730604
 20
40.641552
 40
186.398407
 50
-177.869540
 51
-177.681486
  0
ARC
  8
1
 62
7
  6
CONTINUOUS
 10
545.905851
 20
43.400868
 40
260.624959
 50
-178.003991
 51
-177.869552
  0
ARC
  8
1
 62
7
  6
CONTINUOUS
 10
719.186833
 20
49.439832
 40
434.011140
 50
-178.084707
 51
-178.003998
  0
ARC
  8
1
 62
7
  6
CONTINUOUS
 10
1586.184186
 20
78.432688
 40
1301.493127
 50
-178.111621
 51
-178.084710
  0
ARC
  8
1
 62
7
  6
CONTINUOUS
 10
-391.975771
 20
23.439996
 40
673.919889
 50
-0.671214
 51
-0.617688
  0
ARC
  8
1
 62
7
  6
CONTINUOUS
 10
57.244739
 20
18.596899
 40
224.673273
 50
-0.617688
 51
-0.457123
  0
ARC
  8
1
 62
7
  6
CONTINUOUS
 10
147.053901
 20
17.880359
 40
134.861253
 50
-0.457123
 51
-0.189592
  0
ARC
  8
1
 62
7
  6
CONTINUOUS
 10
185.519848
 20
17.753074
 40
96.395095
 50
-0.189592
 51
0.184785
  0
ARC
  8
1
 62
7
  6
CONTINUOUS
 10
206.860174
 20
17.821900
 40
75.054658
 50
0.184785
 51
0.665783
  0
ARC
  8
1
 62
7
  6
CONTINUOUS
 10
193.716178
 20
17.669158
 40
88.199542
 50
0.665783
 51
1.193465
  0
ARC
  8
1
 62
7
  6
CONTINUOUS
 10
692.574926
 20
27.678532
 40
410.759645
 50
-178.973306
 51
-178.859989
  0
ARC
  8
1
 62
7
  6
CONTINUOUS
 10
353.655431
 20
21.604878
 40
71.785732
 50
-179.621227
 51
-178.973177
  0
ARC
  8
1
 62
7
  6
CONTINUOUS
 10
321.091493
 20
21.389743
 40
39.221084
 50
179.194027
 51
-179.621018
  0
ARC
  8
1
 62
7
  6
CONTINUOUS
 10
308.804120
 20
21.562635
 40
26.932494
 50
177.470169
 51
179.194105
  0
ARC
  8
1
 62
7
  6
CONTINUOUS
 10
312.833999
 20
21.336388
 40
30.968470
 50
176.580370
 51
177.381085
  0
ARC
  8
1
 62
7
  6
CONTINUOUS
 10
373.031386
 20
17.739302
 40
91.273233
 50
176.308569
 51
176.580367
  0
ARC
  8
1
 62
7
  6
CONTINUOUS
 10
185.320139
 20
29.849664
 40
96.828265
 50
-3.691320
 51
-3.434899
  0
ARC
  8
1
 62
7
  6
CONTINUOUS
 10
250.287558
 20
25.950175
 40
31.743922
 50
-3.434899
 51
-2.651766
  0
ARC
  8
1
 62
7
  6
CONTINUOUS
 10
262.940563
 20
25.364150
 40
19.077353
 50
-2.651766
 51
-1.346198
  0
ARC
  8
1
 62
7
  6
CONTINUOUS
 10
262.029298
 20
25.385565
 40
19.988871
 50
-1.346198
 51
0.000312
  0
ARC
  8
1
 62
7
  6
CONTINUOUS
 10
405.820359
 20
25.063411
 40
123.802610
 50
179.633374
 51
179.850857
  0
ARC
  8
1
 62
7
  6
CONTINUOUS
 10
300.038456
 20
25.740780
 40
18.018538
 50
178.144762
 51
179.634901
  0
ARC
  8
1
 62
7
  6
CONTINUOUS
 10
291.605612
 20
26.014341
 40
9.581258
 50
175.358704
 51
178.147209
  0
ARC
  8
1
 62
7
  6
CONTINUOUS
 10
288.505986
 20
26.266037
 40
6.471430
 50
171.249722
 51
175.359207
  0
ARC
  8
1
 62
7
  6
CONTINUOUS
 10
288.756897
 20
26.190209
 40
6.731056
 50
165.132396
 51
170.936694
  0
ARC
  8
1
 62
7
  6
CONTINUOUS
 10
293.446140
 20
24.945882
 40
11.582587
 50
161.739070
 51
165.135003
  0
ARC
  8
1
 62
7
  6
CONTINUOUS
 10
318.047265
 20
16.832576
 40
37.487048
 50
160.689837
 51
161.745066
  0
ARC
  8
1
 62
7
  6
CONTINUOUS
 10
252.739283
 20
39.716247
 40
31.714071
 50
-19.310396
 51
-18.063241
  0
ARC
  8
1
 62
7
  6
CONTINUOUS
 10
272.445755
 20
33.289170
 40
10.986014
 50
-18.063241
 51
-14.483551
  0
ARC
  8
1
 62
7
  6
CONTINUOUS
 10
275.155382
 20
32.589243
 40
8.187447
 50
-14.483551
 51
-7.516781
  0
ARC
  8
1
 62
7
  6
CONTINUOUS
 10
270.057092
 20
33.261965
 40
13.329929
 50
-7.516781
 51
-3.229996
  0
ARC
  8
1
 62
7
  6
CONTINUOUS
 10
269.212855
 20
33.309608
 40
14.175510
 50
-3.229996
 51
0.832876
  0
ARC
  8
1
 62
7
  6
CONTINUOUS
 10
242.293539
 20
32.918270
 40
41.097670
 50
0.832876
 51
2.245397
  0
ARC
  8
1
 62
7
  6
CONTINUOUS
 10
238.142381
 20
32.755505
 40
45.252017
 50
2.245397
 51
3.534500
  0
ARC
  8
1
 62
7
  6
CONTINUOUS
 10
-380.851265
 20
23.393787
 40
661.795681
 50
-0.679511
 51
-0.625006
  0
ARC
  8
1
 62
7
  6
CONTINUOUS
 10
60.281734
 20
18.581532
 40
220.636434
 50
-0.625006
 51
-0.461509
  0
ARC
  8
1
 62
7
  6
CONTINUOUS
 10
148.468735
 20
17.871184
 40
132.446573
 50
-0.461509
 51
-0.189103
  0
ARC
  8
1
 62
7
  6
CONTINUOUS
 10
186.237157
 20
17.746531
 40
94.677945
 50
-0.189103
 51
0.192072
  0
ARC
  8
1
 62
7
  6
CONTINUOUS
 10
207.187542
 20
17.816763
 40
73.727442
 50
0.192072
 51
0.681761
  0
ARC
  8
1
 62
7
  6
CONTINUOUS
 10
194.171973
 20
17.661883
 40
86.743933
 50
0.681761
 51
1.218362
  0
ARC
  8
1
 62
7
  6
CONTINUOUS
 10
675.843076
 20
27.529658
 40
395.028270
 50
-178.954038
 51
-178.836195
  0
ARC
  8
1
 62
7
  6
CONTINUOUS
 10
350.944179
 20
21.597994
 40
70.075231
 50
-179.617804
 51
-178.953892
  0
ARC
  8
1
 62
7
  6
CONTINUOUS
 10
319.198584
 20
21.386392
 40
38.328930
 50
179.169969
 51
-179.617561
  0
ARC
  8
1
 62
7
  6
CONTINUOUS
 10
307.192909
 20
21.560379
 40
26.321995
 50
177.406537
 51
179.170082
  0
ARC
  8
1
 62
7
  6
CONTINUOUS
 10
311.463859
 20
21.317391
 40
30.599605
 50
176.503775
 51
177.313883
  0
ARC
  8
1
 62
7
  6
CONTINUOUS
 10
379.597080
 20
17.154674
 40
98.859872
 50
176.252897
 51
176.503765
  0
ARC
  8
1
 62
7
  6
CONTINUOUS
 10
200.392241
 20
28.891078
 40
80.728874
 50
-3.746960
 51
-3.439442
  0
ARC
  8
1
 62
7
  6
CONTINUOUS
 10
252.247044
 20
25.774511
 40
28.780499
 50
-3.439442
 51
-2.575533
  0
ARC
  8
1
 62
7
  6
CONTINUOUS
 10
263.397056
 20
25.272963
 40
17.619213
 50
-2.575533
 51
-1.161023
  0
ARC
  8
1
 62
7
  6
CONTINUOUS
 10
262.310637
 20
25.294981
 40
18.705855
 50
-1.161023
 51
0.279610
  0
ARC
  8
1
 62
7
  6
CONTINUOUS
 10
380.703396
 20
25.590761
 40
99.687337
 50
179.847089
 51
-179.882466
  0
ARC
  8
1
 62
7
  6
CONTINUOUS
 10
297.124456
 20
25.814406
 40
16.108097
 50
178.181231
 51
179.849182
  0
ARC
  8
1
 62
7
  6
CONTINUOUS
 10
289.632989
 20
26.052792
 40
8.612838
 50
175.084053
 51
178.184560
  0
ARC
  8
1
 62
7
  6
CONTINUOUS
 10
286.848533
 20
26.292354
 40
5.818096
 50
170.520904
 51
175.084737
  0
ARC
  8
1
 62
7
  6
CONTINUOUS
 10
287.084116
 20
26.215298
 40
6.063267
 50
163.679113
 51
170.169314
  0
ARC
  8
1
 62
7
  6
CONTINUOUS
 10
291.360155
 20
24.963924
 40
10.518651
 50
159.910169
 51
163.682874
  0
ARC
  8
1
 62
7
  6
CONTINUOUS
 10
314.119204
 20
16.645233
 40
34.750343
 50
158.768515
 51
159.918467
  0
ARC
  8
1
 62
7
  6
CONTINUOUS
 10
255.519814
 20
39.411743
 40
28.116202
 50
-21.231961
 51
-19.811104
  0
ARC
  8
1
 62
7
  6
CONTINUOUS
 10
272.724842
 20
33.213785
 40
9.828838
 50
-19.811104
 51
-15.776019
  0
ARC
  8
1
 62
7
  6
CONTINUOUS
 10
275.165376
 20
32.524287
 40
7.292775
 50
-15.776019
 51
-7.969074
  0
ARC
  8
1
 62
7
  6
CONTINUOUS
 10
270.599088
 20
33.163524
 40
11.903590
 50
-7.969074
 51
-3.174754
  0
ARC
  8
1
 62
7
  6
CONTINUOUS
 10
269.774334
 20
33.209270
 40
12.729611
 50
-3.174754
 51
1.353136
  0
ARC
  8
1
 62
7
  6
CONTINUOUS
 10
245.179924
 20
32.628324
 40
37.330881
 50
1.353136
 51
2.912521
  0
ARC
  8
1
 62
7
  6
CONTINUOUS
 10
241.678567
 20
32.450186
 40
40.836767
 50
2.912521
 51
4.346709
  0
ARC
  8
1
 62
7
  6
CONTINUOUS
 10
2.777273
 20
24.524537
 40
276.766300
 50
-1.859202
 51
-1.728882
  0
ARC
  8
1
 62
7
  6
CONTINUOUS
 10
187.185667
 20
18.958383
 40
92.273920
 50
-1.728882
 51
-1.337966
  0
ARC
  8
1
 62
7
  6
CONTINUOUS
 10
224.046618
 20
18.097452
 40
55.402917
 50
-1.337966
 51
-0.686738
  0
ARC
  8
1
 62
7
  6
CONTINUOUS
 10
239.816676
 20
17.908426
 40
39.631726
 50
-0.686738
 51
0.224111
  0
ARC
  8
1
 62
7
  6
CONTINUOUS
 10
248.535715
 20
17.942531
 40
30.912621
 50
0.224111
 51
1.393009
  0
ARC
  8
1
 62
7
  6
CONTINUOUS
 10
243.975087
 20
17.831628
 40
35.474597
 50
1.393009
 51
2.585914
  0
ARC
  8
1
 62
7
  6
CONTINUOUS
 10
618.646813
 20
34.083359
 40
339.549493
 50
-177.651651
 51
-177.526978
  0
ARC
  8
1
 62
7
  6
CONTINUOUS
 10
314.007842
 20
21.590735
 40
34.654481
 50
-178.870625
 51
-177.650931
  0
ARC
  8
1
 62
7
  6
CONTINUOUS
 10
297.472856
 20
21.265114
 40
18.116289
 50
178.803706
 51
-178.869523
  0
ARC
  8
1
 62
7
  6
CONTINUOUS
 10
291.578414
 20
21.388150
 40
12.220563
 50
175.361577
 51
178.803454
  0
ARC
  8
1
 62
7
  6
CONTINUOUS
 10
290.780979
 20
21.427637
 40
11.422574
 50
172.879403
 51
175.235531
  0
ARC
  8
1
 62
7
  6
CONTINUOUS
 10
293.118555
 20
21.135612
 40
13.778321
 50
170.922632
 51
172.879355
  0
ARC
  8
1
 62
7
  6
CONTINUOUS
 10
296.620357
 20
20.576222
 40
17.324520
 50
169.363361
 51
170.922923
  0
ARC
  8
1
 62
7
  6
CONTINUOUS
 10
302.391133
 20
19.492598
 40
23.196155
 50
168.196726
 51
169.363768
  0
ARC
  8
1
 62
7
  6
CONTINUOUS
 10
313.727930
 20
17.123763
 40
34.777793
 50
167.417738
 51
168.197083
  0
ARC
  8
1
 62
7
  6
CONTINUOUS
 10
310.998987
 20
17.782280
 40
31.970973
 50
166.447510
 51
167.504164
  0
ARC
  8
1
 62
7
  6
CONTINUOUS
 10
299.076340
 20
20.656436
 40
19.706786
 50
164.735984
 51
166.448154
  0
ARC
  8
1
 62
7
  6
CONTINUOUS
 10
293.741524
 20
22.112412
 40
14.176855
 50
162.360904
 51
164.736513
  0
ARC
  8
1
 62
7
  6
CONTINUOUS
 10
290.767975
 20
23.057849
 40
11.056624
 50
159.318470
 51
162.360599
  0
ARC
  8
1
 62
7
  6
CONTINUOUS
 10
288.942936
 20
23.746446
 40
9.106000
 50
155.619082
 51
159.316378
  0
ARC
  8
1
 62
7
  6
CONTINUOUS
 10
291.180865
 20
22.677913
 40
11.585551
 50
152.314996
 51
155.374661
  0
ARC
  8
1
 62
7
  6
CONTINUOUS
 10
320.119057
 20
7.498131
 40
44.263444
 50
151.515784
 51
152.318949
  0
ARC
  8
1
 62
7
  6
CONTINUOUS
 10
259.554037
 20
40.361625
 40
24.643239
 50
-28.486201
 51
-27.047426
  0
ARC
  8
1
 62
7
  6
CONTINUOUS
 10
273.088422
 20
33.451394
 40
9.446829
 50
-27.047426
 51
-23.322686
  0
ARC
  8
1
 62
7
  6
CONTINUOUS
 10
276.515466
 20
31.973867
 40
5.714843
 50
-23.322686
 51
-17.209627
  0
ARC
  8
1
 62
7
  6
CONTINUOUS
 10
277.418016
 20
31.694315
 40
4.769991
 50
-17.209627
 51
-11.903147
  0
ARC
  8
1
 62
7
  6
CONTINUOUS
 10
274.261166
 20
32.359749
 40
7.996212
 50
-11.903147
 51
-8.718678
  0
ARC
  8
1
 62
7
  6
CONTINUOUS
 10
274.473207
 20
32.327231
 40
7.781692
 50
-8.718678
 51
-5.423328
  0
ARC
  8
1
 62
7
  6
CONTINUOUS
 10
261.604060
 20
33.549010
 40
20.708706
 50
-5.423328
 51
-4.179004
  0
ARC
  8
1
 62
7
  6
CONTINUOUS
 10
264.264652
 20
33.354609
 40
18.041021
 50
-4.179004
 51
-2.749220
  0
ARC
  8
1
 62
7
  6
CONTINUOUS
 10
215.653196
 20
36.087155
 40
66.728779
 50
-3.090767
 51
-2.562157
  0
ARC
  8
1
 62
7
  6
CONTINUOUS
 10
197.831695
 20
36.884630
 40
84.568113
 50
-2.562157
 51
-2.146879
  0
ARC
  8
1
 62
7
  6
CONTINUOUS
 10
164.979322
 20
38.116188
 40
117.443562
 50
-2.146879
 51
-1.848819
  0
ARC
  8
1
 62
7
  6
CONTINUOUS
 10
88.488781
 20
40.585241
 40
193.973943
 50
-1.848819
 51
-1.668744
  0
ARC
  8
1
 62
7
  6
CONTINUOUS
 10
-301.210024
 20
51.938461
 40
583.838091
 50
-1.668744
 51
-1.608980
  0
ARC
  8
1
 62
7
  6
CONTINUOUS
 10
24.728338
 20
24.218556
 40
253.817769
 50
-1.958253
 51
-1.816216
  0
ARC
  8
1
 62
7
  6
CONTINUOUS
 10
193.816797
 20
18.856834
 40
84.644322
 50
-1.816216
 51
-1.390213
  0
ARC
  8
1
 62
7
  6
CONTINUOUS
 10
227.593110
 20
18.037132
 40
50.858064
 50
-1.390213
 51
-0.680873
  0
ARC
  8
1
 62
7
  6
CONTINUOUS
 10
242.029839
 20
17.865565
 40
36.420316
 50
-0.680873
 51
0.310543
  0
ARC
  8
1
 62
7
  6
CONTINUOUS
 10
249.995439
 20
17.908739
 40
28.454598
 50
0.310543
 51
1.581436
  0
ARC
  8
1
 62
7
  6
CONTINUOUS
 10
245.479808
 20
17.784071
 40
32.971950
 50
1.581436
 51
2.866770
  0
ARC
  8
1
 62
7
  6
CONTINUOUS
 10
515.140075
 20
30.769761
 40
237.000873
 50
-177.437174
 51
-177.258282
  0
ARC
  8
1
 62
7
  6
CONTINUOUS
 10
308.587669
 20
21.525199
 40
30.241692
 50
-178.834715
 51
-177.435962
  0
ARC
  8
1
 62
7
  6
CONTINUOUS
 10
294.310634
 20
21.235334
 40
15.961715
 50
178.528064
 51
-178.832770
  0
ARC
  8
1
 62
7
  6
CONTINUOUS
 10
289.120998
 20
21.368724
 40
10.770366
 50
174.631580
 51
178.528268
  0
ARC
  8
1
 62
7
  6
CONTINUOUS
 10
289.064119
 20
21.342106
 40
10.716273
 50
171.957348
 51
174.461433
  0
ARC
  8
1
 62
7
  6
CONTINUOUS
 10
293.917990
 20
20.656180
 40
15.618371
 50
170.234775
 51
171.957081
  0
ARC
  8
1
 62
7
  6
CONTINUOUS
 10
306.725874
 20
18.452162
 40
28.614508
 50
169.291948
 51
170.235333
  0
ARC
  8
1
 62
7
  6
CONTINUOUS
 10
432.810330
 20
-5.388058
 40
156.933042
 50
169.120035
 51
169.292679
  0
ARC
  8
1
 62
7
  6
CONTINUOUS
 10
233.433911
 20
32.932970
 40
46.092714
 50
-10.879328
 51
-10.289507
  0
ARC
  8
1
 62
7
  6
CONTINUOUS
 10
237.534520
 20
32.188539
 40
41.925080
 50
-10.289507
 51
-9.492156
  0
ARC
  8
1
 62
7
  6
CONTINUOUS
 10
308.002102
 20
20.306370
 40
29.537357
 50
169.186127
 51
170.316795
  0
ARC
  8
1
 62
7
  6
CONTINUOUS
 10
291.053925
 20
23.544499
 40
12.282613
 50
166.485223
 51
169.189967
  0
ARC
  8
1
 62
7
  6
CONTINUOUS
 10
286.525396
 20
24.633373
 40
7.625014
 50
162.161368
 51
166.488399
  0
ARC
  8
1
 62
7
  6
CONTINUOUS
 10
284.545283
 20
25.269511
 40
5.545227
 50
149.693560
 51
162.150754
  0
ARC
  8
1
 62
7
  6
CONTINUOUS
 10
293.525430
 20
20.168756
 40
15.872618
 50
147.854001
 51
150.155335
  0
ARC
  8
1
 62
7
  6
CONTINUOUS
 10
246.596198
 20
49.657720
 40
39.552572
 50
-32.143280
 51
-31.218859
  0
ARC
  8
1
 62
7
  6
CONTINUOUS
 10
273.036490
 20
33.633013
 40
8.635259
 50
-31.218859
 51
-27.024558
  0
ARC
  8
1
 62
7
  6
CONTINUOUS
 10
276.588919
 20
31.821041
 40
4.647403
 50
-27.024558
 51
-19.325906
  0
ARC
  8
1
 62
7
  6
CONTINUOUS
 10
277.459079
 20
31.515874
 40
3.725283
 50
-19.325906
 51
-12.556220
  0
ARC
  8
1
 62
7
  6
CONTINUOUS
 10
274.519021
 20
32.170696
 40
6.737381
 50
-12.556220
 51
-8.782416
  0
ARC
  8
1
 62
7
  6
CONTINUOUS
 10
274.894786
 20
32.112643
 40
6.357158
 50
-8.782416
 51
-4.741486
  0
ARC
  8
1
 62
7
  6
CONTINUOUS
 10
259.195306
 20
33.414820
 40
22.110549
 50
-4.741486
 51
-3.571290
  0
ARC
  8
1
 62
7
  6
CONTINUOUS
 10
264.774681
 20
33.066602
 40
16.520318
 50
-3.571290
 51
-2.002678
  0
ARC
  8
1
 62
7
  6
CONTINUOUS
 10
111.023507
 20
39.923794
 40
170.423639
 50
-2.500249
 51
-2.292652
  0
ARC
  8
1
 62
7
  6
CONTINUOUS
 10
66.886396
 20
41.690854
 40
214.596109
 50
-2.292652
 51
-2.128832
  0
ARC
  8
1
 62
7
  6
CONTINUOUS
 10
-15.294756
 20
44.745711
 40
296.834020
 50
-2.128832
 51
-2.010965
  0
ARC
  8
1
 62
7
  6
CONTINUOUS
 10
-206.574747
 20
51.462007
 40
488.231887
 50
-2.010965
 51
-1.939534
  0
ARC
  8
1
 62
7
  6
CONTINUOUS
 10
-1188.549988
 20
84.715795
 40
1470.770023
 50
-1.939534
 51
-1.915859
  0
ARC
  8
1
 62
7
  6
CONTINUOUS
 10
436.808838
 20
21.841643
 40
160.034873
 50
-178.009390
 51
-177.745187
  0
ARC
  8
1
 62
7
  6
CONTINUOUS
 10
330.001435
 20
18.129644
 40
53.162986
 50
-178.803515
 51
-178.009096
  0
ARC
  8
1
 62
7
  6
CONTINUOUS
 10
308.547753
 20
17.681831
 40
31.704630
 50
179.867545
 51
-178.803043
  0
ARC
  8
1
 62
7
  6
CONTINUOUS
 10
299.327100
 20
17.703308
 40
22.483953
 50
177.997817
 51
179.867956
  0
ARC
  8
1
 62
7
  6
CONTINUOUS
 10
294.230082
 20
17.881487
 40
17.383821
 50
175.583739
 51
177.997792
  0
ARC
  8
1
 62
7
  6
CONTINUOUS
 10
294.167086
 20
17.858644
 40
17.322793
 50
172.976237
 51
175.492366
  0
ARC
  8
1
 62
7
  6
CONTINUOUS
 10
299.062514
 20
17.255303
 40
22.255260
 50
171.014240
 51
172.975734
  0
ARC
  8
1
 62
7
  6
CONTINUOUS
 10
307.831657
 20
15.868742
 40
31.133347
 50
169.608501
 51
171.014423
  0
ARC
  8
1
 62
7
  6
CONTINUOUS
 10
327.735148
 20
12.219230
 40
51.368660
 50
168.754309
 51
169.608951
  0
ARC
  8
1
 62
7
  6
CONTINUOUS
 10
417.115370
 20
-5.551495
 40
142.498363
 50
168.445827
 51
168.754750
  0
ARC
  8
1
 62
7
  6
CONTINUOUS
 10
360.852752
 20
6.151123
 40
85.032123
 50
168.014538
 51
168.578156
  0
ARC
  8
1
 62
7
  6
CONTINUOUS
 10
306.666940
 20
17.654959
 40
29.638617
 50
166.400785
 51
168.015778
  0
ARC
  8
1
 62
7
  6
CONTINUOUS
 10
295.101551
 20
20.453431
 40
17.739471
 50
163.714828
 51
166.402912
  0
ARC
  8
1
 62
7
  6
CONTINUOUS
 10
290.119010
 20
21.909270
 40
12.548596
 50
159.931969
 51
163.715889
  0
ARC
  8
1
 62
7
  6
CONTINUOUS
 10
287.524569
 20
22.855112
 40
9.787122
 50
150.513206
 51
159.921261
  0
ARC
  8
1
 62
7
  6
CONTINUOUS
 10
301.224862
 20
15.270713
 40
25.446414
 50
149.068338
 51
150.832068
  0
ARC
  8
1
 62
7
  6
CONTINUOUS
 10
178.486998
 20
88.817203
 40
117.639816
 50
-30.930510
 51
-30.548955
  0
ARC
  8
1
 62
7
  6
CONTINUOUS
 10
264.683353
 20
37.944417
 40
17.550596
 50
-30.548955
 51
-28.006685
  0
ARC
  8
1
 62
7
  6
CONTINUOUS
 10
272.051445
 20
34.025631
 40
9.205199
 50
-28.006685
 51
-23.204141
  0
ARC
  8
1
 62
7
  6
CONTINUOUS
 10
273.611288
 20
33.356948
 40
7.508070
 50
-23.204141
 51
-15.346467
  0
ARC
  8
1
 62
7
  6
CONTINUOUS
 10
269.142712
 20
34.583308
 40
12.141872
 50
-15.346467
 51
-10.455803
  0
ARC
  8
1
 62
7
  6
CONTINUOUS
 10
267.850494
 20
34.821776
 40
13.455910
 50
-10.455803
 51
-5.984642
  0
ARC
  8
1
 62
7
  6
CONTINUOUS
 10
243.614271
 20
37.362537
 40
37.824947
 50
-5.984642
 51
-4.374832
  0
ARC
  8
1
 62
7
  6
CONTINUOUS
 10
236.742923
 20
37.888222
 40
44.716375
 50
-4.374832
 51
-3.003435
  0
ARC
  8
1
 62
7
  6
CONTINUOUS
 10
423.482248
 20
21.853647
 40
147.719135
 50
-177.838940
 51
-177.552428
  0
ARC
  8
1
 62
7
  6
CONTINUOUS
 10
324.865652
 20
18.132636
 40
49.032363
 50
-178.700507
 51
-177.838546
  0
ARC
  8
1
 62
7
  6
CONTINUOUS
 10
305.036571
 20
17.683154
 40
29.198188
 50
179.856274
 51
-178.699865
  0
ARC
  8
1
 62
7
  6
CONTINUOUS
 10
296.506138
 20
17.704763
 40
20.667728
 50
177.823178
 51
179.856858
  0
ARC
  8
1
 62
7
  6
CONTINUOUS
 10
291.792028
 20
17.883963
 40
15.950214
 50
175.194835
 51
177.823221
  0
ARC
  8
1
 62
7
  6
CONTINUOUS
 10
292.299398
 20
17.807861
 40
16.462209
 50
172.434643
 51
175.078818
  0
ARC
  8
1
 62
7
  6
CONTINUOUS
 10
299.421467
 20
16.861696
 40
23.646851
 50
170.589820
 51
172.434016
  0
ARC
  8
1
 62
7
  6
CONTINUOUS
 10
317.427175
 20
13.877897
 40
41.898114
 50
169.545960
 51
170.590244
  0
ARC
  8
1
 62
7
  6
CONTINUOUS
 10
447.722274
 20
-10.160528
 40
174.392109
 50
169.294868
 51
169.546688
  0
ARC
  8
1
 62
7
  6
CONTINUOUS
 10
194.951807
 20
37.623360
 40
82.855260
 50
-10.704428
 51
-10.172482
  0
ARC
  8
1
 62
7
  6
CONTINUOUS
 10
203.742933
 20
36.045945
 40
73.923735
 50
-10.172482
 51
-9.529745
  0
ARC
  8
1
 62
7
  6
CONTINUOUS
 10
317.251624
 20
16.857247
 40
41.195594
 50
169.135296
 51
170.287453
  0
ARC
  8
1
 62
7
  6
CONTINUOUS
 10
294.570563
 20
21.211610
 40
18.100335
 50
166.530446
 51
169.138926
  0
ARC
  8
1
 62
7
  6
CONTINUOUS
 10
288.057872
 20
22.772180
 40
11.403282
 50
162.422347
 51
166.533724
  0
ARC
  8
1
 62
7
  6
CONTINUOUS
 10
285.036468
 20
23.730484
 40
8.233546
 50
151.358001
 51
162.430010
  0
ARC
  8
1
 62
7
  6
CONTINUOUS
 10
293.691759
 20
19.102308
 40
18.048362
 50
149.152229
 51
151.634037
  0
ARC
  8
1
 62
7
  6
CONTINUOUS
 10
476.764904
 20
-90.219478
 40
231.278354
 50
148.961901
 51
149.156205
  0
ARC
  8
1
 62
7
  6
CONTINUOUS
 10
260.237812
 20
40.080699
 40
21.431199
 50
-31.041615
 51
-28.951852
  0
ARC
  8
1
 62
7
  6
CONTINUOUS
 10
270.219412
 20
34.558768
 40
10.024004
 50
-28.951852
 51
-24.519945
  0
ARC
  8
1
 62
7
  6
CONTINUOUS
 10
272.167923
 20
33.669961
 40
7.882353
 50
-24.519945
 51
-16.963984
  0
ARC
  8
1
 62
7
  6
CONTINUOUS
 10
267.420451
 20
35.118146
 40
12.845792
 50
-16.963984
 51
-12.306688
  0
ARC
  8
1
 62
7
  6
CONTINUOUS
 10
266.386207
 20
35.343774
 40
13.904361
 50
-12.306688
 51
-7.956566
  0
ARC
  8
1
 62
7
  6
CONTINUOUS
 10
240.417002
 20
38.973435
 40
40.125995
 50
-7.956566
 51
-6.433441
  0
ARC
  8
1
 62
7
  6
CONTINUOUS
 10
235.474127
 20
39.530789
 40
45.100193
 50
-6.433441
 51
-5.069859
  0
ARC
  8
1
 62
7
  6
CONTINUOUS
 10
1754.843504
 20
-59.488589
 40
1482.345891
 50
177.063695
 51
177.098544
  0
ARC
  8
1
 62
7
  6
CONTINUOUS
 10
768.461349
 20
-8.894103
 40
494.667017
 50
176.959214
 51
177.063682
  0
ARC
  8
1
 62
7
  6
CONTINUOUS
 10
571.538941
 20
1.566598
 40
297.466964
 50
176.785334
 51
176.959188
  0
ARC
  8
1
 62
7
  6
CONTINUOUS
 10
487.403742
 20
6.291942
 40
213.199173
 50
176.542449
 51
176.785294
  0
ARC
  8
1
 62
7
  6
CONTINUOUS
 10
440.872751
 20
9.103142
 40
166.583339
 50
176.231118
 51
176.542395
  0
ARC
  8
1
 62
7
  6
CONTINUOUS
 10
342.950327
 20
15.602611
 40
68.445485
 50
175.760256
 51
176.271951
  0
ARC
  8
1
 62
7
  6
CONTINUOUS
 10
307.277394
 20
18.247362
 40
32.674647
 50
174.689173
 51
175.760630
  0
ARC
  8
1
 62
7
  6
CONTINUOUS
 10
295.993959
 20
19.296481
 40
21.342545
 50
173.052230
 51
174.689805
  0
ARC
  8
1
 62
7
  6
CONTINUOUS
 10
290.459833
 20
19.971019
 40
15.767461
 50
170.841306
 51
173.052779
  0
ARC
  8
1
 62
7
  6
CONTINUOUS
 10
287.209447
 20
20.495053
 40
12.475103
 50
168.051521
 51
170.841265
  0
ARC
  8
1
 62
7
  6
CONTINUOUS
 10
286.689044
 20
20.584847
 40
11.947401
 50
163.048636
 51
167.956126
  0
ARC
  8
1
 62
7
  6
CONTINUOUS
 10
288.217573
 20
20.118750
 40
13.545415
 50
158.705822
 51
163.047840
  0
ARC
  8
1
 62
7
  6
CONTINUOUS
 10
290.134334
 20
19.372067
 40
15.602478
 50
154.919922
 51
158.707214
  0
ARC
  8
1
 62
7
  6
CONTINUOUS
 10
292.485988
 20
18.272355
 40
18.198560
 50
151.661493
 51
154.922449
  0
ARC
  8
1
 62
7
  6
CONTINUOUS
 10
295.366233
 20
16.720229
 40
21.470395
 50
148.894160
 51
151.664368
  0
ARC
  8
1
 62
7
  6
CONTINUOUS
 10
307.052199
 20
9.603209
 40
35.152932
 50
147.228127
 51
148.802096
  0
ARC
  8
1
 62
7
  6
CONTINUOUS
 10
-11852.067428
 20
7837.358133
 40
14425.757732
 50
-32.772482
 51
-32.768658
  0
ARC
  8
1
 62
7
  6
CONTINUOUS
 10
249.121866
 20
48.039402
 40
34.362087
 50
-32.768658
 51
-31.172205
  0
ARC
  8
1
 62
7
  6
CONTINUOUS
 10
264.140555
 20
38.953715
 40
16.809004
 50
-31.172205
 51
-27.932446
  0
ARC
  8
1
 62
7
  6
CONTINUOUS
 10
269.237639
 20
36.251252
 40
11.039812
 50
-27.932446
 51
-23.026083
  0
ARC
  8
1
 62
7
  6
CONTINUOUS
 10
270.605316
 20
35.669972
 40
9.553734
 50
-23.026083
 51
-18.572368
  0
ARC
  8
1
 62
7
  6
CONTINUOUS
 10
264.477397
 20
37.728955
 40
16.018315
 50
-18.572368
 51
-15.901927
  0
ARC
  8
1
 62
7
  6
CONTINUOUS
 10
263.999540
 20
37.865094
 40
16.515187
 50
-15.901927
 51
-13.294750
  0
ARC
  8
1
 62
7
  6
CONTINUOUS
 10
231.545495
 20
45.533765
 40
49.862954
 50
-13.294750
 51
-12.426510
  0
ARC
  8
1
 62
7
  6
CONTINUOUS
 10
230.602184
 20
45.741623
 40
50.828893
 50
-12.426510
 51
-11.572135
  0
ARC
  8
1
 62
7
  6
CONTINUOUS
 10
1753.843503
 20
-59.488589
 40
1482.345891
 50
177.063695
 51
177.098544
  0
ARC
  8
1
 62
7
  6
CONTINUOUS
 10
767.461349
 20
-8.894103
 40
494.667017
 50
176.959214
 51
177.063682
  0
ARC
  8
1
 62
7
  6
CONTINUOUS
 10
570.538941
 20
1.566598
 40
297.466964
 50
176.785334
 51
176.959188
  0
ARC
  8
1
 62
7
  6
CONTINUOUS
 10
486.403742
 20
6.291942
 40
213.199173
 50
176.542449
 51
176.785294
  0
ARC
  8
1
 62
7
  6
CONTINUOUS
 10
439.872751
 20
9.103142
 40
166.583339
 50
176.231118
 51
176.542395
  0
ARC
  8
1
 62
7
  6
CONTINUOUS
 10
341.950327
 20
15.602611
 40
68.445485
 50
175.760256
 51
176.271951
  0
ARC
  8
1
 62
7
  6
CONTINUOUS
 10
306.277394
 20
18.247362
 40
32.674647
 50
174.689173
 51
175.760630
  0
ARC
  8
1
 62
7
  6
CONTINUOUS
 10
294.993959
 20
19.296481
 40
21.342545
 50
173.052230
 51
174.689805
  0
ARC
  8
1
 62
7
  6
CONTINUOUS
 10
289.459833
 20
19.971019
 40
15.767461
 50
170.841306
 51
173.052779
  0
ARC
  8
1
 62
7
  6
CONTINUOUS
 10
286.209447
 20
20.495053
 40
12.475103
 50
168.051521
 51
170.841265
  0
ARC
  8
1
 62
7
  6
CONTINUOUS
 10
285.689044
 20
20.584847
 40
11.947401
 50
163.048636
 51
167.956126
  0
ARC
  8
1
 62
7
  6
CONTINUOUS
 10
287.217573
 20
20.118750
 40
13.545415
 50
158.705822
 51
163.047840
  0
ARC
  8
1
 62
7
  6
CONTINUOUS
 10
289.134334
 20
19.372067
 40
15.602478
 50
154.919922
 51
158.707214
  0
ARC
  8
1
 62
7
  6
CONTINUOUS
 10
291.485988
 20
18.272355
 40
18.198560
 50
151.661493
 51
154.922449
  0
ARC
  8
1
 62
7
  6
CONTINUOUS
 10
294.366233
 20
16.720229
 40
21.470395
 50
148.894160
 51
151.664368
  0
ARC
  8
1
 62
7
  6
CONTINUOUS
 10
306.052199
 20
9.603209
 40
35.152932
 50
147.228127
 51
148.802096
  0
ARC
  8
1
 62
7
  6
CONTINUOUS
 10
-11853.067410
 20
7837.358121
 40
14425.757711
 50
-32.772482
 51
-32.768658
  0
ARC
  8
1
 62
7
  6
CONTINUOUS
 10
248.121866
 20
48.039402
 40
34.362087
 50
-32.768658
 51
-31.172205
  0
ARC
  8
1
 62
7
  6
CONTINUOUS
 10
263.140555
 20
38.953715
 40
16.809004
 50
-31.172205
 51
-27.932446
  0
ARC
  8
1
 62
7
  6
CONTINUOUS
 10
268.237639
 20
36.251252
 40
11.039812
 50
-27.932446
 51
-23.026083
  0
ARC
  8
1
 62
7
  6
CONTINUOUS
 10
269.605316
 20
35.669972
 40
9.553734
 50
-23.026083
 51
-18.572368
  0
ARC
  8
1
 62
7
  6
CONTINUOUS
 10
263.477397
 20
37.728955
 40
16.018315
 50
-18.572368
 51
-15.901927
  0
ARC
  8
1
 62
7
  6
CONTINUOUS
 10
262.999540
 20
37.865094
 40
16.515187
 50
-15.901927
 51
-13.294750
  0
ARC
  8
1
 62
7
  6
CONTINUOUS
 10
230.545495
 20
45.533765
 40
49.862954
 50
-13.294750
 51
-12.426510
  0
ARC
  8
1
 62
7
  6
CONTINUOUS
 10
229.602184
 20
45.741623
 40
50.828893
 50
-12.426510
 51
-11.572135
  0
ARC
  8
1
 62
7
  6
CONTINUOUS
 10
53.191024
 20
48.508111
 40
231.804611
 50
-4.187764
 51
-4.115601
  0
ARC
  8
1
 62
7
  6
CONTINUOUS
 10
207.382097
 20
37.218104
 40
77.200758
 50
-4.404358
 51
-4.187743
  0
ARC
  8
1
 62
7
  6
CONTINUOUS
 10
238.249193
 20
34.840617
 40
46.242236
 50
-4.765751
 51
-4.404319
  0
ARC
  8
1
 62
7
  6
CONTINUOUS
 10
251.494268
 20
33.736339
 40
32.951207
 50
-5.272511
 51
-4.765697
  0
ARC
  8
1
 62
7
  6
CONTINUOUS
 10
258.860328
 20
33.056548
 40
25.553846
 50
-5.925340
 51
-5.272451
  0
ARC
  8
1
 62
7
  6
CONTINUOUS
 10
257.985404
 20
33.170072
 40
26.435824
 50
-7.424746
 51
-5.974316
  0
ARC
  8
1
 62
7
  6
CONTINUOUS
 10
246.259418
 20
34.698578
 40
38.261013
 50
-8.427308
 51
-7.425365
  0
ARC
  8
1
 62
7
  6
CONTINUOUS
 10
214.946881
 20
39.337816
 40
69.915358
 50
-8.976641
 51
-8.427433
  0
ARC
  8
1
 62
7
  6
CONTINUOUS
 10
-107.155641
 20
90.217543
 40
396.011633
 50
-9.073666
 51
-8.976398
  0
ARC
  8
1
 62
7
  6
CONTINUOUS
 10
393.096725
 20
10.326973
 40
110.579852
 50
170.926882
 51
171.276794
  0
ARC
  8
1
 62
7
  6
CONTINUOUS
 10
317.487544
 20
21.928147
 40
34.085829
 50
171.276794
 51
172.067324
  0
ARC
  8
1
 62
7
  6
CONTINUOUS
 10
297.511585
 20
24.711653
 40
13.916872
 50
172.067324
 51
174.001674
  0
ARC
  8
1
 62
7
  6
CONTINUOUS
 10
293.298785
 20
25.154311
 40
9.680880
 50
174.001674
 51
176.768979
  0
ARC
  8
1
 62
7
  6
CONTINUOUS
 10
290.298583
 20
25.323678
 40
6.675901
 50
176.768979
 51
-179.244415
  0
ARC
  8
1
 62
7
  6
CONTINUOUS
 10
289.007319
 20
25.306649
 40
5.384525
 50
-179.244415
 51
-167.318116
  0
ARC
  8
1
 62
7
  6
CONTINUOUS
 10
297.617192
 20
27.244107
 40
14.209696
 50
-167.318116
 51
-164.640078
  0
ARC
  8
1
 62
7
  6
CONTINUOUS
 10
316.680747
 20
32.480741
 40
33.979408
 50
-164.640078
 51
-163.513936
  0
ARC
  8
1
 62
7
  6
CONTINUOUS
 10
268.711379
 20
18.378769
 40
16.020026
 50
13.779126
 51
16.161937
  0
ARC
  8
1
 62
7
  6
CONTINUOUS
 10
277.361884
 20
20.499090
 40
7.113455
 50
8.463385
 51
13.787778
  0
ARC
  8
1
 62
7
  6
CONTINUOUS
 10
278.112278
 20
20.653979
 40
6.348581
 50
2.720797
 51
8.077461
  0
ARC
  8
1
 62
7
  6
CONTINUOUS
 10
275.308664
 20
20.521103
 40
9.155342
 50
-1.010648
 51
2.718553
  0
ARC
  8
1
 62
7
  6
CONTINUOUS
 10
268.252625
 20
20.644648
 40
16.212463
 50
-3.126034
 51
-1.007362
  0
ARC
  8
1
 62
7
  6
CONTINUOUS
 10
221.682542
 20
23.184998
 40
62.851781
 50
-3.671905
 51
-3.123286
  0
ARC
  8
1
 62
7
  6
CONTINUOUS
 10
318.601453
 20
16.965057
 40
34.266513
 50
176.327765
 51
177.333833
  0
ARC
  8
1
 62
7
  6
CONTINUOUS
 10
302.140157
 20
17.731610
 40
17.787379
 50
177.333833
 51
179.282890
  0
ARC
  8
1
 62
7
  6
CONTINUOUS
 10
320.445076
 20
17.502495
 40
36.093732
 50
179.282890
 51
-179.759197
  0
ARC
  8
1
 62
7
  6
CONTINUOUS
 10
312.381615
 20
17.468606
 40
28.030200
 50
-179.759197
 51
-178.527666
  0
ARC
  8
1
 62
7
  6
CONTINUOUS
 10
433.218165
 20
20.574435
 40
148.906657
 50
-178.527666
 51
-178.296046
  0
ARC
  8
1
 62
7
  6
CONTINUOUS
 10
353.186414
 20
18.193620
 40
68.839501
 50
-178.296046
 51
-177.795210
  0
ARC
  8
1
 62
7
  6
CONTINUOUS
 10
897.264234
 20
-64.502375
 40
621.327364
 50
171.172221
 51
171.239684
  0
ARC
  8
1
 62
7
  6
CONTINUOUS
 10
488.245933
 20
-1.473045
 40
207.481177
 50
171.239684
 51
171.441865
  0
ARC
  8
1
 62
7
  6
CONTINUOUS
 10
406.777211
 20
10.787057
 40
125.095117
 50
171.441865
 51
171.777723
  0
ARC
  8
1
 62
7
  6
CONTINUOUS
 10
372.020812
 20
15.809326
 40
89.977736
 50
171.777723
 51
172.245769
  0
ARC
  8
1
 62
7
  6
CONTINUOUS
 10
352.888461
 20
18.414564
 40
70.668823
 50
172.245769
 51
172.843625
  0
ARC
  8
1
 62
7
  6
CONTINUOUS
 10
321.324422
 20
22.377616
 40
38.856965
 50
172.843625
 51
173.552653
  0
ARC
  8
1
 62
7
  6
CONTINUOUS
 10
298.764364
 20
24.927010
 40
16.153317
 50
173.552653
 51
175.256800
  0
ARC
  8
1
 62
7
  6
CONTINUOUS
 10
294.607648
 20
25.271910
 40
11.982317
 50
175.256800
 51
177.546000
  0
ARC
  8
1
 62
7
  6
CONTINUOUS
 10
290.828615
 20
25.433867
 40
8.199814
 50
177.546000
 51
-179.124810
  0
ARC
  8
1
 62
7
  6
CONTINUOUS
 10
289.404045
 20
25.412105
 40
6.775078
 50
-179.124810
 51
-169.520689
  0
ARC
  8
1
 62
7
  6
CONTINUOUS
 10
297.682488
 20
26.943332
 40
15.193943
 50
-169.520689
 51
-167.014432
  0
ARC
  8
1
 62
7
  6
CONTINUOUS
 10
314.801255
 20
30.890969
 40
32.761983
 50
-167.014432
 51
-165.846663
  0
ARC
  8
1
 62
7
  6
CONTINUOUS
 10
256.107908
 20
16.192092
 40
27.744030
 50
12.569751
 51
13.949143
  0
ARC
  8
1
 62
7
  6
CONTINUOUS
 10
272.683795
 20
19.887390
 40
10.761237
 50
9.029014
 51
12.573200
  0
ARC
  8
1
 62
7
  6
CONTINUOUS
 10
274.369806
 20
20.194883
 40
9.047945
 50
5.077995
 51
8.781483
  0
ARC
  8
1
 62
7
  6
CONTINUOUS
 10
271.947959
 20
19.979919
 40
11.479314
 50
2.155181
 51
5.076790
  0
ARC
  8
1
 62
7
  6
CONTINUOUS
 10
267.712028
 20
19.820373
 40
15.718248
 50
0.017078
 51
2.155677
  0
ARC
  8
1
 62
7
  6
CONTINUOUS
 10
258.773127
 20
19.817298
 40
24.657150
 50
-1.347883
 51
0.018032
  0
ARC
  8
1
 62
7
  6
CONTINUOUS
 10
227.585153
 20
20.550562
 40
55.853742
 50
-1.950485
 51
-1.347300
  0
ARC
  8
1
 62
7
  6
CONTINUOUS
 10
116.502536
 20
24.160275
 40
166.994949
 50
-2.104785
 51
-1.891072
  0
ARC
  8
1
 62
7
  6
CONTINUOUS
 10
69.885785
 20
25.873680
 40
213.643178
 50
-2.271598
 51
-2.104825
  0
ARC
  8
1
 62
7
  6
CONTINUOUS
 10
-14.397087
 20
29.217137
 40
297.992340
 50
-2.391046
 51
-2.271627
  0
ARC
  8
1
 62
7
  6
CONTINUOUS
 10
-211.663214
 20
37.454325
 40
495.430372
 50
-2.462835
 51
-2.391066
  0
ARC
  8
1
 62
7
  6
CONTINUOUS
 10
-1199.782012
 20
79.954628
 40
1484.462744
 50
-2.486787
 51
-2.462845
  0
ARC
  8
1
 62
7
  6
CONTINUOUS
 10
380.007683
 20
61.647397
 40
95.255855
 50
-165.048877
 51
-164.096306
  0
ARC
  8
1
 62
7
  6
CONTINUOUS
 10
379.885527
 20
61.614496
 40
95.129346
 50
-166.002478
 51
-165.049041
  0
ARC
  8
1
 62
7
  6
CONTINUOUS
 10
379.839554
 20
61.602870
 40
95.081927
 50
-166.956353
 51
-166.002576
  0
ARC
  8
1
 62
7
  6
CONTINUOUS
 10
379.870379
 20
61.609958
 40
95.113556
 50
-167.909971
 51
-166.956384
  0
ARC
  8
1
 62
7
  6
CONTINUOUS
 10
379.978617
 20
61.633201
 40
95.224261
 50
-168.862807
 51
-167.909936
  0
LINE
  8
1
 62
7
  6
CONTINUOUS
 10
286.547668
 20
43.239785
 11
286.397875
 21
44.017696
  0
ARC
  8
1
 62
7
  6
CONTINUOUS
 10
317.340188
 20
43.373676
 40
30.948765
 50
-166.909385
 51
-165.348015
  0
ARC
  8
1
 62
7
  6
CONTINUOUS
 10
317.170279
 20
43.333621
 40
30.774200
 50
-168.477741
 51
-166.910375
  0
ARC
  8
1
 62
7
  6
CONTINUOUS
 10
317.067446
 20
43.312273
 40
30.669174
 50
-170.049484
 51
-168.478444
  0
ARC
  8
1
 62
7
  6
CONTINUOUS
 10
317.032299
 20
43.305884
 40
30.633452
 50
-171.622256
 51
-170.049896
  0
ARC
  8
1
 62
7
  6
CONTINUOUS
 10
317.065450
 20
43.310703
 40
30.666952
 50
-173.193684
 51
-171.622371
  0
ARC
  8
1
 62
7
  6
CONTINUOUS
 10
317.167513
 20
43.322983
 40
30.769750
 50
-174.761413
 51
-173.193504
  0
ARC
  8
1
 62
7
  6
CONTINUOUS
 10
317.339098
 20
43.338973
 40
30.942078
 50
-176.323116
 51
-174.760937
  0
ARC
  8
1
 62
7
  6
CONTINUOUS
 10
317.580817
 20
43.354924
 40
31.184323
 50
-177.876524
 51
-176.322351
  0
ARC
  8
1
 62
7
  6
CONTINUOUS
 10
317.893283
 20
43.367086
 40
31.497025
 50
-179.419438
 51
-177.875476
  0
ARC
  8
1
 62
7
  6
CONTINUOUS
 10
136.001295
 20
71.374180
 40
147.804905
 50
-14.028633
 51
-13.538613
  0
ARC
  8
1
 62
7
  6
CONTINUOUS
 10
136.012679
 20
71.371409
 40
147.793189
 50
-13.538602
 51
-13.048553
  0
ARC
  8
1
 62
7
  6
CONTINUOUS
 10
135.992493
 20
71.376082
 40
147.813908
 50
-13.048551
 51
-12.558545
  0
ARC
  8
1
 62
7
  6
CONTINUOUS
 10
328.335354
 20
37.372667
 40
46.973038
 50
-179.100413
 51
-177.770455
  0
ARC
  8
1
 62
7
  6
CONTINUOUS
 10
324.515737
 20
37.305671
 40
43.152841
 50
179.482959
 51
-179.109733
  0
ARC
  8
1
 62
7
  6
CONTINUOUS
 10
320.982728
 20
37.330673
 40
39.619751
 50
177.983252
 51
179.473009
  0
ARC
  8
1
 62
7
  6
CONTINUOUS
 10
317.725998
 20
37.438619
 40
36.361240
 50
176.395177
 51
177.972646
  0
ARC
  8
1
 62
7
  6
CONTINUOUS
 10
314.735218
 20
37.620452
 40
33.364946
 50
174.713343
 51
176.383893
  0
ARC
  8
1
 62
7
  6
CONTINUOUS
 10
312.000059
 20
37.867117
 40
30.618694
 50
172.932352
 51
174.701371
  0
ARC
  8
1
 62
7
  6
CONTINUOUS
 10
309.510192
 20
38.169560
 40
28.110534
 50
171.046917
 51
172.919691
  0
ARC
  8
1
 62
7
  6
CONTINUOUS
 10
307.255287
 20
38.518723
 40
25.828765
 50
169.052016
 51
171.033582
  0
ARC
  8
1
 62
7
  6
CONTINUOUS
 10
305.225017
 20
38.905552
 40
23.761981
 50
166.943089
 51
169.038042
  0
ARC
  8
1
 62
7
  6
CONTINUOUS
 10
303.409052
 20
39.320991
 40
21.899110
 50
164.716272
 51
166.928537
  0
LINE
  8
1
 62
7
  6
CONTINUOUS
 10
282.284462
 20
45.093577
 11
282.397875
 21
45.492194
  0
ARC
  8
1
 62
7
  6
CONTINUOUS
 10
300.054298
 20
38.085536
 40
19.819888
 50
-174.852131
 51
-172.636288
  0
ARC
  8
1
 62
7
  6
CONTINUOUS
 10
299.985062
 20
38.079602
 40
19.750398
 50
-177.077405
 51
-174.851254
  0
ARC
  8
1
 62
7
  6
CONTINUOUS
 10
299.857555
 20
38.073317
 40
19.622736
 50
-179.319069
 51
-177.076751
  0
ARC
  8
1
 62
7
  6
CONTINUOUS
 10
299.675957
 20
38.071310
 40
19.441127
 50
178.417181
 51
-179.318624
  0
ARC
  8
1
 62
7
  6
CONTINUOUS
 10
299.445802
 20
38.077756
 40
19.210882
 50
176.125832
 51
178.417438
  0
ARC
  8
1
 62
7
  6
CONTINUOUS
 10
299.173787
 20
38.096207
 40
18.938242
 50
173.801596
 51
176.125924
  0
ARC
  8
1
 62
7
  6
CONTINUOUS
 10
298.867551
 20
38.129452
 40
18.630207
 50
171.439457
 51
173.801552
  0
ARC
  8
1
 62
7
  6
CONTINUOUS
 10
298.535428
 20
38.179401
 40
18.294348
 50
169.034735
 51
171.439313
  0
ARC
  8
1
 62
7
  6
CONTINUOUS
 10
298.186196
 20
38.247001
 40
17.938634
 50
166.583163
 51
169.034536
  0
ARC
  8
1
 62
7
  6
CONTINUOUS
 10
297.828831
 20
38.332185
 40
17.571257
 50
164.080974
 51
166.582961
  0
ARC
  8
1
 62
7
  6
CONTINUOUS
 10
297.472264
 20
38.433839
 40
17.200483
 50
161.525004
 51
164.080832
  0
ARC
  8
1
 62
7
  6
CONTINUOUS
 10
297.125158
 20
38.549808
 40
16.834517
 50
158.912801
 51
161.524995
  0
ARC
  8
1
 62
7
  6
CONTINUOUS
 10
296.795708
 20
38.676913
 40
16.481397
 50
156.242756
 51
158.913012
  0
ARC
  8
1
 62
7
  6
CONTINUOUS
 10
296.491462
 20
38.810993
 40
16.148917
 50
153.514220
 51
156.243285
  0
ARC
  8
1
 62
7
  6
CONTINUOUS
 10
296.219177
 20
38.946961
 40
15.844572
 50
150.727633
 51
153.515176
  0
ARC
  8
1
 62
7
  6
CONTINUOUS
 10
71.136710
 20
83.383003
 40
2.000000
 50
0.000000
 51
90.000000
  0
ARC
  8
1
 62
7
  6
CONTINUOUS
 10
102.136710
 20
83.383003
 40
2.000000
 50
90.000000
 51
180.000000
  0
ARC
  8
1
 62
7
  6
CONTINUOUS
 10
74.136710
 20
82.883003
 40
1.000000
 50
180.000000
 51
-90.000000
  0
ARC
  8
1
 62
7
  6
CONTINUOUS
 10
99.136710
 20
82.883003
 40
1.000000
 50
-90.000000
 51
0.000000
  0
ARC
  8
1
 62
7
  6
CONTINUOUS
 10
112.636710
 20
141.883003
 40
4.500000
 50
0.000000
 51
90.000000
  0
ARC
  8
1
 62
7
  6
CONTINUOUS
 10
112.636710
 20
89.883003
 40
4.500000
 50
-90.000000
 51
-0.000000
  0
ARC
  8
1
 62
7
  6
CONTINUOUS
 10
60.636710
 20
141.883003
 40
4.500000
 50
90.000000
 51
180.000000
  0
ARC
  8
1
 62
7
  6
CONTINUOUS
 10
60.636710
 20
89.883003
 40
4.500000
 50
180.000000
 51
-90.000000
  0
LINE
  8
1
 62
7
  6
CONTINUOUS
 10
331.323784
 20
124.725019
 11
303.992411
 21
124.725019
  0
LINE
  8
1
 62
7
  6
CONTINUOUS
 10
303.992411
 20
124.725019
 11
293.059861
 21
117.046204
  0
LINE
  8
1
 62
7
  6
CONTINUOUS
 10
295.436327
 20
119.230212
 11
295.920614
 21
118.540719
  0
LINE
  8
1
 62
7
  6
CONTINUOUS
 10
295.920614
 20
118.540719
 11
293.059861
 21
117.046204
  0
LINE
  8
1
 62
7
  6
CONTINUOUS
 10
293.059861
 20
117.046204
 11
295.436327
 21
119.230212
  0
TEXT
  8
1
 62
7
  6
CONTINUOUS
 10
252.601605
 20
162.424886
 40
4.000000
 41
0.900000
  1
（モータ取付部肉厚）
  7
KANJI
 50
0.000000
 51
0.000000
  0
TEXT
  8
1
 62
7
  6
CONTINUOUS
 10
303.566883
 20
127.742096
 40
4.000000
 41
0.900000
  1
ネームプレート
  7
KANJI
 50
0.000000
 51
0.000000
  0
TEXT
  8
1
 62
7
  6
CONTINUOUS
 10
256.115969
 20
157.568612
 40
3.000000
 41
0.630000
  1
ＷＩＤＴＨ　ＯＦ　ＦＬＡＮＧＥ
  7
KANJI
 50
0.000000
 51
0.000000
  0
TEXT
  8
1
 62
7
  6
CONTINUOUS
 10
304.274944
 20
119.136108
 40
3.500000
 41
0.720000
  1
ＮＡＭＥ　ＰＬＡＴＥ
  7
KANJI
 50
0.000000
 51
0.000000
  0
LINE
  8
1
 62
7
  6
CONTINUOUS
 10
131.801182
 20
81.883003
 11
131.801182
 21
71.061354
  0
LINE
  8
1
 62
7
  6
CONTINUOUS
 10
131.801182
 20
81.883003
 11
131.801182
 21
85.383003
  0
LINE
  8
1
 62
7
  6
CONTINUOUS
 10
131.801182
 20
91.783003
 11
131.801182
 21
85.383003
  0
LINE
  8
1
 62
7
  6
CONTINUOUS
 10
113.636710
 20
85.383003
 11
133.301182
 21
85.383003
  0
LINE
  8
1
 62
7
  6
CONTINUOUS
 10
100.136710
 20
81.883003
 11
133.301182
 21
81.883003
  0
LINE
  8
1
 62
7
  6
CONTINUOUS
 10
131.801182
 20
85.383003
 11
131.385182
 21
88.583003
  0
LINE
  8
1
 62
7
  6
CONTINUOUS
 10
131.385182
 20
88.583003
 11
132.217182
 21
88.583003
  0
LINE
  8
1
 62
7
  6
CONTINUOUS
 10
132.217182
 20
88.583003
 11
131.801182
 21
85.383003
  0
LINE
  8
1
 62
7
  6
CONTINUOUS
 10
131.801182
 20
81.883003
 11
132.217182
 21
78.683003
  0
LINE
  8
1
 62
7
  6
CONTINUOUS
 10
132.217182
 20
78.683003
 11
131.385182
 21
78.683003
  0
LINE
  8
1
 62
7
  6
CONTINUOUS
 10
131.385182
 20
78.683003
 11
131.801182
 21
81.883003
  0
TEXT
  8
1
 62
7
  6
CONTINUOUS
 10
129.801182
 20
71.061354
 40
3.200000
 41
0.900000
  1
3.5
  7
KANJI
 50
90.000000
 51
0.000000
  0
LINE
  8
1
 62
7
  6
CONTINUOUS
 10
73.136710
 20
62.900161
 11
100.136710
 21
62.900161
  0
LINE
  8
1
 62
7
  6
CONTINUOUS
 10
100.136710
 20
81.883003
 11
100.136710
 21
61.400161
  0
LINE
  8
1
 62
7
  6
CONTINUOUS
 10
73.136710
 20
81.883003
 11
73.136710
 21
61.400161
  0
LINE
  8
1
 62
7
  6
CONTINUOUS
 10
73.136710
 20
62.900161
 11
76.336710
 21
63.316161
  0
LINE
  8
1
 62
7
  6
CONTINUOUS
 10
76.336710
 20
63.316161
 11
76.336710
 21
62.484161
  0
LINE
  8
1
 62
7
  6
CONTINUOUS
 10
76.336710
 20
62.484161
 11
73.136710
 21
62.900161
  0
LINE
  8
1
 62
7
  6
CONTINUOUS
 10
100.136710
 20
62.900161
 11
96.936710
 21
62.484161
  0
LINE
  8
1
 62
7
  6
CONTINUOUS
 10
96.936710
 20
62.484161
 11
96.936710
 21
63.316161
  0
LINE
  8
1
 62
7
  6
CONTINUOUS
 10
96.936710
 20
63.316161
 11
100.136710
 21
62.900161
  0
TEXT
  8
1
 62
7
  6
CONTINUOUS
 10
84.425318
 20
64.900161
 40
3.200000
 41
0.900000
  1
27
  7
KANJI
 50
0.000000
 51
0.000000
  0
LINE
  8
1
 62
7
  6
CONTINUOUS
 10
186.355388
 20
88.883003
 11
186.355388
 21
142.883003
  0
LINE
  8
1
 62
7
  6
CONTINUOUS
 10
240.647875
 20
142.883003
 11
184.855388
 21
142.883003
  0
LINE
  8
1
 62
7
  6
CONTINUOUS
 10
240.647875
 20
88.883003
 11
184.855388
 21
88.883003
  0
LINE
  8
1
 62
7
  6
CONTINUOUS
 10
186.355388
 20
142.883003
 11
186.771388
 21
139.683003
  0
LINE
  8
1
 62
7
  6
CONTINUOUS
 10
186.771388
 20
139.683003
 11
185.939388
 21
139.683003
  0
LINE
  8
1
 62
7
  6
CONTINUOUS
 10
185.939388
 20
139.683003
 11
186.355388
 21
142.883003
  0
LINE
  8
1
 62
7
  6
CONTINUOUS
 10
186.355388
 20
88.883003
 11
185.939388
 21
92.083003
  0
LINE
  8
1
 62
7
  6
CONTINUOUS
 10
185.939388
 20
92.083003
 11
186.771388
 21
92.083003
  0
LINE
  8
1
 62
7
  6
CONTINUOUS
 10
186.771388
 20
92.083003
 11
186.355388
 21
88.883003
  0
TEXT
  8
1
 62
7
  6
CONTINUOUS
 10
183.555388
 20
110.170814
 40
3.200000
 41
0.900000
  1
54h7
  7
KANJI
 50
90.000000
 51
0.000000
  0
TEXT
  8
1
 62
7
  6
CONTINUOUS
 10
181.475388
 20
122.330814
 40
1.920000
 41
0.900000
  1
 0
  7
KANJI
 50
90.000000
 51
0.000000
  0
TEXT
  8
1
 62
7
  6
CONTINUOUS
 10
184.355388
 20
122.330814
 40
1.920000
 41
0.900000
  1
-0.03
  7
KANJI
 50
90.000000
 51
0.000000
  0
TEXT
  8
1
 62
7
  6
CONTINUOUS
 10
183.555388
 20
106.526370
 40
3.200000
 41
0.900000
  1
φ
  7
KANJI
 50
90.000000
 51
0.000000
  0
LINE
  8
1
 62
7
  6
CONTINUOUS
 10
244.647875
 20
172.633838
 11
290.647875
 21
172.633838
  0
LINE
  8
1
 62
7
  6
CONTINUOUS
 10
244.647875
 20
147.383003
 11
244.647875
 21
174.133838
  0
LINE
  8
1
 62
7
  6
CONTINUOUS
 10
290.647875
 20
147.383003
 11
290.647875
 21
174.133838
  0
LINE
  8
1
 62
7
  6
CONTINUOUS
 10
290.647875
 20
172.633838
 11
287.447875
 21
172.217838
  0
LINE
  8
1
 62
7
  6
CONTINUOUS
 10
287.447875
 20
172.217838
 11
287.447875
 21
173.049838
  0
LINE
  8
1
 62
7
  6
CONTINUOUS
 10
287.447875
 20
173.049838
 11
290.647875
 21
172.633838
  0
LINE
  8
1
 62
7
  6
CONTINUOUS
 10
244.647875
 20
172.633838
 11
247.847875
 21
173.049838
  0
LINE
  8
1
 62
7
  6
CONTINUOUS
 10
247.847875
 20
173.049838
 11
247.847875
 21
172.217838
  0
LINE
  8
1
 62
7
  6
CONTINUOUS
 10
247.847875
 20
172.217838
 11
244.647875
 21
172.633838
  0
TEXT
  8
1
 62
7
  6
CONTINUOUS
 10
263.093591
 20
174.633838
 40
3.200000
 41
0.900000
  1
46
  7
KANJI
 50
0.000000
 51
0.000000
  0
TEXT
  8
1
 62
7
  6
CONTINUOUS
 10
269.493591
 20
175.273838
 40
1.920000
 41
0.900000
  1
±1
  7
KANJI
 50
0.000000
 51
0.000000
  0
LINE
  8
1
 62
7
  6
CONTINUOUS
 10
241.647875
 20
160.339048
 11
235.130930
 21
160.339048
  0
LINE
  8
1
 62
7
  6
CONTINUOUS
 10
241.647875
 20
160.339048
 11
244.647875
 21
160.339048
  0
LINE
  8
1
 62
7
  6
CONTINUOUS
 10
251.047875
 20
160.339048
 11
244.647875
 21
160.339048
  0
LINE
  8
1
 62
7
  6
CONTINUOUS
 10
244.647875
 20
147.383003
 11
244.647875
 21
161.839048
  0
LINE
  8
1
 62
7
  6
CONTINUOUS
 10
241.647875
 20
143.883003
 11
241.647875
 21
161.839048
  0
LINE
  8
1
 62
7
  6
CONTINUOUS
 10
244.647875
 20
160.339048
 11
247.847875
 21
160.755048
  0
LINE
  8
1
 62
7
  6
CONTINUOUS
 10
247.847875
 20
160.755048
 11
247.847875
 21
159.923048
  0
LINE
  8
1
 62
7
  6
CONTINUOUS
 10
247.847875
 20
159.923048
 11
244.647875
 21
160.339048
  0
LINE
  8
1
 62
7
  6
CONTINUOUS
 10
241.647875
 20
160.339048
 11
238.447875
 21
159.923048
  0
LINE
  8
1
 62
7
  6
CONTINUOUS
 10
238.447875
 20
159.923048
 11
238.447875
 21
160.755048
  0
LINE
  8
1
 62
7
  6
CONTINUOUS
 10
238.447875
 20
160.755048
 11
241.647875
 21
160.339048
  0
TEXT
  8
1
 62
7
  6
CONTINUOUS
 10
235.130930
 20
162.339048
 40
3.200000
 41
0.900000
  1
3
  7
KANJI
 50
0.000000
 51
0.000000
  0
LINE
  8
1
 62
7
  6
CONTINUOUS
 10
220.647875
 20
172.633838
 11
244.647875
 21
172.633838
  0
LINE
  8
1
 62
7
  6
CONTINUOUS
 10
244.647875
 20
147.383003
 11
244.647875
 21
174.133838
  0
LINE
  8
1
 62
7
  6
CONTINUOUS
 10
220.647875
 20
119.883003
 11
220.647875
 21
174.133838
  0
LINE
  8
1
 62
7
  6
CONTINUOUS
 10
244.647875
 20
172.633838
 11
241.447875
 21
172.217838
  0
LINE
  8
1
 62
7
  6
CONTINUOUS
 10
241.447875
 20
172.217838
 11
241.447875
 21
173.049838
  0
LINE
  8
1
 62
7
  6
CONTINUOUS
 10
241.447875
 20
173.049838
 11
244.647875
 21
172.633838
  0
LINE
  8
1
 62
7
  6
CONTINUOUS
 10
220.647875
 20
172.633838
 11
223.847875
 21
173.049838
  0
LINE
  8
1
 62
7
  6
CONTINUOUS
 10
223.847875
 20
173.049838
 11
223.847875
 21
172.217838
  0
LINE
  8
1
 62
7
  6
CONTINUOUS
 10
223.847875
 20
172.217838
 11
220.647875
 21
172.633838
  0
TEXT
  8
1
 62
7
  6
CONTINUOUS
 10
228.871081
 20
174.633838
 40
3.200000
 41
0.900000
  1
24
  7
KANJI
 50
0.000000
 51
0.000000
  0
LINE
  8
1
 62
7
  6
CONTINUOUS
 10
220.647875
 20
129.040965
 11
236.647875
 21
129.040965
  0
LINE
  8
1
 62
7
  6
CONTINUOUS
 10
236.647875
 20
120.883003
 11
236.647875
 21
130.540965
  0
LINE
  8
1
 62
7
  6
CONTINUOUS
 10
220.647875
 20
119.883003
 11
220.647875
 21
130.540965
  0
LINE
  8
1
 62
7
  6
CONTINUOUS
 10
220.647875
 20
129.040965
 11
223.847875
 21
129.456965
  0
LINE
  8
1
 62
7
  6
CONTINUOUS
 10
223.847875
 20
129.456965
 11
223.847875
 21
128.624965
  0
LINE
  8
1
 62
7
  6
CONTINUOUS
 10
223.847875
 20
128.624965
 11
220.647875
 21
129.040965
  0
LINE
  8
1
 62
7
  6
CONTINUOUS
 10
236.647875
 20
129.040965
 11
233.447875
 21
128.624965
  0
LINE
  8
1
 62
7
  6
CONTINUOUS
 10
233.447875
 20
128.624965
 11
233.447875
 21
129.456965
  0
LINE
  8
1
 62
7
  6
CONTINUOUS
 10
233.447875
 20
129.456965
 11
236.647875
 21
129.040965
  0
TEXT
  8
1
 62
7
  6
CONTINUOUS
 10
227.163485
 20
131.040965
 40
3.200000
 41
0.900000
  1
16
  7
KANJI
 50
0.000000
 51
0.000000
  0
LINE
  8
1
 62
7
  6
CONTINUOUS
 10
198.084054
 20
119.883003
 11
198.084054
 21
136.367853
  0
LINE
  8
1
 62
7
  6
CONTINUOUS
 10
198.084054
 20
111.883003
 11
198.084054
 21
119.883003
  0
LINE
  8
1
 62
7
  6
CONTINUOUS
 10
198.084054
 20
105.483003
 11
198.084054
 21
111.883003
  0
LINE
  8
1
 62
7
  6
CONTINUOUS
 10
235.647875
 20
119.883003
 11
196.584054
 21
119.883003
  0
LINE
  8
1
 62
7
  6
CONTINUOUS
 10
219.647875
 20
111.883003
 11
196.584054
 21
111.883003
  0
LINE
  8
1
 62
7
  6
CONTINUOUS
 10
198.084054
 20
119.883003
 11
197.668054
 21
123.083003
  0
LINE
  8
1
 62
7
  6
CONTINUOUS
 10
197.668054
 20
123.083003
 11
198.500054
 21
123.083003
  0
LINE
  8
1
 62
7
  6
CONTINUOUS
 10
198.500054
 20
123.083003
 11
198.084054
 21
119.883003
  0
LINE
  8
1
 62
7
  6
CONTINUOUS
 10
198.084054
 20
111.883003
 11
198.500054
 21
108.683003
  0
LINE
  8
1
 62
7
  6
CONTINUOUS
 10
198.500054
 20
108.683003
 11
197.668054
 21
108.683003
  0
LINE
  8
1
 62
7
  6
CONTINUOUS
 10
197.668054
 20
108.683003
 11
198.084054
 21
111.883003
  0
TEXT
  8
1
 62
7
  6
CONTINUOUS
 10
195.284054
 20
126.079853
 40
3.200000
 41
0.900000
  1
8
  7
KANJI
 50
90.000000
 51
0.000000
  0
TEXT
  8
1
 62
7
  6
CONTINUOUS
 10
193.204054
 20
129.599853
 40
1.920000
 41
0.900000
  1
 0
  7
KANJI
 50
90.000000
 51
0.000000
  0
TEXT
  8
1
 62
7
  6
CONTINUOUS
 10
196.084054
 20
129.599853
 40
1.920000
 41
0.900000
  1
-0.03
  7
KANJI
 50
90.000000
 51
0.000000
  0
TEXT
  8
1
 62
7
  6
CONTINUOUS
 10
195.284054
 20
122.435409
 40
3.200000
 41
0.900000
  1
φ
  7
KANJI
 50
90.000000
 51
0.000000
  0
LINE
  8
1
 62
7
  6
CONTINUOUS
 10
56.136710
 20
167.219855
 11
117.136710
 21
167.219855
  0
LINE
  8
1
 62
7
  6
CONTINUOUS
 10
117.136710
 20
142.883003
 11
117.136710
 21
168.719855
  0
LINE
  8
1
 62
7
  6
CONTINUOUS
 10
56.136710
 20
142.883003
 11
56.136710
 21
168.719855
  0
LINE
  8
1
 62
7
  6
CONTINUOUS
 10
117.136710
 20
167.219855
 11
113.936710
 21
166.803855
  0
LINE
  8
1
 62
7
  6
CONTINUOUS
 10
113.936710
 20
166.803855
 11
113.936710
 21
167.635855
  0
LINE
  8
1
 62
7
  6
CONTINUOUS
 10
113.936710
 20
167.635855
 11
117.136710
 21
167.219855
  0
LINE
  8
1
 62
7
  6
CONTINUOUS
 10
56.136710
 20
167.219855
 11
59.336710
 21
167.635855
  0
LINE
  8
1
 62
7
  6
CONTINUOUS
 10
59.336710
 20
167.635855
 11
59.336710
 21
166.803855
  0
LINE
  8
1
 62
7
  6
CONTINUOUS
 10
59.336710
 20
166.803855
 11
56.136710
 21
167.219855
  0
TEXT
  8
1
 62
7
  6
CONTINUOUS
 10
84.429070
 20
169.219855
 40
3.200000
 41
0.900000
  1
61
  7
KANJI
 50
0.000000
 51
0.000000
  0
LINE
  8
1
 62
7
  6
CONTINUOUS
 10
131.801182
 20
85.383003
 11
131.801182
 21
146.383003
  0
LINE
  8
1
 62
7
  6
CONTINUOUS
 10
113.636710
 20
146.383003
 11
133.301182
 21
146.383003
  0
LINE
  8
1
 62
7
  6
CONTINUOUS
 10
113.636710
 20
85.383003
 11
133.301182
 21
85.383003
  0
LINE
  8
1
 62
7
  6
CONTINUOUS
 10
131.801182
 20
146.383003
 11
132.217182
 21
143.183003
  0
LINE
  8
1
 62
7
  6
CONTINUOUS
 10
132.217182
 20
143.183003
 11
131.385182
 21
143.183003
  0
LINE
  8
1
 62
7
  6
CONTINUOUS
 10
131.385182
 20
143.183003
 11
131.801182
 21
146.383003
  0
LINE
  8
1
 62
7
  6
CONTINUOUS
 10
131.801182
 20
85.383003
 11
131.385182
 21
88.583003
  0
LINE
  8
1
 62
7
  6
CONTINUOUS
 10
131.385182
 20
88.583003
 11
132.217182
 21
88.583003
  0
LINE
  8
1
 62
7
  6
CONTINUOUS
 10
132.217182
 20
88.583003
 11
131.801182
 21
85.383003
  0
TEXT
  8
1
 62
7
  6
CONTINUOUS
 10
129.801182
 20
114.147836
 40
3.200000
 41
0.900000
  1
61
  7
KANJI
 50
90.000000
 51
0.000000
  0
LINE
  8
1
 62
7
  6
CONTINUOUS
 10
209.254212
 20
119.883003
 11
209.254212
 21
127.089092
  0
LINE
  8
1
 62
7
  6
CONTINUOUS
 10
209.254212
 20
118.883003
 11
209.254212
 21
119.883003
  0
LINE
  8
1
 62
7
  6
CONTINUOUS
 10
209.254212
 20
112.483003
 11
209.254212
 21
118.883003
  0
LINE
  8
1
 62
7
  6
CONTINUOUS
 10
235.647875
 20
119.883003
 11
207.754212
 21
119.883003
  0
LINE
  8
1
 62
7
  6
CONTINUOUS
 10
219.647875
 20
118.883003
 11
207.754212
 21
118.883003
  0
LINE
  8
1
 62
7
  6
CONTINUOUS
 10
209.254212
 20
119.883003
 11
208.838212
 21
123.083003
  0
LINE
  8
1
 62
7
  6
CONTINUOUS
 10
208.838212
 20
123.083003
 11
209.670212
 21
123.083003
  0
LINE
  8
1
 62
7
  6
CONTINUOUS
 10
209.670212
 20
123.083003
 11
209.254212
 21
119.883003
  0
LINE
  8
1
 62
7
  6
CONTINUOUS
 10
209.254212
 20
118.883003
 11
209.670212
 21
115.683003
  0
LINE
  8
1
 62
7
  6
CONTINUOUS
 10
209.670212
 20
115.683003
 11
208.838212
 21
115.683003
  0
LINE
  8
1
 62
7
  6
CONTINUOUS
 10
208.838212
 20
115.683003
 11
209.254212
 21
118.883003
  0
TEXT
  8
1
 62
7
  6
CONTINUOUS
 10
207.254212
 20
126.129092
 40
3.200000
 41
0.900000
  1
1
  7
KANJI
 50
90.000000
 51
0.000000
  0
LINE
  8
1
 62
7
  6
CONTINUOUS
 10
313.153459
 20
15.545271
 11
313.153459
 21
80.883003
  0
LINE
  8
1
 62
7
  6
CONTINUOUS
 10
296.397875
 20
15.545271
 11
314.653459
 21
15.545271
  0
LINE
  8
1
 62
7
  6
CONTINUOUS
 10
291.647875
 20
80.883003
 11
314.653459
 21
80.883003
  0
LINE
  8
1
 62
7
  6
CONTINUOUS
 10
313.153459
 20
80.883003
 11
313.569459
 21
77.683003
  0
LINE
  8
1
 62
7
  6
CONTINUOUS
 10
313.569459
 20
77.683003
 11
312.737459
 21
77.683003
  0
LINE
  8
1
 62
7
  6
CONTINUOUS
 10
312.737459
 20
77.683003
 11
313.153459
 21
80.883003
  0
LINE
  8
1
 62
7
  6
CONTINUOUS
 10
313.153459
 20
15.545271
 11
312.737459
 21
18.745271
  0
LINE
  8
1
 62
7
  6
CONTINUOUS
 10
312.737459
 20
18.745271
 11
313.569459
 21
18.745271
  0
LINE
  8
1
 62
7
  6
CONTINUOUS
 10
313.569459
 20
18.745271
 11
313.153459
 21
15.545271
  0
TEXT
  8
1
 62
7
  6
CONTINUOUS
 10
310.353459
 20
39.056132
 40
3.200000
 41
0.900000
  1
300
  7
KANJI
 50
90.000000
 51
0.000000
  0
TEXT
  8
1
 62
7
  6
CONTINUOUS
 10
308.273459
 20
48.336132
 40
1.920000
 41
0.900000
  1
+30
  7
KANJI
 50
90.000000
 51
0.000000
  0
TEXT
  8
1
 62
7
  6
CONTINUOUS
 10
311.153459
 20
50.064132
 40
1.920000
 41
0.900000
  1
 0
  7
KANJI
 50
90.000000
 51
0.000000
  0
LINE
  8
1
 62
7
  6
CONTINUOUS
 10
300.904216
 20
51.609105
 11
300.904216
 21
80.883003
  0
LINE
  8
1
 62
7
  6
CONTINUOUS
 10
289.028405
 20
51.609105
 11
302.404216
 21
51.609105
  0
LINE
  8
1
 62
7
  6
CONTINUOUS
 10
291.647875
 20
80.883003
 11
302.404216
 21
80.883003
  0
LINE
  8
1
 62
7
  6
CONTINUOUS
 10
300.904216
 20
80.883003
 11
301.320216
 21
77.683003
  0
LINE
  8
1
 62
7
  6
CONTINUOUS
 10
301.320216
 20
77.683003
 11
300.488216
 21
77.683003
  0
LINE
  8
1
 62
7
  6
CONTINUOUS
 10
300.488216
 20
77.683003
 11
300.904216
 21
80.883003
  0
LINE
  8
1
 62
7
  6
CONTINUOUS
 10
300.904216
 20
51.609105
 11
300.488216
 21
54.809105
  0
LINE
  8
1
 62
7
  6
CONTINUOUS
 10
300.488216
 20
54.809105
 11
301.320216
 21
54.809105
  0
LINE
  8
1
 62
7
  6
CONTINUOUS
 10
301.320216
 20
54.809105
 11
300.904216
 21
51.609105
  0
TEXT
  8
1
 62
7
  6
CONTINUOUS
 10
298.904216
 20
60.566504
 40
3.200000
 41
0.900000
  1
150
  7
KANJI
 50
90.000000
 51
0.000000
  0
TEXT
  8
1
 62
7
  6
CONTINUOUS
 10
298.904216
 20
58.486504
 40
3.200000
 41
0.900000
  1
(
  7
KANJI
 50
90.000000
 51
0.000000
  0
TEXT
  8
1
 62
7
  6
CONTINUOUS
 10
298.904216
 20
68.886504
 40
3.200000
 41
0.900000
  1
)
  7
KANJI
 50
90.000000
 51
0.000000
  0
LINE
  8
1
 62
7
  6
CONTINUOUS
 10
64.908220
 20
143.321529
 11
108.365200
 21
88.444476
  0
LINE
  8
1
 62
7
  6
CONTINUOUS
 10
108.365200
 20
88.444476
 11
106.052468
 21
90.694883
  0
LINE
  8
1
 62
7
  6
CONTINUOUS
 10
106.052468
 20
90.694883
 11
106.704721
 21
91.211400
  0
LINE
  8
1
 62
7
  6
CONTINUOUS
 10
106.704721
 20
91.211400
 11
108.365200
 21
88.444476
  0
LINE
  8
1
 62
7
  6
CONTINUOUS
 10
64.908220
 20
143.321529
 11
67.220951
 21
141.071122
  0
LINE
  8
1
 62
7
  6
CONTINUOUS
 10
67.220951
 20
141.071122
 11
66.568698
 21
140.554605
  0
LINE
  8
1
 62
7
  6
CONTINUOUS
 10
66.568698
 20
140.554605
 11
64.908220
 21
143.321529
  0
TEXT
  8
1
 62
7
  6
CONTINUOUS
 10
96.256693
 20
106.956558
 40
3.200000
 41
0.900000
  1
70
  7
KANJI
 50
308.375601
 51
0.000000
  0
TEXT
  8
1
 62
7
  6
CONTINUOUS
 10
93.994171
 20
109.813649
 40
3.200000
 41
0.900000
  1
φ
  7
KANJI
 50
308.375601
 51
0.000000
  0
LINE
  8
1
 62
7
  6
CONTINUOUS
 10
67.936710
 20
131.883003
 11
52.336710
 21
131.883003
  0
LINE
  8
1
 62
7
  6
CONTINUOUS
 10
60.136710
 20
139.683003
 11
60.136710
 21
124.083003
  0
LINE
  8
1
 62
7
  6
CONTINUOUS
 10
59.406977
 20
133.135995
 11
60.018016
 21
132.524956
  0
LINE
  8
1
 62
7
  6
CONTINUOUS
 10
60.866443
 20
133.135995
 11
60.255404
 21
132.524956
  0
LINE
  8
1
 62
7
  6
CONTINUOUS
 10
58.883718
 20
131.153269
 11
59.494757
 21
131.764309
  0
LINE
  8
1
 62
7
  6
CONTINUOUS
 10
58.883718
 20
132.612736
 11
59.494757
 21
132.001697
  0
LINE
  8
1
 62
7
  6
CONTINUOUS
 10
60.255404
 20
131.241050
 11
60.261539
 21
131.234915
  0
LINE
  8
1
 62
7
  6
CONTINUOUS
 10
60.261539
 20
131.234915
 11
60.866443
 21
130.630010
  0
LINE
  8
1
 62
7
  6
CONTINUOUS
 10
59.406977
 20
130.630010
 11
60.018016
 21
131.241050
  0
LINE
  8
1
 62
7
  6
CONTINUOUS
 10
61.389702
 20
132.612736
 11
60.778663
 21
132.001697
  0
LINE
  8
1
 62
7
  6
CONTINUOUS
 10
61.389702
 20
131.153269
 11
60.778663
 21
131.764309
  0
ARC
  8
1
 62
7
  6
CONTINUOUS
 10
60.136710
 20
131.883003
 40
1.450000
 50
30.216198
 51
59.783802
  0
ARC
  8
1
 62
7
  6
CONTINUOUS
 10
60.136710
 20
131.883003
 40
0.635000
 50
82.541551
 51
97.458449
  0
ARC
  8
1
 62
7
  6
CONTINUOUS
 10
60.136710
 20
131.883003
 40
1.450000
 50
120.216198
 51
149.783802
  0
ARC
  8
1
 62
7
  6
CONTINUOUS
 10
60.136710
 20
131.883003
 40
0.635000
 50
172.541551
 51
-172.541551
  0
ARC
  8
1
 62
7
  6
CONTINUOUS
 10
60.136710
 20
131.883003
 40
1.450000
 50
-149.783802
 51
-120.216198
  0
ARC
  8
1
 62
7
  6
CONTINUOUS
 10
60.136710
 20
131.883003
 40
0.635000
 50
-97.458449
 51
-82.541551
  0
ARC
  8
1
 62
7
  6
CONTINUOUS
 10
60.136710
 20
131.883003
 40
1.450000
 50
-59.783802
 51
-30.216198
  0
ARC
  8
1
 62
7
  6
CONTINUOUS
 10
60.136710
 20
131.883003
 40
0.635000
 50
-7.458449
 51
7.458449
  0
CIRCLE
  8
1
 62
7
  6
CONTINUOUS
 10
60.136710
 20
131.883003
 40
2.800000
  0
ARC
  8
1
 62
7
  6
CONTINUOUS
 10
60.048657
 20
132.555597
 40
0.043333
 50
-135.000000
 51
-82.541551
  0
ARC
  8
1
 62
7
  6
CONTINUOUS
 10
60.224762
 20
132.555597
 40
0.043333
 50
-97.458449
 51
-45.000000
  0
ARC
  8
1
 62
7
  6
CONTINUOUS
 10
59.464116
 20
131.794950
 40
0.043333
 50
-45.000000
 51
7.458449
  0
ARC
  8
1
 62
7
  6
CONTINUOUS
 10
59.464116
 20
131.971055
 40
0.043333
 50
-7.458449
 51
45.000000
  0
ARC
  8
1
 62
7
  6
CONTINUOUS
 10
60.224762
 20
131.210409
 40
0.043333
 50
45.000000
 51
97.458449
  0
ARC
  8
1
 62
7
  6
CONTINUOUS
 10
60.048657
 20
131.210409
 40
0.043333
 50
82.541551
 51
135.000000
  0
ARC
  8
1
 62
7
  6
CONTINUOUS
 10
60.809304
 20
131.971055
 40
0.043333
 50
135.000000
 51
-172.541551
  0
ARC
  8
1
 62
7
  6
CONTINUOUS
 10
60.809304
 20
131.794950
 40
0.043333
 50
172.541551
 51
-135.000000
  0
LINE
  8
1
 62
7
  6
CONTINUOUS
 10
78.436710
 20
89.383003
 11
62.836710
 21
89.383003
  0
LINE
  8
1
 62
7
  6
CONTINUOUS
 10
70.636710
 20
97.183003
 11
70.636710
 21
81.583003
  0
LINE
  8
1
 62
7
  6
CONTINUOUS
 10
69.906977
 20
90.635995
 11
70.518016
 21
90.024956
  0
LINE
  8
1
 62
7
  6
CONTINUOUS
 10
71.366443
 20
90.635995
 11
70.755404
 21
90.024956
  0
LINE
  8
1
 62
7
  6
CONTINUOUS
 10
69.383718
 20
88.653269
 11
69.994757
 21
89.264309
  0
LINE
  8
1
 62
7
  6
CONTINUOUS
 10
69.383718
 20
90.112736
 11
69.994757
 21
89.501697
  0
LINE
  8
1
 62
7
  6
CONTINUOUS
 10
70.755404
 20
88.741050
 11
70.761539
 21
88.734915
  0
LINE
  8
1
 62
7
  6
CONTINUOUS
 10
70.761539
 20
88.734915
 11
71.366443
 21
88.130010
  0
LINE
  8
1
 62
7
  6
CONTINUOUS
 10
69.906977
 20
88.130010
 11
70.518016
 21
88.741050
  0
LINE
  8
1
 62
7
  6
CONTINUOUS
 10
71.889702
 20
90.112736
 11
71.278663
 21
89.501697
  0
LINE
  8
1
 62
7
  6
CONTINUOUS
 10
71.889702
 20
88.653269
 11
71.278663
 21
89.264309
  0
ARC
  8
1
 62
7
  6
CONTINUOUS
 10
70.636710
 20
89.383003
 40
1.450000
 50
30.216198
 51
59.783802
  0
ARC
  8
1
 62
7
  6
CONTINUOUS
 10
70.636710
 20
89.383003
 40
0.635000
 50
82.541551
 51
97.458449
  0
ARC
  8
1
 62
7
  6
CONTINUOUS
 10
70.636710
 20
89.383003
 40
1.450000
 50
120.216198
 51
149.783802
  0
ARC
  8
1
 62
7
  6
CONTINUOUS
 10
70.636710
 20
89.383003
 40
0.635000
 50
172.541551
 51
-172.541551
  0
ARC
  8
1
 62
7
  6
CONTINUOUS
 10
70.636710
 20
89.383003
 40
1.450000
 50
-149.783802
 51
-120.216198
  0
ARC
  8
1
 62
7
  6
CONTINUOUS
 10
70.636710
 20
89.383003
 40
0.635000
 50
-97.458449
 51
-82.541551
  0
ARC
  8
1
 62
7
  6
CONTINUOUS
 10
70.636710
 20
89.383003
 40
1.450000
 50
-59.783802
 51
-30.216198
  0
ARC
  8
1
 62
7
  6
CONTINUOUS
 10
70.636710
 20
89.383003
 40
0.635000
 50
-7.458449
 51
7.458449
  0
CIRCLE
  8
1
 62
7
  6
CONTINUOUS
 10
70.636710
 20
89.383003
 40
2.800000
  0
ARC
  8
1
 62
7
  6
CONTINUOUS
 10
70.548657
 20
90.055597
 40
0.043333
 50
-135.000000
 51
-82.541551
  0
ARC
  8
1
 62
7
  6
CONTINUOUS
 10
70.724762
 20
90.055597
 40
0.043333
 50
-97.458449
 51
-45.000000
  0
ARC
  8
1
 62
7
  6
CONTINUOUS
 10
69.964116
 20
89.294950
 40
0.043333
 50
-45.000000
 51
7.458449
  0
ARC
  8
1
 62
7
  6
CONTINUOUS
 10
69.964116
 20
89.471055
 40
0.043333
 50
-7.458449
 51
45.000000
  0
ARC
  8
1
 62
7
  6
CONTINUOUS
 10
70.724762
 20
88.710409
 40
0.043333
 50
45.000000
 51
97.458449
  0
ARC
  8
1
 62
7
  6
CONTINUOUS
 10
70.548657
 20
88.710409
 40
0.043333
 50
82.541551
 51
135.000000
  0
ARC
  8
1
 62
7
  6
CONTINUOUS
 10
71.309304
 20
89.471055
 40
0.043333
 50
135.000000
 51
-172.541551
  0
ARC
  8
1
 62
7
  6
CONTINUOUS
 10
71.309304
 20
89.294950
 40
0.043333
 50
172.541551
 51
-135.000000
  0
LINE
  8
1
 62
7
  6
CONTINUOUS
 10
120.936710
 20
99.883003
 11
105.336710
 21
99.883003
  0
LINE
  8
1
 62
7
  6
CONTINUOUS
 10
113.136710
 20
107.683003
 11
113.136710
 21
92.083003
  0
LINE
  8
1
 62
7
  6
CONTINUOUS
 10
112.406977
 20
101.135995
 11
113.018016
 21
100.524956
  0
LINE
  8
1
 62
7
  6
CONTINUOUS
 10
113.866443
 20
101.135995
 11
113.255404
 21
100.524956
  0
LINE
  8
1
 62
7
  6
CONTINUOUS
 10
111.883718
 20
99.153269
 11
112.494757
 21
99.764309
  0
LINE
  8
1
 62
7
  6
CONTINUOUS
 10
111.883718
 20
100.612736
 11
112.494757
 21
100.001697
  0
LINE
  8
1
 62
7
  6
CONTINUOUS
 10
113.255404
 20
99.241050
 11
113.261539
 21
99.234915
  0
LINE
  8
1
 62
7
  6
CONTINUOUS
 10
113.261539
 20
99.234915
 11
113.866443
 21
98.630010
  0
LINE
  8
1
 62
7
  6
CONTINUOUS
 10
112.406977
 20
98.630010
 11
113.018016
 21
99.241050
  0
LINE
  8
1
 62
7
  6
CONTINUOUS
 10
114.389702
 20
100.612736
 11
113.778663
 21
100.001697
  0
LINE
  8
1
 62
7
  6
CONTINUOUS
 10
114.389702
 20
99.153269
 11
113.778663
 21
99.764309
  0
ARC
  8
1
 62
7
  6
CONTINUOUS
 10
113.136710
 20
99.883003
 40
1.450000
 50
30.216198
 51
59.783802
  0
ARC
  8
1
 62
7
  6
CONTINUOUS
 10
113.136710
 20
99.883003
 40
0.635000
 50
82.541551
 51
97.458449
  0
ARC
  8
1
 62
7
  6
CONTINUOUS
 10
113.136710
 20
99.883003
 40
1.450000
 50
120.216198
 51
149.783802
  0
ARC
  8
1
 62
7
  6
CONTINUOUS
 10
113.136710
 20
99.883003
 40
0.635000
 50
172.541551
 51
-172.541551
  0
ARC
  8
1
 62
7
  6
CONTINUOUS
 10
113.136710
 20
99.883003
 40
1.450000
 50
-149.783802
 51
-120.216198
  0
ARC
  8
1
 62
7
  6
CONTINUOUS
 10
113.136710
 20
99.883003
 40
0.635000
 50
-97.458449
 51
-82.541551
  0
ARC
  8
1
 62
7
  6
CONTINUOUS
 10
113.136710
 20
99.883003
 40
1.450000
 50
-59.783802
 51
-30.216198
  0
ARC
  8
1
 62
7
  6
CONTINUOUS
 10
113.136710
 20
99.883003
 40
0.635000
 50
-7.458449
 51
7.458449
  0
CIRCLE
  8
1
 62
7
  6
CONTINUOUS
 10
113.136710
 20
99.883003
 40
2.800000
  0
ARC
  8
1
 62
7
  6
CONTINUOUS
 10
113.048657
 20
100.555597
 40
0.043333
 50
-135.000000
 51
-82.541551
  0
ARC
  8
1
 62
7
  6
CONTINUOUS
 10
113.224762
 20
100.555597
 40
0.043333
 50
-97.458449
 51
-45.000000
  0
ARC
  8
1
 62
7
  6
CONTINUOUS
 10
112.464116
 20
99.794950
 40
0.043333
 50
-45.000000
 51
7.458449
  0
ARC
  8
1
 62
7
  6
CONTINUOUS
 10
112.464116
 20
99.971055
 40
0.043333
 50
-7.458449
 51
45.000000
  0
ARC
  8
1
 62
7
  6
CONTINUOUS
 10
113.224762
 20
99.210409
 40
0.043333
 50
45.000000
 51
97.458449
  0
ARC
  8
1
 62
7
  6
CONTINUOUS
 10
113.048657
 20
99.210409
 40
0.043333
 50
82.541551
 51
135.000000
  0
ARC
  8
1
 62
7
  6
CONTINUOUS
 10
113.809304
 20
99.971055
 40
0.043333
 50
135.000000
 51
-172.541551
  0
ARC
  8
1
 62
7
  6
CONTINUOUS
 10
113.809304
 20
99.794950
 40
0.043333
 50
172.541551
 51
-135.000000
  0
LINE
  8
1
 62
7
  6
CONTINUOUS
 10
110.436710
 20
142.383003
 11
94.836710
 21
142.383003
  0
LINE
  8
1
 62
7
  6
CONTINUOUS
 10
102.636710
 20
150.183003
 11
102.636710
 21
134.583003
  0
LINE
  8
1
 62
7
  6
CONTINUOUS
 10
101.906977
 20
143.635995
 11
102.518016
 21
143.024956
  0
LINE
  8
1
 62
7
  6
CONTINUOUS
 10
103.366443
 20
143.635995
 11
102.755404
 21
143.024956
  0
LINE
  8
1
 62
7
  6
CONTINUOUS
 10
101.383718
 20
141.653269
 11
101.994757
 21
142.264309
  0
LINE
  8
1
 62
7
  6
CONTINUOUS
 10
101.383718
 20
143.112736
 11
101.994757
 21
142.501697
  0
LINE
  8
1
 62
7
  6
CONTINUOUS
 10
102.755404
 20
141.741050
 11
102.761539
 21
141.734915
  0
LINE
  8
1
 62
7
  6
CONTINUOUS
 10
102.761539
 20
141.734915
 11
103.366443
 21
141.130010
  0
LINE
  8
1
 62
7
  6
CONTINUOUS
 10
101.906977
 20
141.130010
 11
102.518016
 21
141.741050
  0
LINE
  8
1
 62
7
  6
CONTINUOUS
 10
103.889702
 20
143.112736
 11
103.278663
 21
142.501697
  0
LINE
  8
1
 62
7
  6
CONTINUOUS
 10
103.889702
 20
141.653269
 11
103.278663
 21
142.264309
  0
ARC
  8
1
 62
7
  6
CONTINUOUS
 10
102.636710
 20
142.383003
 40
1.450000
 50
30.216198
 51
59.783802
  0
ARC
  8
1
 62
7
  6
CONTINUOUS
 10
102.636710
 20
142.383003
 40
0.635000
 50
82.541551
 51
97.458449
  0
ARC
  8
1
 62
7
  6
CONTINUOUS
 10
102.636710
 20
142.383003
 40
1.450000
 50
120.216198
 51
149.783802
  0
ARC
  8
1
 62
7
  6
CONTINUOUS
 10
102.636710
 20
142.383003
 40
0.635000
 50
172.541551
 51
-172.541551
  0
ARC
  8
1
 62
7
  6
CONTINUOUS
 10
102.636710
 20
142.383003
 40
1.450000
 50
-149.783802
 51
-120.216198
  0
ARC
  8
1
 62
7
  6
CONTINUOUS
 10
102.636710
 20
142.383003
 40
0.635000
 50
-97.458449
 51
-82.541551
  0
ARC
  8
1
 62
7
  6
CONTINUOUS
 10
102.636710
 20
142.383003
 40
1.450000
 50
-59.783802
 51
-30.216198
  0
ARC
  8
1
 62
7
  6
CONTINUOUS
 10
102.636710
 20
142.383003
 40
0.635000
 50
-7.458449
 51
7.458449
  0
CIRCLE
  8
1
 62
7
  6
CONTINUOUS
 10
102.636710
 20
142.383003
 40
2.800000
  0
ARC
  8
1
 62
7
  6
CONTINUOUS
 10
102.548657
 20
143.055597
 40
0.043333
 50
-135.000000
 51
-82.541551
  0
ARC
  8
1
 62
7
  6
CONTINUOUS
 10
102.724762
 20
143.055597
 40
0.043333
 50
-97.458449
 51
-45.000000
  0
ARC
  8
1
 62
7
  6
CONTINUOUS
 10
101.964116
 20
142.294950
 40
0.043333
 50
-45.000000
 51
7.458449
  0
ARC
  8
1
 62
7
  6
CONTINUOUS
 10
101.964116
 20
142.471055
 40
0.043333
 50
-7.458449
 51
45.000000
  0
ARC
  8
1
 62
7
  6
CONTINUOUS
 10
102.724762
 20
141.710409
 40
0.043333
 50
45.000000
 51
97.458449
  0
ARC
  8
1
 62
7
  6
CONTINUOUS
 10
102.548657
 20
141.710409
 40
0.043333
 50
82.541551
 51
135.000000
  0
ARC
  8
1
 62
7
  6
CONTINUOUS
 10
103.309304
 20
142.471055
 40
0.043333
 50
135.000000
 51
-172.541551
  0
ARC
  8
1
 62
7
  6
CONTINUOUS
 10
103.309304
 20
142.294950
 40
0.043333
 50
172.541551
 51
-135.000000
  0
LINE
  8
1
 62
7
  6
CONTINUOUS
 10
301.891723
 20
107.165249
 11
304.391723
 21
107.165249
  0
LINE
  8
1
 62
7
  6
CONTINUOUS
 10
303.391723
 20
109.665249
 11
301.891723
 21
107.165249
  0
LINE
  8
1
 62
7
  6
CONTINUOUS
 10
303.391723
 20
102.386570
 11
303.391723
 21
109.665249
  0
LINE
  8
1
 62
7
  6
CONTINUOUS
 10
306.391723
 20
110.165249
 11
306.391723
 21
101.886570
  0
LINE
  8
1
 62
7
  6
CONTINUOUS
 10
300.391723
 20
101.886570
 11
300.391723
 21
110.165249
  0
LINE
  8
1
 62
7
  6
CONTINUOUS
 10
326.391723
 20
101.886570
 11
300.391723
 21
101.886570
  0
LINE
  8
1
 62
7
  6
CONTINUOUS
 10
326.391723
 20
110.165249
 11
326.391723
 21
101.886570
  0
LINE
  8
1
 62
7
  6
CONTINUOUS
 10
300.391723
 20
110.165249
 11
326.391723
 21
110.165249
  0
TEXT
  8
1
 62
7
  6
CONTINUOUS
 10
307.491054
 20
106.718398
 40
3.000000
 41
0.900000
  1
文字ノ向キ
  7
KANJI
 50
0.000000
 51
0.000000
  0
TEXT
  8
1
 62
7
  6
CONTINUOUS
 10
305.986450
 20
102.978765
 40
3.000000
 41
0.630000
  1
LETTER DIR.
  7
KANJI
 50
0.000000
 51
0.000000
  0
LINE
  8
1
 62
7
  6
CONTINUOUS
 10
332.162378
 20
106.848225
 11
329.997314
 21
103.098225
  0
LINE
  8
1
 62
7
  6
CONTINUOUS
 10
334.327441
 20
103.098225
 11
332.162378
 21
106.848225
  0
LINE
  8
1
 62
7
  6
CONTINUOUS
 10
329.997314
 20
103.098225
 11
334.327441
 21
103.098225
  0
TEXT
  8
1
 62
7
  6
CONTINUOUS
 10
331.262378
 20
103.348225
 40
2.000000
 41
0.900000
  1
A
  7
KANJI
 50
0.000000
 51
0.000000
  0
LINE
  8
1
 62
7
  6
CONTINUOUS
 10
335.806960
 20
123.005876
 11
333.641897
 21
119.255876
  0
LINE
  8
1
 62
7
  6
CONTINUOUS
 10
337.972024
 20
119.255876
 11
335.806960
 21
123.005876
  0
LINE
  8
1
 62
7
  6
CONTINUOUS
 10
333.641897
 20
119.255876
 11
337.972024
 21
119.255876
  0
TEXT
  8
1
 62
7
  6
CONTINUOUS
 10
334.906960
 20
119.505876
 40
2.000000
 41
0.900000
  1
A
  7
KANJI
 50
0.000000
 51
0.000000
  0
LINE
  8
1
 62
7
  6
CONTINUOUS
 10
282.596050
 20
156.050093
 11
280.430987
 21
152.300093
  0
LINE
  8
1
 62
7
  6
CONTINUOUS
 10
284.761114
 20
152.300093
 11
282.596050
 21
156.050093
  0
LINE
  8
1
 62
7
  6
CONTINUOUS
 10
280.430987
 20
152.300093
 11
284.761114
 21
152.300093
  0
TEXT
  8
1
 62
7
  6
CONTINUOUS
 10
281.696050
 20
152.550093
 40
2.000000
 41
0.900000
  1
A
  7
KANJI
 50
0.000000
 51
0.000000
  0
LINE
  8
1
 62
7
  6
CONTINUOUS
 10
244.647875
 20
160.339048
 11
252.647875
 21
160.339048
  0
LINE
  8
1
 62
7
  6
CONTINUOUS
 10
252.647875
 20
147.383003
 11
252.647875
 21
161.839048
  0
LINE
  8
1
 62
7
  6
CONTINUOUS
 10
244.647875
 20
147.383003
 11
244.647875
 21
161.839048
  0
LINE
  8
1
 62
7
  6
CONTINUOUS
 10
252.647875
 20
160.339048
 11
249.447875
 21
159.923048
  0
LINE
  8
1
 62
7
  6
CONTINUOUS
 10
249.447875
 20
159.923048
 11
249.447875
 21
160.755048
  0
LINE
  8
1
 62
7
  6
CONTINUOUS
 10
249.447875
 20
160.755048
 11
252.647875
 21
160.339048
  0
TEXT
  8
1
 62
7
  6
CONTINUOUS
 10
247.879643
 20
162.339048
 40
3.200000
 41
0.900000
  1
8
  7
KANJI
 50
0.000000
 51
0.000000
  0
LINE
  8
1
 62
7
  6
CONTINUOUS
 10
115.108077
 20
154.781431
 11
94.983633
 21
154.781431
  0
LINE
  8
1
 62
7
  6
CONTINUOUS
 10
111.957917
 20
142.807695
 11
115.108077
 21
154.781431
  0
LINE
  8
1
 62
7
  6
CONTINUOUS
 10
111.957917
 20
142.807695
 11
112.369787
 21
146.008229
  0
LINE
  8
1
 62
7
  6
CONTINUOUS
 10
112.369787
 20
146.008229
 11
113.174406
 21
145.796542
  0
LINE
  8
1
 62
7
  6
CONTINUOUS
 10
113.174406
 20
145.796542
 11
111.957917
 21
142.807695
  0
TEXT
  8
1
 62
7
  6
CONTINUOUS
 10
104.068077
 20
156.781431
 40
3.200000
 41
0.900000
  1
4.5
  7
KANJI
 50
0.000000
 51
0.000000
  0
TEXT
  8
1
 62
7
  6
CONTINUOUS
 10
94.983633
 20
156.781431
 40
3.200000
 41
0.900000
  1
4-φ
  7
KANJI
 50
0.000000
 51
0.000000
  0
ENDSEC
  0
EOF
