  0
SECTION
  2
HEADER
  9
$ACADVER
  1
AC1003
  9
$INSBASE
 10
0.000000
 20
0.000000
  9
$EXTMIN
 10
0.000000
 20
0.000000
  9
$EXTMAX
 10
420.000000
 20
297.000000
  9
$LIMMIN
 10
0.000000
 20
0.000000
  9
$LIMMAX
 10
420.000000
 20
297.000000
  9
$VIEWCTR
 10
210.000000
 20
148.500000
  9
$VIEWSIZE
 40
297.000000
  9
$PEXTMIN
 10
0.000000
 20
0.000000
 30
0.000000
  9
$PEXTMAX
 10
420.000000
 20
297.000000
 30
0.000000
  9
$SNAPMODE
 70
     0
  9
$SNAPUNIT
 10
1.000000
 20
1.000000
  9
$SNAPBASE
 10
0.000000
 20
0.000000
  9
$SNAPANG
 50
0.000000
  9
$SNAPISOPAIR
 70
     0
  9
$SNAPSTYLE
 70
     0
  9
$GRIDMODE
 70
     0
  9
$GRIDUNIT
 10
0.000000
 20
0.000000
  9
$ORTHOMODE
 70
     0
  9
$REGENMODE
 70
     1
  9
$FILLMODE
 70
     1
  9
$QTEXTMODE
 70
     0
  9
$DRAGMODE
 70
     2
  9
$LTSCALE
 40
0.250000
  9
$OSMODE
 70
     0
  9
$ATTMODE
 70
     1
  9
$TEXTSIZE
 40
0.200000
  9
$TRACEWID
 40
0.050000
  9
$TEXTSTYLE
  7
STANDARD
  9
$CLAYER
  8
0
  9
$CELTYPE
  6
BYLAYER
  9
$CECOLOR
 62
   256
  9
$DIMSCALE
 40
1.000000
  9
$DIMASZ
 40
1.000000
  9
$DIMEXO
 40
0.000000
  9
$DIMDLI
 40
0.500000
  9
$DIMRND
 40
0.000000
  9
$DIMDLE
 40
0.000000
  9
$DIMEXE
 40
0.000000
  9
$DIMTP
 40
0.000000
  9
$DIMTM
 40
0.000000
  9
$DIMTXT
 40
0.180000
  9
$DIMCEN
 40
0.000000
  9
$DIMTSZ
 40
0.000000
  9
$DIMTOL
 70
     0
  9
$DIMLIM
 70
     0
  9
$DIMTIH
 70
     1
  9
$DIMTOH
 70
     1
  9
$DIMSE1
 70
     0
  9
$DIMSE2
 70
     0
  9
$DIMTAD
 70
     0
  9
$DIMZIN
 70
     0
  9
$DIMBLK
  1

  9
$DIMASO
 70
     0
  9
$DIMSHO
 70
     0
  9
$DIMPOST
  1

  9
$DIMAPOST
  1

  9
$DIMALT
 70
     0
  9
$DIMALTD
 70
     0
  9
$DIMALTF
 40
25.400000
  9
$DIMLFAC
 40
1.000000
  9
$DIMTOFL
 70
     0
  9
$DIMTVP
 40
0.000000
  9
$DIMTIX
 70
     0
  9
$DIMSOXD
 70
     0
  9
$DIMSAH
 70
     0
  9
$DIMBLKL
  1

  9
$DIMBLKR
  1

  9
$LUNITS
 70
     2
  9
$LUPREC
 70
     2
  9
$AXISMODE
 70
     0
  9
$AXISUNIT
 10
1.000000
 20
1.000000
  9
$SKETCHINC
 40
0.000000
  9
$FILLETRAD
 40
0.000000
  9
$AUNITS
 70
     1
  9
$AUPREC
 70
     2
  9
$MENU
  1
ACAD
  9
$ELEVATION
 40
0.000000
  9
$THICKNESS
 40
0.000000
  9
$VIEWDIR
 10
0.000000
 20
0.000000
 30
1.000000
  9
$LIMCHECK
 70
     1
  9
$BLIPMODE
 70
     1
  9
$CHAMFERA
 40
0.000000
  9
$CHAMFERB
 40
0.000000
  9
$FASTZOOM
 70
     1
  9
$SKPOLY
 70
     0
  9
$TDCREATE
 40
0.000000
  9
$TDUPDATE
 40
0.000000
  9
$TDINDWG
 40
0.000000
  9
$TDUSRTIMER
 40
0.000000
  9
$USRTIMER
 70
     1
  9
$ANGBASE
 50
0.000000
  9
$ANGDIR
 70
     0
  9
$PDMODE
 70
     0
  9
$PDSIZE
 40
0.000000
  9
$PLINEWID
 40
0.000000
  9
$COORDS
 70
     2
  9
$USERI1
 70
     0
  9
$USERI2
 70
     0
  9
$USERI3
 70
     0
  9
$USERI4
 70
     0
  9
$USERI5
 70
     0
  9
$USERR1
 40
0.000000
  9
$USERR2
 40
0.000000
  9
$USERR3
 40
0.000000
  9
$USERR4
 40
0.000000
  9
$USERR5
 40
0.000000
  0
ENDSEC
  0
SECTION
  2
TABLES
  0
TABLE
  2
LTYPE
 70
     5
  0
LTYPE
  2
CONTINUOUS
 70
    64
  3
Solid line
 72
    65
 73
     0
 40
0.0
  0
LTYPE
  2
HIDDEN
 70
    64
  3
------------------------
 72
    65
 73
     2
 40
12.6
 49
8.4
 49
-4.2
  0
LTYPE
  2
DOT
 70
    64
  3
････････････････････････
 72
    65
 73
     2
 40
8.0
 49
6.0
 49
-2.0
  0
LTYPE
  2
DASHDOT
 70
    64
  3
--･--･--･--･--･--･--･--
 72
    65
 73
     4
 40
50.5
 49
30.0
 49
-9.0
 49
2.5
 49
-9.0
  0
LTYPE
  2
DIVIDE
 70
    64
  3
--･･--･･--･･--･･--･･--
 72
    65
 73
     6
 40
58.0
 49
30.0
 49
-9.0
 49
2.5
 49
-5.0
 49
2.5
 49
-9.0
  0
ENDTAB
  0
TABLE
  2
LAYER
 70
1
  0
LAYER
  2
1
 70
64
 62
7
  6
CONTINUOUS
  0
ENDTAB
  0
TABLE
  2
STYLE
 70
     2
  0
STYLE
  2
STANDARD
 70
    64
 40
0.0
 41
1.0
 50
0.0
 71
     0
 42
0.2
  3
TXT
  4

  0
STYLE
  2
KANJI
 70
    64
 40
0.0
 41
1.0
 50
0.0
 71
     0
 42
0.2
  3
TXT
  4
BIGFONT
  0
ENDTAB
  0
TABLE
  2
VIEW
 70
     0
  0
ENDTAB
  0
ENDSEC
  0
SECTION
  2
BLOCKS
  0
ENDSEC
  0
SECTION
  2
ENTITIES
  0
LINE
  8
1
 62
7
  6
CONTINUOUS
 10
383.966043
 20
70.419021
 11
386.353910
 21
70.419021
  0
LINE
  8
1
 62
7
  6
CONTINUOUS
 10
320.025854
 20
93.670559
 11
322.025854
 21
93.670559
  0
LINE
  8
1
 62
7
  6
CONTINUOUS
 10
317.025854
 20
92.670559
 11
301.025854
 21
92.670559
  0
LINE
  8
1
 62
7
  6
CONTINUOUS
 10
301.025854
 20
85.670559
 11
322.025854
 21
85.670559
  0
LINE
  8
1
 62
7
  6
CONTINUOUS
 10
298.132571
 20
89.670559
 11
364.270845
 21
89.670559
  0
LINE
  8
1
 62
7
  6
CONTINUOUS
 10
209.526072
 20
127.074254
 11
209.526072
 21
52.176994
  0
LINE
  8
1
 62
7
  6
CONTINUOUS
 10
171.204476
 20
89.670559
 11
247.979690
 21
89.670559
  0
LINE
  8
1
 62
7
  6
CONTINUOUS
 10
208.584895
 20
85.782862
 11
208.584895
 21
83.647029
  0
LINE
  8
1
 62
7
  6
CONTINUOUS
 10
210.467248
 20
85.782862
 11
210.467248
 21
83.647029
  0
LINE
  8
1
 62
7
  6
CONTINUOUS
 10
212.349601
 20
84.588206
 11
212.349601
 21
84.932834
  0
LINE
  8
1
 62
7
  6
CONTINUOUS
 10
210.467248
 20
83.647029
 11
211.408425
 21
83.647029
  0
LINE
  8
1
 62
7
  6
CONTINUOUS
 10
206.702542
 20
84.588206
 11
206.702542
 21
84.932834
  0
LINE
  8
1
 62
7
  6
CONTINUOUS
 10
208.584895
 20
83.647029
 11
207.643719
 21
83.647029
  0
LINE
  8
1
 62
7
  6
CONTINUOUS
 10
334.025854
 20
75.170559
 11
334.025854
 21
104.170559
  0
LINE
  8
1
 62
7
  6
CONTINUOUS
 10
333.025854
 20
59.670559
 11
333.025854
 21
75.170559
  0
LINE
  8
1
 62
7
  6
CONTINUOUS
 10
334.025854
 20
59.412362
 11
334.025854
 21
59.479582
  0
LINE
  8
1
 62
7
  6
CONTINUOUS
 10
334.025854
 20
59.479582
 11
334.025854
 21
59.170559
  0
LINE
  8
1
 62
7
  6
CONTINUOUS
 10
334.025854
 20
59.170559
 11
332.525854
 21
59.170559
  0
LINE
  8
1
 62
7
  6
CONTINUOUS
 10
334.025854
 20
119.928755
 11
334.025854
 21
120.168974
  0
LINE
  8
1
 62
7
  6
CONTINUOUS
 10
334.025854
 20
120.168974
 11
332.565631
 21
120.168974
  0
LINE
  8
1
 62
7
  6
CONTINUOUS
 10
334.813829
 20
119.918583
 11
334.025854
 21
119.928755
  0
LINE
  8
1
 62
7
  6
CONTINUOUS
 10
334.025854
 20
75.170559
 11
334.025854
 21
59.479582
  0
LINE
  8
1
 62
7
  6
CONTINUOUS
 10
334.025854
 20
119.928755
 11
334.025854
 21
104.170559
  0
LINE
  8
1
 62
7
  6
CONTINUOUS
 10
325.025854
 20
59.170559
 11
332.525854
 21
59.170559
  0
LINE
  8
1
 62
7
  6
CONTINUOUS
 10
333.025854
 20
75.170559
 11
333.025854
 21
119.670559
  0
LINE
  8
1
 62
7
  6
CONTINUOUS
 10
182.570543
 20
116.626087
 11
186.981600
 21
112.215030
  0
LINE
  8
1
 62
7
  6
CONTINUOUS
 10
236.481600
 20
116.626087
 11
232.070543
 21
112.215030
  0
LINE
  8
1
 62
7
  6
CONTINUOUS
 10
236.481600
 20
62.715030
 11
232.070543
 21
67.126087
  0
LINE
  8
1
 62
7
  6
CONTINUOUS
 10
182.570543
 20
62.715030
 11
186.981600
 21
67.126087
  0
LINE
  8
1
 62
7
  6
CONTINUOUS
 10
240.026072
 20
102.920559
 11
240.026072
 21
111.420559
  0
LINE
  8
1
 62
7
  6
CONTINUOUS
 10
182.526072
 20
75.420559
 11
180.026072
 21
75.420559
  0
LINE
  8
1
 62
7
  6
CONTINUOUS
 10
240.026072
 20
111.420559
 11
240.026072
 21
115.670559
  0
LINE
  8
1
 62
7
  6
CONTINUOUS
 10
182.526072
 20
68.920559
 11
180.026072
 21
68.920559
  0
LINE
  8
1
 62
7
  6
CONTINUOUS
 10
179.026072
 20
76.442677
 11
179.026072
 21
115.670559
  0
LINE
  8
1
 62
7
  6
CONTINUOUS
 10
179.026072
 20
74.931677
 11
179.026072
 21
75.420559
  0
LINE
  8
1
 62
7
  6
CONTINUOUS
 10
179.026072
 20
74.931677
 11
179.026072
 21
76.442677
  0
LINE
  8
1
 62
7
  6
CONTINUOUS
 10
179.026072
 20
67.920559
 11
179.026072
 21
74.931677
  0
LINE
  8
1
 62
7
  6
CONTINUOUS
 10
239.026072
 20
110.420559
 11
236.526072
 21
110.420559
  0
LINE
  8
1
 62
7
  6
CONTINUOUS
 10
179.026072
 20
76.420559
 11
179.026072
 21
76.442677
  0
LINE
  8
1
 62
7
  6
CONTINUOUS
 10
239.026072
 20
103.920559
 11
236.526072
 21
103.920559
  0
LINE
  8
1
 62
7
  6
CONTINUOUS
 10
193.526072
 20
120.170559
 11
225.526072
 21
120.170559
  0
LINE
  8
1
 62
7
  6
CONTINUOUS
 10
225.526072
 20
120.170559
 11
235.526072
 21
120.170559
  0
LINE
  8
1
 62
7
  6
CONTINUOUS
 10
179.026072
 20
63.670559
 11
179.026072
 21
67.920559
  0
LINE
  8
1
 62
7
  6
CONTINUOUS
 10
183.526072
 20
59.170559
 11
235.526072
 21
59.170559
  0
LINE
  8
1
 62
7
  6
CONTINUOUS
 10
183.526072
 20
120.170559
 11
193.526072
 21
120.170559
  0
LINE
  8
1
 62
7
  6
CONTINUOUS
 10
240.026072
 20
63.670559
 11
240.026072
 21
102.920559
  0
LINE
  8
1
 62
7
  6
CONTINUOUS
 10
301.025854
 20
85.670559
 11
301.025854
 21
92.670559
  0
LINE
  8
1
 62
7
  6
CONTINUOUS
 10
332.525854
 20
120.170559
 11
325.025854
 21
120.170559
  0
LINE
  8
1
 62
7
  6
CONTINUOUS
 10
359.025854
 20
89.670559
 11
359.025854
 21
119.420559
  0
LINE
  8
1
 62
7
  6
CONTINUOUS
 10
359.025854
 20
119.420559
 11
362.025854
 21
116.420559
  0
LINE
  8
1
 62
7
  6
CONTINUOUS
 10
354.025854
 20
119.420559
 11
354.025854
 21
89.670559
  0
LINE
  8
1
 62
7
  6
CONTINUOUS
 10
354.025854
 20
119.670559
 11
354.025854
 21
119.420559
  0
LINE
  8
1
 62
7
  6
CONTINUOUS
 10
362.025854
 20
89.670559
 11
362.025854
 21
116.420559
  0
LINE
  8
1
 62
7
  6
CONTINUOUS
 10
354.025854
 20
119.420559
 11
359.025854
 21
119.420559
  0
LINE
  8
1
 62
7
  6
CONTINUOUS
 10
325.025854
 20
120.170559
 11
325.025854
 21
89.670559
  0
LINE
  8
1
 62
7
  6
CONTINUOUS
 10
334.025854
 20
59.412362
 11
354.025854
 21
59.670559
  0
LINE
  8
1
 62
7
  6
CONTINUOUS
 10
359.025854
 20
59.920559
 11
359.025854
 21
89.670559
  0
LINE
  8
1
 62
7
  6
CONTINUOUS
 10
362.025854
 20
62.920559
 11
359.025854
 21
59.920559
  0
LINE
  8
1
 62
7
  6
CONTINUOUS
 10
354.025854
 20
89.670559
 11
354.025854
 21
59.920559
  0
LINE
  8
1
 62
7
  6
CONTINUOUS
 10
354.025854
 20
59.920559
 11
354.025854
 21
59.670559
  0
LINE
  8
1
 62
7
  6
CONTINUOUS
 10
362.025854
 20
62.920559
 11
362.025854
 21
89.670559
  0
LINE
  8
1
 62
7
  6
CONTINUOUS
 10
359.025854
 20
59.920559
 11
354.025854
 21
59.920559
  0
LINE
  8
1
 62
7
  6
CONTINUOUS
 10
325.025854
 20
62.670559
 11
325.025854
 21
59.170559
  0
LINE
  8
1
 62
7
  6
CONTINUOUS
 10
325.025854
 20
120.170559
 11
325.025854
 21
89.670559
  0
LINE
  8
1
 62
7
  6
CONTINUOUS
 10
325.025854
 20
62.670559
 11
325.025854
 21
59.170559
  0
LINE
  8
1
 62
7
  6
CONTINUOUS
 10
322.525854
 20
62.670559
 11
325.025854
 21
62.670559
  0
LINE
  8
1
 62
7
  6
CONTINUOUS
 10
325.025854
 20
89.670559
 11
325.025854
 21
62.670559
  0
LINE
  8
1
 62
7
  6
CONTINUOUS
 10
325.025854
 20
89.670559
 11
325.025854
 21
62.670559
  0
LINE
  8
1
 62
7
  6
CONTINUOUS
 10
322.025854
 20
89.670559
 11
322.025854
 21
63.170559
  0
LINE
  8
1
 62
7
  6
CONTINUOUS
 10
325.025854
 20
116.670559
 11
322.525854
 21
116.670559
  0
LINE
  8
1
 62
7
  6
CONTINUOUS
 10
322.025854
 20
116.170559
 11
322.025854
 21
89.670559
  0
LINE
  8
1
 62
7
  6
CONTINUOUS
 10
322.525854
 20
116.670559
 11
322.025854
 21
116.170559
  0
LINE
  8
1
 62
7
  6
CONTINUOUS
 10
322.525854
 20
62.670559
 11
322.025854
 21
63.170559
  0
LINE
  8
1
 62
7
  6
CONTINUOUS
 10
322.525854
 20
116.670559
 11
322.525854
 21
62.670559
  0
LINE
  8
1
 62
7
  6
CONTINUOUS
 10
334.813829
 20
106.812323
 11
334.813829
 21
119.918583
  0
LINE
  8
1
 62
7
  6
CONTINUOUS
 10
352.813829
 20
119.686206
 11
334.813829
 21
119.918583
  0
LINE
  8
1
 62
7
  6
CONTINUOUS
 10
352.813829
 20
106.812323
 11
334.813829
 21
106.812323
  0
LINE
  8
1
 62
7
  6
CONTINUOUS
 10
352.813829
 20
119.686206
 11
352.813829
 21
106.812323
  0
LINE
  8
1
 62
7
  6
CONTINUOUS
 10
354.025854
 20
119.670559
 11
352.813829
 21
119.686206
  0
LINE
  8
1
 62
7
  6
CONTINUOUS
 10
71.126163
 20
134.728087
 11
53.235582
 21
134.728087
  0
LINE
  8
1
 62
7
  6
CONTINUOUS
 10
71.299272
 20
135.728087
 11
53.235582
 21
135.728087
  0
LINE
  8
1
 62
7
  6
CONTINUOUS
 10
70.914006
 20
136.728087
 11
53.235582
 21
136.728087
  0
LINE
  8
1
 62
7
  6
CONTINUOUS
 10
70.245560
 20
137.679236
 11
48.539909
 21
137.627269
  0
LINE
  8
1
 62
7
  6
CONTINUOUS
 10
69.648522
 20
138.728087
 11
49.562029
 21
138.728087
  0
LINE
  8
1
 62
7
  6
CONTINUOUS
 10
69.549208
 20
139.728087
 11
53.235582
 21
139.728087
  0
LINE
  8
1
 62
7
  6
CONTINUOUS
 10
69.817871
 20
140.728087
 11
53.235582
 21
140.728087
  0
LINE
  8
1
 62
7
  6
CONTINUOUS
 10
70.308701
 20
141.728087
 11
53.235582
 21
141.728087
  0
LINE
  8
1
 62
7
  6
CONTINUOUS
 10
70.653326
 20
133.728087
 11
53.235582
 21
133.728087
  0
LINE
  8
1
 62
7
  6
CONTINUOUS
 10
70.904527
 20
142.728087
 11
53.235582
 21
142.728087
  0
LINE
  8
1
 62
7
  6
CONTINUOUS
 10
90.649861
 20
142.728087
 11
71.765788
 21
142.728087
  0
LINE
  8
1
 62
7
  6
CONTINUOUS
 10
90.649861
 20
141.728087
 11
70.990790
 21
141.728087
  0
LINE
  8
1
 62
7
  6
CONTINUOUS
 10
90.649861
 20
140.728087
 11
70.419334
 21
140.728087
  0
LINE
  8
1
 62
7
  6
CONTINUOUS
 10
90.649861
 20
139.728087
 11
70.258582
 21
139.728087
  0
LINE
  8
1
 62
7
  6
CONTINUOUS
 10
90.649861
 20
136.728087
 11
71.939602
 21
136.728087
  0
LINE
  8
1
 62
7
  6
CONTINUOUS
 10
90.649861
 20
135.728087
 11
72.232304
 21
135.728087
  0
LINE
  8
1
 62
7
  6
CONTINUOUS
 10
90.649861
 20
134.728087
 11
72.003932
 21
134.728087
  0
LINE
  8
1
 62
7
  6
CONTINUOUS
 10
90.649861
 20
133.728087
 11
71.478701
 21
133.728087
  0
LINE
  8
1
 62
7
  6
CONTINUOUS
 10
25.335582
 20
149.728087
 11
25.335582
 21
126.728087
  0
LINE
  8
1
 62
7
  6
CONTINUOUS
 10
25.335582
 20
126.728087
 11
33.235582
 21
126.728087
  0
LINE
  8
1
 62
7
  6
CONTINUOUS
 10
33.235582
 20
149.728087
 11
25.335582
 21
149.728087
  0
LINE
  8
1
 62
7
  6
CONTINUOUS
 10
110.649861
 20
152.228087
 11
110.649861
 21
124.228087
  0
LINE
  8
1
 62
7
  6
CONTINUOUS
 10
110.649861
 20
124.228087
 11
114.702346
 21
124.228087
  0
LINE
  8
1
 62
7
  6
CONTINUOUS
 10
118.549861
 20
124.228087
 11
118.549861
 21
130.278087
  0
LINE
  8
1
 62
7
  6
CONTINUOUS
 10
118.549861
 20
152.228087
 11
117.431174
 21
152.228087
  0
LINE
  8
1
 62
7
  6
CONTINUOUS
 10
118.549861
 20
146.178087
 11
113.805197
 21
146.178087
  0
LINE
  8
1
 62
7
  6
CONTINUOUS
 10
118.549861
 20
146.178087
 11
118.549861
 21
152.228087
  0
LINE
  8
1
 62
7
  6
CONTINUOUS
 10
113.244478
 20
146.178087
 11
113.244478
 21
144.178087
  0
LINE
  8
1
 62
7
  6
CONTINUOUS
 10
113.244478
 20
144.178087
 11
113.805197
 21
144.178087
  0
LINE
  8
1
 62
7
  6
CONTINUOUS
 10
118.549861
 20
144.178087
 11
118.549861
 21
146.178087
  0
LINE
  8
1
 62
7
  6
CONTINUOUS
 10
118.549861
 20
144.178087
 11
118.549861
 21
132.278087
  0
LINE
  8
1
 62
7
  6
CONTINUOUS
 10
118.549861
 20
132.278087
 11
118.549861
 21
144.178087
  0
LINE
  8
1
 62
7
  6
CONTINUOUS
 10
118.549861
 20
132.278087
 11
113.805197
 21
132.278087
  0
LINE
  8
1
 62
7
  6
CONTINUOUS
 10
113.244478
 20
132.278087
 11
113.244478
 21
130.278087
  0
LINE
  8
1
 62
7
  6
CONTINUOUS
 10
113.244478
 20
130.278087
 11
113.805197
 21
130.278087
  0
LINE
  8
1
 62
7
  6
CONTINUOUS
 10
118.549861
 20
130.278087
 11
118.549861
 21
132.278087
  0
LINE
  8
1
 62
7
  6
CONTINUOUS
 10
117.431174
 20
124.228087
 11
117.431174
 21
127.228087
  0
LINE
  8
1
 62
7
  6
CONTINUOUS
 10
117.431174
 20
124.228087
 11
118.549861
 21
124.228087
  0
LINE
  8
1
 62
7
  6
CONTINUOUS
 10
117.431174
 20
127.228087
 11
116.421882
 21
127.228087
  0
LINE
  8
1
 62
7
  6
CONTINUOUS
 10
114.702346
 20
127.228087
 11
114.702346
 21
124.228087
  0
LINE
  8
1
 62
7
  6
CONTINUOUS
 10
114.702346
 20
124.228087
 11
115.150920
 21
124.228087
  0
LINE
  8
1
 62
7
  6
CONTINUOUS
 10
117.431174
 20
152.228087
 11
117.431174
 21
149.228087
  0
LINE
  8
1
 62
7
  6
CONTINUOUS
 10
117.431174
 20
152.228087
 11
116.421882
 21
152.228087
  0
LINE
  8
1
 62
7
  6
CONTINUOUS
 10
117.431174
 20
149.228087
 11
116.421882
 21
149.228087
  0
LINE
  8
1
 62
7
  6
CONTINUOUS
 10
114.702346
 20
149.228087
 11
114.702346
 21
152.228087
  0
LINE
  8
1
 62
7
  6
CONTINUOUS
 10
114.702346
 20
152.228087
 11
110.649861
 21
152.228087
  0
LINE
  8
1
 62
7
  6
CONTINUOUS
 10
116.421882
 20
127.228087
 11
116.421882
 21
124.228087
  0
LINE
  8
1
 62
7
  6
CONTINUOUS
 10
116.421882
 20
127.228087
 11
115.150920
 21
127.228087
  0
LINE
  8
1
 62
7
  6
CONTINUOUS
 10
116.421882
 20
124.228087
 11
117.431174
 21
124.228087
  0
LINE
  8
1
 62
7
  6
CONTINUOUS
 10
115.150920
 20
124.228087
 11
115.150920
 21
127.228087
  0
LINE
  8
1
 62
7
  6
CONTINUOUS
 10
115.150920
 20
124.228087
 11
116.421882
 21
124.228087
  0
LINE
  8
1
 62
7
  6
CONTINUOUS
 10
115.150920
 20
127.228087
 11
114.702346
 21
127.228087
  0
LINE
  8
1
 62
7
  6
CONTINUOUS
 10
116.421882
 20
152.228087
 11
116.421882
 21
149.228087
  0
LINE
  8
1
 62
7
  6
CONTINUOUS
 10
116.421882
 20
152.228087
 11
115.150920
 21
152.228087
  0
LINE
  8
1
 62
7
  6
CONTINUOUS
 10
116.421882
 20
149.228087
 11
115.150920
 21
149.228087
  0
LINE
  8
1
 62
7
  6
CONTINUOUS
 10
115.150920
 20
149.228087
 11
115.150920
 21
152.228087
  0
LINE
  8
1
 62
7
  6
CONTINUOUS
 10
115.150920
 20
149.228087
 11
114.702346
 21
149.228087
  0
LINE
  8
1
 62
7
  6
CONTINUOUS
 10
115.150920
 20
152.228087
 11
114.702346
 21
152.228087
  0
LINE
  8
1
 62
7
  6
CONTINUOUS
 10
113.805197
 20
130.278087
 11
113.805197
 21
132.278087
  0
LINE
  8
1
 62
7
  6
CONTINUOUS
 10
113.805197
 20
130.278087
 11
118.549861
 21
130.278087
  0
LINE
  8
1
 62
7
  6
CONTINUOUS
 10
113.805197
 20
132.278087
 11
113.244478
 21
132.278087
  0
LINE
  8
1
 62
7
  6
CONTINUOUS
 10
113.805197
 20
144.178087
 11
113.805197
 21
146.178087
  0
LINE
  8
1
 62
7
  6
CONTINUOUS
 10
113.805197
 20
144.178087
 11
118.549861
 21
144.178087
  0
LINE
  8
1
 62
7
  6
CONTINUOUS
 10
113.805197
 20
146.178087
 11
113.244478
 21
146.178087
  0
LINE
  8
1
 62
7
  6
CONTINUOUS
 10
25.335582
 20
128.728087
 11
29.488412
 21
128.728087
  0
LINE
  8
1
 62
7
  6
CONTINUOUS
 10
25.335582
 20
128.728087
 11
25.335582
 21
127.728087
  0
LINE
  8
1
 62
7
  6
CONTINUOUS
 10
29.488412
 20
128.728087
 11
29.488412
 21
127.728087
  0
LINE
  8
1
 62
7
  6
CONTINUOUS
 10
29.488412
 20
127.728087
 11
25.335582
 21
127.728087
  0
LINE
  8
1
 62
7
  6
CONTINUOUS
 10
25.335582
 20
131.228087
 11
29.488412
 21
131.228087
  0
LINE
  8
1
 62
7
  6
CONTINUOUS
 10
25.335582
 20
131.228087
 11
25.335582
 21
130.228087
  0
LINE
  8
1
 62
7
  6
CONTINUOUS
 10
29.488412
 20
131.228087
 11
29.488412
 21
130.228087
  0
LINE
  8
1
 62
7
  6
CONTINUOUS
 10
29.488412
 20
130.228087
 11
25.335582
 21
130.228087
  0
LINE
  8
1
 62
7
  6
CONTINUOUS
 10
25.335582
 20
133.728087
 11
29.488412
 21
133.728087
  0
LINE
  8
1
 62
7
  6
CONTINUOUS
 10
25.335582
 20
133.728087
 11
25.335582
 21
132.728087
  0
LINE
  8
1
 62
7
  6
CONTINUOUS
 10
29.488412
 20
133.728087
 11
29.488412
 21
132.728087
  0
LINE
  8
1
 62
7
  6
CONTINUOUS
 10
29.488412
 20
132.728087
 11
25.335582
 21
132.728087
  0
LINE
  8
1
 62
7
  6
CONTINUOUS
 10
25.335582
 20
136.228087
 11
29.488412
 21
136.228087
  0
LINE
  8
1
 62
7
  6
CONTINUOUS
 10
25.335582
 20
136.228087
 11
25.335582
 21
135.228087
  0
LINE
  8
1
 62
7
  6
CONTINUOUS
 10
29.488412
 20
136.228087
 11
29.488412
 21
135.228087
  0
LINE
  8
1
 62
7
  6
CONTINUOUS
 10
29.488412
 20
135.228087
 11
25.335582
 21
135.228087
  0
LINE
  8
1
 62
7
  6
CONTINUOUS
 10
25.335582
 20
138.728087
 11
29.488412
 21
138.728087
  0
LINE
  8
1
 62
7
  6
CONTINUOUS
 10
25.335582
 20
138.728087
 11
25.335582
 21
137.728087
  0
LINE
  8
1
 62
7
  6
CONTINUOUS
 10
29.488412
 20
138.728087
 11
29.488412
 21
137.728087
  0
LINE
  8
1
 62
7
  6
CONTINUOUS
 10
29.488412
 20
137.728087
 11
25.335582
 21
137.728087
  0
LINE
  8
1
 62
7
  6
CONTINUOUS
 10
25.335582
 20
141.228087
 11
29.488412
 21
141.228087
  0
LINE
  8
1
 62
7
  6
CONTINUOUS
 10
25.335582
 20
141.228087
 11
25.335582
 21
140.228087
  0
LINE
  8
1
 62
7
  6
CONTINUOUS
 10
29.488412
 20
141.228087
 11
29.488412
 21
140.228087
  0
LINE
  8
1
 62
7
  6
CONTINUOUS
 10
29.488412
 20
140.228087
 11
25.335582
 21
140.228087
  0
LINE
  8
1
 62
7
  6
CONTINUOUS
 10
25.335582
 20
143.728087
 11
29.488412
 21
143.728087
  0
LINE
  8
1
 62
7
  6
CONTINUOUS
 10
25.335582
 20
143.728087
 11
25.335582
 21
142.728087
  0
LINE
  8
1
 62
7
  6
CONTINUOUS
 10
29.488412
 20
143.728087
 11
29.488412
 21
142.728087
  0
LINE
  8
1
 62
7
  6
CONTINUOUS
 10
29.488412
 20
142.728087
 11
25.335582
 21
142.728087
  0
LINE
  8
1
 62
7
  6
CONTINUOUS
 10
25.335582
 20
146.228087
 11
29.488412
 21
146.228087
  0
LINE
  8
1
 62
7
  6
CONTINUOUS
 10
25.335582
 20
146.228087
 11
25.335582
 21
145.228087
  0
LINE
  8
1
 62
7
  6
CONTINUOUS
 10
29.488412
 20
146.228087
 11
29.488412
 21
145.228087
  0
LINE
  8
1
 62
7
  6
CONTINUOUS
 10
29.488412
 20
145.228087
 11
25.335582
 21
145.228087
  0
LINE
  8
1
 62
7
  6
CONTINUOUS
 10
25.335582
 20
148.728087
 11
29.488412
 21
148.728087
  0
LINE
  8
1
 62
7
  6
CONTINUOUS
 10
25.335582
 20
148.728087
 11
25.335582
 21
147.728087
  0
LINE
  8
1
 62
7
  6
CONTINUOUS
 10
29.488412
 20
148.728087
 11
29.488412
 21
147.728087
  0
LINE
  8
1
 62
7
  6
CONTINUOUS
 10
29.488412
 20
147.728087
 11
25.335582
 21
147.728087
  0
LINE
  8
1
 62
7
  6
CONTINUOUS
 10
33.235582
 20
144.178087
 11
33.235582
 21
149.728087
  0
LINE
  8
1
 62
7
  6
CONTINUOUS
 10
33.235582
 20
147.728087
 11
33.235582
 21
148.728087
  0
LINE
  8
1
 62
7
  6
CONTINUOUS
 10
33.235582
 20
145.228087
 11
33.235582
 21
146.228087
  0
LINE
  8
1
 62
7
  6
CONTINUOUS
 10
33.235582
 20
147.228087
 11
33.235582
 21
138.728087
  0
LINE
  8
1
 62
7
  6
CONTINUOUS
 10
90.649861
 20
138.728087
 11
70.632244
 21
138.728087
  0
LINE
  8
1
 62
7
  6
CONTINUOUS
 10
33.235582
 20
149.728087
 11
33.235582
 21
138.728087
  0
LINE
  8
1
 62
7
  6
CONTINUOUS
 10
90.649861
 20
137.728087
 11
71.335249
 21
137.681845
  0
LINE
  8
1
 62
7
  6
CONTINUOUS
 10
110.649861
 20
152.228087
 11
110.649861
 21
144.178087
  0
LINE
  8
1
 62
7
  6
CONTINUOUS
 10
110.649861
 20
151.228087
 11
110.649861
 21
150.228087
  0
LINE
  8
1
 62
7
  6
CONTINUOUS
 10
110.649861
 20
124.228087
 11
110.649861
 21
147.228087
  0
LINE
  8
1
 62
7
  6
CONTINUOUS
 10
110.649861
 20
126.728087
 11
110.649861
 21
149.728087
  0
LINE
  8
1
 62
7
  6
CONTINUOUS
 10
33.235582
 20
138.728087
 11
33.235582
 21
137.612957
  0
LINE
  8
1
 62
7
  6
CONTINUOUS
 10
33.235582
 20
138.728087
 11
33.235582
 21
137.612957
  0
LINE
  8
1
 62
7
  6
CONTINUOUS
 10
33.235582
 20
137.612957
 11
33.235582
 21
126.728087
  0
LINE
  8
1
 62
7
  6
CONTINUOUS
 10
33.235582
 20
137.612957
 11
33.235582
 21
126.728087
  0
LINE
  8
1
 62
7
  6
CONTINUOUS
 10
110.649861
 20
152.228087
 11
110.649861
 21
144.178087
  0
LINE
  8
1
 62
7
  6
CONTINUOUS
 10
110.649861
 20
151.228087
 11
110.649861
 21
150.228087
  0
LINE
  8
1
 62
7
  6
CONTINUOUS
 10
110.649861
 20
146.228087
 11
110.649861
 21
145.228087
  0
LINE
  8
1
 62
7
  6
CONTINUOUS
 10
110.649861
 20
136.255560
 11
110.649861
 21
147.228087
  0
LINE
  8
1
 62
7
  6
CONTINUOUS
 10
110.649861
 20
136.255560
 11
110.649861
 21
149.728087
  0
LINE
  8
1
 62
7
  6
CONTINUOUS
 10
110.649861
 20
135.140431
 11
110.649861
 21
136.255560
  0
LINE
  8
1
 62
7
  6
CONTINUOUS
 10
110.649861
 20
135.140431
 11
110.649861
 21
136.255560
  0
LINE
  8
1
 62
7
  6
CONTINUOUS
 10
110.649861
 20
124.228087
 11
110.649861
 21
135.140431
  0
LINE
  8
1
 62
7
  6
CONTINUOUS
 10
110.649861
 20
126.728087
 11
110.649861
 21
135.140431
  0
LINE
  8
1
 62
7
  6
CONTINUOUS
 10
206.880320
 20
92.670559
 11
212.171823
 21
92.670559
  0
ARC
  8
1
 62
7
  6
CONTINUOUS
 10
317.025854
 20
97.670559
 40
5.000000
 50
-90.000000
 51
-53.130102
  0
ARC
  8
1
 62
7
  6
CONTINUOUS
 10
209.526072
 20
90.339481
 40
5.647059
 50
-55.150095
 51
-124.849905
  0
ARC
  8
1
 62
7
  6
CONTINUOUS
 10
209.526072
 20
89.670559
 40
35.000000
 50
129.892423
 51
140.107577
  0
ARC
  8
1
 62
7
  6
CONTINUOUS
 10
209.526072
 20
89.670559
 40
35.000000
 50
39.892423
 51
56.034648
  0
ARC
  8
1
 62
7
  6
CONTINUOUS
 10
209.526072
 20
89.670559
 40
35.000000
 50
-50.107577
 51
-39.892423
  0
ARC
  8
1
 62
7
  6
CONTINUOUS
 10
209.526072
 20
89.670559
 40
35.000000
 50
-140.107577
 51
-124.957927
  0
ARC
  8
1
 62
7
  6
CONTINUOUS
 10
184.776072
 20
64.920559
 40
2.250000
 50
37.189059
 51
69.785068
  0
ARC
  8
1
 62
7
  6
CONTINUOUS
 10
184.776072
 20
64.920559
 40
2.250000
 50
69.785068
 51
-0.000000
  0
ARC
  8
1
 62
7
  6
CONTINUOUS
 10
184.776072
 20
64.920559
 40
2.250000
 50
0.000000
 51
37.189059
  0
ARC
  8
1
 62
7
  6
CONTINUOUS
 10
182.526072
 20
72.170559
 40
3.250000
 50
-90.000000
 51
90.000000
  0
ARC
  8
1
 62
7
  6
CONTINUOUS
 10
236.526072
 20
107.170559
 40
3.250000
 50
90.000000
 51
-90.000000
  0
ARC
  8
1
 62
7
  6
CONTINUOUS
 10
183.526072
 20
63.670559
 40
4.500000
 50
180.000000
 51
-90.000000
  0
ARC
  8
1
 62
7
  6
CONTINUOUS
 10
235.526072
 20
115.670559
 40
4.500000
 50
0.000000
 51
90.000000
  0
ARC
  8
1
 62
7
  6
CONTINUOUS
 10
183.526072
 20
115.670559
 40
4.500000
 50
90.000000
 51
180.000000
  0
ARC
  8
1
 62
7
  6
CONTINUOUS
 10
235.526072
 20
63.670559
 40
4.500000
 50
-90.000000
 51
-7.992123
  0
ARC
  8
1
 62
7
  6
CONTINUOUS
 10
235.526072
 20
63.670559
 40
4.500000
 50
-90.000000
 51
-0.000000
  0
CIRCLE
  8
1
 62
7
  6
CONTINUOUS
 10
207.643719
 20
84.678719
 40
0.470588
  0
CIRCLE
  8
1
 62
7
  6
CONTINUOUS
 10
211.408425
 20
84.678719
 40
0.470588
  0
CIRCLE
  8
1
 62
7
  6
CONTINUOUS
 10
209.526072
 20
89.670559
 40
26.250000
  0
CIRCLE
  8
1
 62
7
  6
CONTINUOUS
 10
209.526072
 20
89.670559
 40
35.000000
  0
CIRCLE
  8
1
 62
7
  6
CONTINUOUS
 10
209.526072
 20
89.670559
 40
24.000000
  0
CIRCLE
  8
1
 62
7
  6
CONTINUOUS
 10
234.276072
 20
64.920559
 40
2.250000
  0
CIRCLE
  8
1
 62
7
  6
CONTINUOUS
 10
234.276072
 20
114.420559
 40
2.250000
  0
CIRCLE
  8
1
 62
7
  6
CONTINUOUS
 10
184.776072
 20
114.420559
 40
2.250000
  0
CIRCLE
  8
1
 62
7
  6
CONTINUOUS
 10
209.526072
 20
89.670559
 40
27.250000
  0
CIRCLE
  8
1
 62
7
  6
CONTINUOUS
 10
209.526072
 20
89.670559
 40
4.000000
  0
CIRCLE
  8
1
 62
7
  6
CONTINUOUS
 10
209.526072
 20
89.670559
 40
11.000000
  0
ARC
  8
1
 62
7
  6
CONTINUOUS
 10
98.331239
 20
121.075026
 40
34.272121
 50
140.817092
 51
142.102806
  0
ARC
  8
1
 62
7
  6
CONTINUOUS
 10
79.575613
 20
135.674407
 40
10.504171
 50
142.102806
 51
146.150230
  0
ARC
  8
1
 62
7
  6
CONTINUOUS
 10
75.077665
 20
138.691182
 40
5.088225
 50
146.150230
 51
153.958451
  0
ARC
  8
1
 62
7
  6
CONTINUOUS
 10
73.025630
 20
139.693870
 40
2.804319
 50
153.958451
 51
166.977148
  0
ARC
  8
1
 62
7
  6
CONTINUOUS
 10
72.027073
 20
139.924824
 40
1.779401
 50
166.977148
 51
-173.652184
  0
ARC
  8
1
 62
7
  6
CONTINUOUS
 10
72.274698
 20
139.952371
 40
2.028554
 50
-173.652184
 51
-149.939570
  0
ARC
  8
1
 62
7
  6
CONTINUOUS
 10
84.264452
 20
146.891530
 40
15.881571
 50
-149.939570
 51
-146.578454
  0
ARC
  8
1
 62
7
  6
CONTINUOUS
 10
85.885753
 20
147.961457
 40
17.824086
 50
-146.578454
 51
-143.453946
  0
ARC
  8
1
 62
7
  6
CONTINUOUS
 10
67.085827
 20
134.239212
 40
5.453208
 50
24.998328
 51
34.753170
  0
ARC
  8
1
 62
7
  6
CONTINUOUS
 10
70.086633
 20
135.624428
 40
2.148173
 50
2.765860
 51
25.336195
  0
ARC
  8
1
 62
7
  6
CONTINUOUS
 10
70.396471
 20
135.690672
 40
1.836214
 50
-11.254928
 51
1.167548
  0
ARC
  8
1
 62
7
  6
CONTINUOUS
 10
69.580982
 20
135.853200
 40
2.667742
 50
-20.162093
 51
-11.260075
  0
ARC
  8
1
 62
7
  6
CONTINUOUS
 10
68.014714
 20
136.424413
 40
4.334916
 50
-25.869502
 51
-20.113890
  0
ARC
  8
1
 62
7
  6
CONTINUOUS
 10
64.587745
 20
138.079409
 40
8.140584
 50
-29.015186
 51
-25.826455
  0
ARC
  8
1
 62
7
  6
CONTINUOUS
 10
48.929435
 20
146.752779
 40
26.040584
 50
-30.011180
 51
-28.992868
  0
ARC
  8
1
 62
7
  6
CONTINUOUS
 10
102.839539
 20
122.963256
 40
37.556537
 50
148.246308
 51
149.713446
  0
ARC
  8
1
 62
7
  6
CONTINUOUS
 10
80.314114
 20
136.118961
 40
11.470769
 50
149.713446
 51
154.341597
  0
ARC
  8
1
 62
7
  6
CONTINUOUS
 10
74.962512
 20
138.689730
 40
5.533724
 50
154.341597
 51
163.300836
  0
ARC
  8
1
 62
7
  6
CONTINUOUS
 10
72.630843
 20
139.389227
 40
3.099391
 50
163.300836
 51
178.101784
  0
ARC
  8
1
 62
7
  6
CONTINUOUS
 10
71.653894
 20
139.421605
 40
2.121905
 50
178.101784
 51
-160.923053
  0
ARC
  8
1
 62
7
  6
CONTINUOUS
 10
72.216937
 20
139.616323
 40
2.717668
 50
-160.923053
 51
-146.701079
  0
ARC
  8
1
 62
7
  6
CONTINUOUS
 10
84.505079
 20
147.687792
 40
17.419608
 50
-146.701079
 51
-144.335610
  0
ARC
  8
1
 62
7
  6
CONTINUOUS
 10
54.094390
 20
125.425241
 40
20.270450
 50
34.617007
 51
36.672351
  0
ARC
  8
1
 62
7
  6
CONTINUOUS
 10
67.297121
 20
134.523999
 40
4.236150
 50
25.422459
 51
34.783758
  0
ARC
  8
1
 62
7
  6
CONTINUOUS
 10
69.395037
 20
135.514512
 40
1.916174
 50
6.399433
 51
25.602296
  0
ARC
  8
1
 62
7
  6
CONTINUOUS
 10
69.609649
 20
135.576240
 40
1.696433
 50
-8.018716
 51
5.135406
  0
ARC
  8
1
 62
7
  6
CONTINUOUS
 10
68.828836
 20
135.686616
 40
2.485008
 50
-17.401663
 51
-8.027397
  0
ARC
  8
1
 62
7
  6
CONTINUOUS
 10
67.298488
 20
136.162120
 40
4.087525
 50
-23.358124
 51
-17.346470
  0
ARC
  8
1
 62
7
  6
CONTINUOUS
 10
63.933285
 20
137.608267
 40
7.750298
 50
-26.618547
 51
-23.309345
  0
ARC
  8
1
 62
7
  6
CONTINUOUS
 10
48.581433
 20
145.289968
 40
24.916773
 50
-27.646816
 51
-26.593567
  0
ARC
  8
1
 62
7
  6
CONTINUOUS
 10
13.476124
 20
-28.528554
 40
178.354571
 50
83.345280
 51
83.639286
  0
ARC
  8
1
 62
7
  6
CONTINUOUS
 10
27.274272
 20
89.733715
 40
59.290080
 50
82.461914
 51
83.345536
  0
ARC
  8
1
 62
7
  6
CONTINUOUS
 10
30.406594
 20
113.402821
 40
35.414610
 50
80.985130
 51
82.462264
  0
ARC
  8
1
 62
7
  6
CONTINUOUS
 10
32.009324
 20
123.504774
 40
25.186306
 50
78.911220
 51
80.985243
  0
ARC
  8
1
 62
7
  6
CONTINUOUS
 10
33.090523
 20
129.022529
 40
19.563619
 50
76.241603
 51
78.910589
  0
ARC
  8
1
 62
7
  6
CONTINUOUS
 10
33.388856
 20
130.321476
 40
18.231000
 50
74.177593
 51
76.181406
  0
ARC
  8
1
 62
7
  6
CONTINUOUS
 10
33.036396
 20
129.077393
 40
19.524048
 50
72.304805
 51
74.177892
  0
ARC
  8
1
 62
7
  6
CONTINUOUS
 10
32.603026
 20
127.718652
 40
20.950227
 50
70.558375
 51
72.305155
  0
ARC
  8
1
 62
7
  6
CONTINUOUS
 10
32.080986
 20
126.239222
 40
22.519060
 50
68.933483
 51
70.558753
  0
ARC
  8
1
 62
7
  6
CONTINUOUS
 10
31.461380
 20
124.630219
 40
24.243242
 50
67.425171
 51
68.933871
  0
ARC
  8
1
 62
7
  6
CONTINUOUS
 10
29.213261
 20
119.298041
 40
30.029906
 50
65.373201
 51
67.370037
  0
ARC
  8
1
 62
7
  6
CONTINUOUS
 10
21.147481
 20
101.703910
 40
49.384758
 50
64.158952
 51
65.372567
  0
ARC
  8
1
 62
7
  6
CONTINUOUS
 10
-18.520389
 20
19.796870
 40
140.391917
 50
63.731796
 51
64.158937
  0
ARC
  8
1
 62
7
  6
CONTINUOUS
 10
117.811979
 20
296.031591
 40
167.653754
 50
-116.268006
 51
-115.909955
  0
ARC
  8
1
 62
7
  6
CONTINUOUS
 10
67.584134
 20
192.637151
 40
52.704867
 50
-115.909955
 51
-114.769321
  0
ARC
  8
1
 62
7
  6
CONTINUOUS
 10
59.262769
 20
174.602713
 40
32.843194
 50
-114.769321
 51
-113.234712
  0
ARC
  8
1
 62
7
  6
CONTINUOUS
 10
57.423971
 20
170.319644
 40
28.182094
 50
-113.234712
 51
-111.446280
  0
ARC
  8
1
 62
7
  6
CONTINUOUS
 10
55.060034
 20
164.301901
 40
21.716692
 50
-111.446280
 51
-109.128638
  0
ARC
  8
1
 62
7
  6
CONTINUOUS
 10
54.291616
 20
162.086423
 40
19.371737
 50
-109.128638
 51
-106.535859
  0
ARC
  8
1
 62
7
  6
CONTINUOUS
 10
53.345386
 20
158.899332
 40
16.047147
 50
-106.535859
 51
-100.806826
  0
ARC
  8
1
 62
7
  6
CONTINUOUS
 10
54.818285
 20
166.615541
 40
23.902675
 50
-100.806826
 51
-99.056145
  0
ARC
  8
1
 62
7
  6
CONTINUOUS
 10
55.398666
 20
170.256824
 40
27.589920
 50
-99.056145
 51
-97.536707
  0
ARC
  8
1
 62
7
  6
CONTINUOUS
 10
60.214562
 20
206.656977
 40
64.307273
 50
-97.536707
 51
-96.883756
  0
ARC
  8
1
 62
7
  6
CONTINUOUS
 10
64.212216
 20
239.770521
 40
97.661254
 50
-96.883756
 51
-96.453394
  0
ARC
  8
1
 62
7
  6
CONTINUOUS
 10
13.476124
 20
-29.528554
 40
178.354571
 50
83.345280
 51
83.639286
  0
ARC
  8
1
 62
7
  6
CONTINUOUS
 10
27.274272
 20
88.733715
 40
59.290080
 50
82.461914
 51
83.345536
  0
ARC
  8
1
 62
7
  6
CONTINUOUS
 10
30.406594
 20
112.402821
 40
35.414610
 50
80.985130
 51
82.462264
  0
ARC
  8
1
 62
7
  6
CONTINUOUS
 10
32.009324
 20
122.504774
 40
25.186306
 50
78.911220
 51
80.985243
  0
ARC
  8
1
 62
7
  6
CONTINUOUS
 10
33.090523
 20
128.022529
 40
19.563619
 50
76.241603
 51
78.910589
  0
ARC
  8
1
 62
7
  6
CONTINUOUS
 10
33.388856
 20
129.321476
 40
18.231000
 50
74.177593
 51
76.181406
  0
ARC
  8
1
 62
7
  6
CONTINUOUS
 10
33.036396
 20
128.077393
 40
19.524048
 50
72.304805
 51
74.177892
  0
ARC
  8
1
 62
7
  6
CONTINUOUS
 10
32.603026
 20
126.718652
 40
20.950227
 50
70.558375
 51
72.305155
  0
ARC
  8
1
 62
7
  6
CONTINUOUS
 10
32.080986
 20
125.239222
 40
22.519060
 50
68.933483
 51
70.558753
  0
ARC
  8
1
 62
7
  6
CONTINUOUS
 10
31.461380
 20
123.630219
 40
24.243242
 50
67.425171
 51
68.933871
  0
ARC
  8
1
 62
7
  6
CONTINUOUS
 10
29.213261
 20
118.298041
 40
30.029906
 50
65.373201
 51
67.370037
  0
ARC
  8
1
 62
7
  6
CONTINUOUS
 10
21.147481
 20
100.703910
 40
49.384758
 50
64.158952
 51
65.372567
  0
ARC
  8
1
 62
7
  6
CONTINUOUS
 10
-18.520389
 20
18.796870
 40
140.391917
 50
63.731796
 51
64.158937
  0
ARC
  8
1
 62
7
  6
CONTINUOUS
 10
117.811979
 20
295.031591
 40
167.653754
 50
-116.268006
 51
-115.909955
  0
ARC
  8
1
 62
7
  6
CONTINUOUS
 10
67.584134
 20
191.637151
 40
52.704867
 50
-115.909955
 51
-114.769321
  0
ARC
  8
1
 62
7
  6
CONTINUOUS
 10
59.262769
 20
173.602713
 40
32.843194
 50
-114.769321
 51
-113.234712
  0
ARC
  8
1
 62
7
  6
CONTINUOUS
 10
57.423971
 20
169.319644
 40
28.182094
 50
-113.234712
 51
-111.446280
  0
ARC
  8
1
 62
7
  6
CONTINUOUS
 10
55.060034
 20
163.301901
 40
21.716692
 50
-111.446280
 51
-109.128638
  0
ARC
  8
1
 62
7
  6
CONTINUOUS
 10
54.291616
 20
161.086423
 40
19.371737
 50
-109.128638
 51
-106.535859
  0
ARC
  8
1
 62
7
  6
CONTINUOUS
 10
53.345386
 20
157.899332
 40
16.047147
 50
-106.535859
 51
-100.806826
  0
ARC
  8
1
 62
7
  6
CONTINUOUS
 10
54.818285
 20
165.615541
 40
23.902675
 50
-100.806826
 51
-99.056145
  0
ARC
  8
1
 62
7
  6
CONTINUOUS
 10
55.398666
 20
169.256824
 40
27.589920
 50
-99.056145
 51
-97.536707
  0
ARC
  8
1
 62
7
  6
CONTINUOUS
 10
60.214562
 20
205.656977
 40
64.307273
 50
-97.536707
 51
-96.883756
  0
ARC
  8
1
 62
7
  6
CONTINUOUS
 10
64.212216
 20
238.770521
 40
97.661254
 50
-96.883756
 51
-96.453394
  0
ARC
  8
1
 62
7
  6
CONTINUOUS
 10
39.677721
 20
68.756934
 40
77.738541
 50
94.203127
 51
94.753513
  0
ARC
  8
1
 62
7
  6
CONTINUOUS
 10
35.854838
 20
120.790636
 40
25.564595
 50
92.539413
 51
94.205559
  0
ARC
  8
1
 62
7
  6
CONTINUOUS
 10
35.386787
 20
131.367089
 40
14.977791
 50
89.721855
 51
92.543299
  0
ARC
  8
1
 62
7
  6
CONTINUOUS
 10
35.409510
 20
135.933682
 40
10.411141
 50
85.702341
 51
89.724904
  0
ARC
  8
1
 62
7
  6
CONTINUOUS
 10
35.594414
 20
138.397451
 40
7.940444
 50
80.460328
 51
85.700562
  0
ARC
  8
1
 62
7
  6
CONTINUOUS
 10
35.528549
 20
138.205601
 40
8.140623
 50
74.675046
 51
80.226954
  0
ARC
  8
1
 62
7
  6
CONTINUOUS
 10
34.651880
 20
135.006192
 40
11.457967
 50
70.700485
 51
74.675469
  0
ARC
  8
1
 62
7
  6
CONTINUOUS
 10
32.226284
 20
128.074370
 40
18.801922
 50
68.262288
 51
70.705743
  0
ARC
  8
1
 62
7
  6
CONTINUOUS
 10
21.610461
 20
101.439787
 40
47.474150
 50
67.293608
 51
68.266410
  0
ARC
  8
1
 62
7
  6
CONTINUOUS
 10
77.818636
 20
235.768707
 40
98.140470
 50
-112.706156
 51
-112.235776
  0
ARC
  8
1
 62
7
  6
CONTINUOUS
 10
54.052641
 20
177.635700
 40
35.337054
 50
-112.235776
 51
-110.847238
  0
ARC
  8
1
 62
7
  6
CONTINUOUS
 10
88.274531
 20
267.502198
 40
131.499028
 50
-110.847238
 51
-110.475783
  0
ARC
  8
1
 62
7
  6
CONTINUOUS
 10
72.225285
 20
224.521166
 40
85.619322
 50
-110.475783
 51
-109.906555
  0
ARC
  8
1
 62
7
  6
CONTINUOUS
 10
-65.814346
 20
-154.182924
 40
317.458736
 50
69.786937
 51
69.940435
  0
ARC
  8
1
 62
7
  6
CONTINUOUS
 10
14.175797
 20
63.072738
 40
85.945355
 50
69.218483
 51
69.786549
  0
ARC
  8
1
 62
7
  6
CONTINUOUS
 10
-14.345948
 20
-11.256887
 40
165.559037
 50
68.865780
 51
69.116884
  0
ARC
  8
1
 62
7
  6
CONTINUOUS
 10
72.344048
 20
213.006942
 40
74.876860
 50
-111.134125
 51
-110.578386
  0
ARC
  8
1
 62
7
  6
CONTINUOUS
 10
56.721576
 20
171.396375
 40
30.430252
 50
-110.578386
 51
-109.212862
  0
ARC
  8
1
 62
7
  6
CONTINUOUS
 10
52.930148
 20
160.516740
 40
18.908907
 50
-109.212862
 51
-107.022043
  0
ARC
  8
1
 62
7
  6
CONTINUOUS
 10
51.384781
 20
155.469019
 40
13.629926
 50
-107.022043
 51
-103.993008
  0
ARC
  8
1
 62
7
  6
CONTINUOUS
 10
51.089305
 20
154.283313
 40
12.407958
 50
-103.993008
 51
-99.243884
  0
ARC
  8
1
 62
7
  6
CONTINUOUS
 10
52.125187
 20
160.648154
 40
18.856544
 50
-99.243884
 51
-96.110323
  0
ARC
  8
1
 62
7
  6
CONTINUOUS
 10
52.435182
 20
163.543909
 40
21.768844
 50
-96.110323
 51
-93.381809
  0
ARC
  8
1
 62
7
  6
CONTINUOUS
 10
54.241782
 20
194.116399
 40
52.394665
 50
-93.381809
 51
-92.242680
  0
ARC
  8
1
 62
7
  6
CONTINUOUS
 10
55.196552
 20
218.496316
 40
76.793271
 50
-92.242680
 51
-91.463247
  0
ARC
  8
1
 62
7
  6
CONTINUOUS
 10
39.677721
 20
67.756934
 40
77.738541
 50
94.203127
 51
94.753513
  0
ARC
  8
1
 62
7
  6
CONTINUOUS
 10
35.854838
 20
119.790636
 40
25.564595
 50
92.539413
 51
94.205559
  0
ARC
  8
1
 62
7
  6
CONTINUOUS
 10
35.386787
 20
130.367089
 40
14.977791
 50
89.721855
 51
92.543299
  0
ARC
  8
1
 62
7
  6
CONTINUOUS
 10
35.409510
 20
134.933682
 40
10.411141
 50
85.702341
 51
89.724904
  0
ARC
  8
1
 62
7
  6
CONTINUOUS
 10
35.594414
 20
137.397451
 40
7.940444
 50
80.460328
 51
85.700562
  0
ARC
  8
1
 62
7
  6
CONTINUOUS
 10
35.528549
 20
137.205601
 40
8.140623
 50
74.675046
 51
80.226954
  0
ARC
  8
1
 62
7
  6
CONTINUOUS
 10
34.651880
 20
134.006192
 40
11.457967
 50
70.700485
 51
74.675469
  0
ARC
  8
1
 62
7
  6
CONTINUOUS
 10
32.226284
 20
127.074370
 40
18.801922
 50
68.262288
 51
70.705743
  0
ARC
  8
1
 62
7
  6
CONTINUOUS
 10
21.610461
 20
100.439787
 40
47.474150
 50
67.293608
 51
68.266410
  0
ARC
  8
1
 62
7
  6
CONTINUOUS
 10
77.818636
 20
234.768707
 40
98.140470
 50
-112.706156
 51
-112.235776
  0
ARC
  8
1
 62
7
  6
CONTINUOUS
 10
54.052641
 20
176.635700
 40
35.337054
 50
-112.235776
 51
-110.847238
  0
ARC
  8
1
 62
7
  6
CONTINUOUS
 10
88.274531
 20
266.502198
 40
131.499028
 50
-110.847238
 51
-110.475783
  0
ARC
  8
1
 62
7
  6
CONTINUOUS
 10
72.225285
 20
223.521166
 40
85.619322
 50
-110.475783
 51
-109.906555
  0
ARC
  8
1
 62
7
  6
CONTINUOUS
 10
-65.814346
 20
-155.182924
 40
317.458736
 50
69.786937
 51
69.940435
  0
ARC
  8
1
 62
7
  6
CONTINUOUS
 10
14.175797
 20
62.072738
 40
85.945355
 50
69.218483
 51
69.786549
  0
ARC
  8
1
 62
7
  6
CONTINUOUS
 10
-14.345948
 20
-12.256887
 40
165.559037
 50
68.865780
 51
69.116884
  0
ARC
  8
1
 62
7
  6
CONTINUOUS
 10
72.344048
 20
212.006942
 40
74.876860
 50
-111.134125
 51
-110.578386
  0
ARC
  8
1
 62
7
  6
CONTINUOUS
 10
56.721576
 20
170.396375
 40
30.430252
 50
-110.578386
 51
-109.212862
  0
ARC
  8
1
 62
7
  6
CONTINUOUS
 10
52.930148
 20
159.516740
 40
18.908907
 50
-109.212862
 51
-107.022043
  0
ARC
  8
1
 62
7
  6
CONTINUOUS
 10
51.384781
 20
154.469019
 40
13.629926
 50
-107.022043
 51
-103.993008
  0
ARC
  8
1
 62
7
  6
CONTINUOUS
 10
51.089305
 20
153.283313
 40
12.407958
 50
-103.993008
 51
-99.243884
  0
ARC
  8
1
 62
7
  6
CONTINUOUS
 10
52.125187
 20
159.648154
 40
18.856544
 50
-99.243884
 51
-96.110323
  0
ARC
  8
1
 62
7
  6
CONTINUOUS
 10
52.435182
 20
162.543909
 40
21.768844
 50
-96.110323
 51
-93.381809
  0
ARC
  8
1
 62
7
  6
CONTINUOUS
 10
54.241782
 20
193.116399
 40
52.394665
 50
-93.381809
 51
-92.242680
  0
ARC
  8
1
 62
7
  6
CONTINUOUS
 10
55.196552
 20
217.496316
 40
76.793271
 50
-92.242680
 51
-91.463247
  0
ARC
  8
1
 62
7
  6
CONTINUOUS
 10
38.840787
 20
37.528786
 40
106.341169
 50
92.680451
 51
93.021440
  0
ARC
  8
1
 62
7
  6
CONTINUOUS
 10
35.518508
 20
108.498370
 40
35.293864
 50
91.654994
 51
92.680927
  0
ARC
  8
1
 62
7
  6
CONTINUOUS
 10
35.106531
 20
122.765943
 40
21.020345
 50
89.937341
 51
91.655698
  0
ARC
  8
1
 62
7
  6
CONTINUOUS
 10
35.113334
 20
128.889470
 40
14.896814
 50
87.519350
 51
89.937750
  0
ARC
  8
1
 62
7
  6
CONTINUOUS
 10
35.258677
 20
132.247617
 40
11.535523
 50
84.400064
 51
87.518650
  0
ARC
  8
1
 62
7
  6
CONTINUOUS
 10
35.324399
 20
133.069198
 40
10.711460
 50
80.246555
 51
84.321098
  0
ARC
  8
1
 62
7
  6
CONTINUOUS
 10
35.204918
 20
132.373587
 40
11.417258
 50
76.413441
 51
80.247000
  0
ARC
  8
1
 62
7
  6
CONTINUOUS
 10
35.026275
 20
131.633457
 40
12.178642
 50
72.808515
 51
76.414490
  0
ARC
  8
1
 62
7
  6
CONTINUOUS
 10
34.793315
 20
130.879370
 40
12.967893
 50
69.412838
 51
72.809976
  0
ARC
  8
1
 62
7
  6
CONTINUOUS
 10
34.517602
 20
130.144169
 40
13.753093
 50
66.204059
 51
69.414565
  0
ARC
  8
1
 62
7
  6
CONTINUOUS
 10
31.107168
 20
122.514654
 40
22.110093
 50
64.775681
 51
66.094841
  0
ARC
  8
1
 62
7
  6
CONTINUOUS
 10
115.033948
 20
300.669593
 40
174.823619
 50
-115.224630
 51
-115.058151
  0
ARC
  8
1
 62
7
  6
CONTINUOUS
 10
48.351583
 20
158.046895
 40
17.382291
 50
-115.058151
 51
-113.392881
  0
ARC
  8
1
 62
7
  6
CONTINUOUS
 10
44.997990
 20
150.294556
 40
8.935674
 50
-113.392881
 51
-110.177856
  0
ARC
  8
1
 62
7
  6
CONTINUOUS
 10
43.969783
 20
147.496635
 40
5.954806
 50
-110.177856
 51
-105.383437
  0
ARC
  8
1
 62
7
  6
CONTINUOUS
 10
43.825504
 20
146.972241
 40
5.410926
 50
-105.383437
 51
-99.459902
  0
ARC
  8
1
 62
7
  6
CONTINUOUS
 10
44.706258
 20
152.258144
 40
10.769704
 50
-99.459902
 51
-96.462654
  0
ARC
  8
1
 62
7
  6
CONTINUOUS
 10
45.043164
 20
155.232358
 40
13.762938
 50
-96.462654
 51
-94.098601
  0
ARC
  8
1
 62
7
  6
CONTINUOUS
 10
66.606602
 20
435.962071
 40
295.319427
 50
-94.378693
 51
-94.268053
  0
ARC
  8
1
 62
7
  6
CONTINUOUS
 10
43.088810
 20
120.829395
 40
20.689576
 50
84.155176
 51
85.733200
  0
ARC
  8
1
 62
7
  6
CONTINUOUS
 10
43.475748
 20
125.208255
 40
16.294190
 50
81.958468
 51
83.940705
  0
ARC
  8
1
 62
7
  6
CONTINUOUS
 10
41.663719
 20
112.386674
 40
29.243182
 50
80.855930
 51
81.957314
  0
ARC
  8
1
 62
7
  6
CONTINUOUS
 10
22.131295
 20
-8.952358
 40
152.144266
 50
80.644112
 51
80.855438
  0
ARC
  8
1
 62
7
  6
CONTINUOUS
 10
54.508853
 20
187.562269
 40
47.019749
 50
-99.356124
 51
-98.673136
  0
ARC
  8
1
 62
7
  6
CONTINUOUS
 10
50.485133
 20
161.184426
 40
20.336779
 50
-98.673136
 51
-97.094721
  0
ARC
  8
1
 62
7
  6
CONTINUOUS
 10
49.869474
 20
156.237912
 40
15.352098
 50
-97.094721
 51
-95.445918
  0
ARC
  8
1
 62
7
  6
CONTINUOUS
 10
50.880245
 20
166.840056
 40
26.002315
 50
-95.445918
 51
-94.471400
  0
ARC
  8
1
 62
7
  6
CONTINUOUS
 10
50.675481
 20
164.221572
 40
23.375837
 50
-94.471400
 51
-93.386291
  0
ARC
  8
1
 62
7
  6
CONTINUOUS
 10
52.912119
 20
202.021230
 40
61.241609
 50
-93.386291
 51
-92.971840
  0
ARC
  8
1
 62
7
  6
CONTINUOUS
 10
52.227973
 20
188.843011
 40
48.045644
 50
-92.971840
 51
-92.443493
  0
ARC
  8
1
 62
7
  6
CONTINUOUS
 10
227.710080
 20
4301.106753
 40
4164.051845
 50
-92.443493
 51
-92.435070
  0
ARC
  8
1
 62
7
  6
CONTINUOUS
 10
54.327318
 20
223.968160
 40
83.228315
 50
-92.435070
 51
-92.013903
  0
ARC
  8
1
 62
7
  6
CONTINUOUS
 10
61.091180
 20
401.236063
 40
260.624959
 50
-92.130448
 51
-91.996009
  0
ARC
  8
1
 62
7
  6
CONTINUOUS
 10
67.127363
 20
574.435613
 40
433.929661
 50
-91.996009
 51
-91.915286
  0
ARC
  8
1
 62
7
  6
CONTINUOUS
 10
96.135351
 20
1441.886391
 40
1301.865324
 50
-91.915286
 51
-91.888383
  0
ARC
  8
1
 62
7
  6
CONTINUOUS
 10
38.840787
 20
36.528786
 40
106.341169
 50
92.680451
 51
93.021440
  0
ARC
  8
1
 62
7
  6
CONTINUOUS
 10
35.518508
 20
107.498370
 40
35.293864
 50
91.654994
 51
92.680927
  0
ARC
  8
1
 62
7
  6
CONTINUOUS
 10
35.106531
 20
121.765943
 40
21.020345
 50
89.937341
 51
91.655698
  0
ARC
  8
1
 62
7
  6
CONTINUOUS
 10
35.113334
 20
127.889470
 40
14.896814
 50
87.519350
 51
89.937750
  0
ARC
  8
1
 62
7
  6
CONTINUOUS
 10
35.258677
 20
131.247617
 40
11.535523
 50
84.400064
 51
87.518650
  0
ARC
  8
1
 62
7
  6
CONTINUOUS
 10
35.324399
 20
132.069198
 40
10.711460
 50
80.246555
 51
84.321098
  0
ARC
  8
1
 62
7
  6
CONTINUOUS
 10
35.204918
 20
131.373587
 40
11.417258
 50
76.413441
 51
80.247000
  0
ARC
  8
1
 62
7
  6
CONTINUOUS
 10
35.026275
 20
130.633457
 40
12.178642
 50
72.808515
 51
76.414490
  0
ARC
  8
1
 62
7
  6
CONTINUOUS
 10
34.793315
 20
129.879370
 40
12.967893
 50
69.412838
 51
72.809976
  0
ARC
  8
1
 62
7
  6
CONTINUOUS
 10
34.517602
 20
129.144169
 40
13.753093
 50
66.204059
 51
69.414565
  0
ARC
  8
1
 62
7
  6
CONTINUOUS
 10
31.107168
 20
121.514654
 40
22.110093
 50
64.775681
 51
66.094841
  0
ARC
  8
1
 62
7
  6
CONTINUOUS
 10
115.033948
 20
299.669593
 40
174.823619
 50
-115.224630
 51
-115.058151
  0
ARC
  8
1
 62
7
  6
CONTINUOUS
 10
48.351583
 20
157.046895
 40
17.382291
 50
-115.058151
 51
-113.392881
  0
ARC
  8
1
 62
7
  6
CONTINUOUS
 10
44.997990
 20
149.294556
 40
8.935674
 50
-113.392881
 51
-110.177856
  0
ARC
  8
1
 62
7
  6
CONTINUOUS
 10
43.969783
 20
146.496635
 40
5.954806
 50
-110.177856
 51
-105.383437
  0
ARC
  8
1
 62
7
  6
CONTINUOUS
 10
43.825504
 20
145.972241
 40
5.410926
 50
-105.383437
 51
-99.459902
  0
ARC
  8
1
 62
7
  6
CONTINUOUS
 10
44.706258
 20
151.258144
 40
10.769704
 50
-99.459902
 51
-96.462654
  0
ARC
  8
1
 62
7
  6
CONTINUOUS
 10
45.043164
 20
154.232358
 40
13.762938
 50
-96.462654
 51
-94.098601
  0
ARC
  8
1
 62
7
  6
CONTINUOUS
 10
66.606602
 20
434.962071
 40
295.319427
 50
-94.378693
 51
-94.268053
  0
ARC
  8
1
 62
7
  6
CONTINUOUS
 10
43.088810
 20
119.829395
 40
20.689576
 50
84.155176
 51
85.733200
  0
ARC
  8
1
 62
7
  6
CONTINUOUS
 10
43.475748
 20
124.208255
 40
16.294190
 50
81.958468
 51
83.940705
  0
ARC
  8
1
 62
7
  6
CONTINUOUS
 10
41.663719
 20
111.386674
 40
29.243182
 50
80.855930
 51
81.957314
  0
ARC
  8
1
 62
7
  6
CONTINUOUS
 10
22.131295
 20
-9.952358
 40
152.144266
 50
80.644112
 51
80.855438
  0
ARC
  8
1
 62
7
  6
CONTINUOUS
 10
54.508853
 20
186.562269
 40
47.019749
 50
-99.356124
 51
-98.673136
  0
ARC
  8
1
 62
7
  6
CONTINUOUS
 10
50.485133
 20
160.184426
 40
20.336779
 50
-98.673136
 51
-97.094721
  0
ARC
  8
1
 62
7
  6
CONTINUOUS
 10
49.869474
 20
155.237912
 40
15.352098
 50
-97.094721
 51
-95.445918
  0
ARC
  8
1
 62
7
  6
CONTINUOUS
 10
50.880245
 20
165.840056
 40
26.002315
 50
-95.445918
 51
-94.471400
  0
ARC
  8
1
 62
7
  6
CONTINUOUS
 10
50.675481
 20
163.221572
 40
23.375837
 50
-94.471400
 51
-93.386291
  0
ARC
  8
1
 62
7
  6
CONTINUOUS
 10
52.912119
 20
201.021230
 40
61.241609
 50
-93.386291
 51
-92.971840
  0
ARC
  8
1
 62
7
  6
CONTINUOUS
 10
52.227973
 20
187.843011
 40
48.045644
 50
-92.971840
 51
-92.443493
  0
ARC
  8
1
 62
7
  6
CONTINUOUS
 10
227.710080
 20
4300.106742
 40
4164.051835
 50
-92.443493
 51
-92.435070
  0
ARC
  8
1
 62
7
  6
CONTINUOUS
 10
54.327318
 20
222.968160
 40
83.228315
 50
-92.435070
 51
-92.013903
  0
ARC
  8
1
 62
7
  6
CONTINUOUS
 10
61.091180
 20
400.236063
 40
260.624959
 50
-92.130448
 51
-91.996009
  0
ARC
  8
1
 62
7
  6
CONTINUOUS
 10
67.127363
 20
573.435614
 40
433.929662
 50
-91.996009
 51
-91.915286
  0
ARC
  8
1
 62
7
  6
CONTINUOUS
 10
96.135351
 20
1440.886390
 40
1301.865323
 50
-91.915286
 51
-91.888383
  0
ARC
  8
1
 62
7
  6
CONTINUOUS
 10
38.653065
 20
27.707043
 40
113.650237
 50
92.412751
 51
92.732212
  0
ARC
  8
1
 62
7
  6
CONTINUOUS
 10
35.455522
 20
103.602922
 40
37.687031
 50
91.451575
 51
92.413292
  0
ARC
  8
1
 62
7
  6
CONTINUOUS
 10
35.068694
 20
118.881900
 40
22.403158
 50
89.839623
 51
91.452457
  0
ARC
  8
1
 62
7
  6
CONTINUOUS
 10
35.087326
 20
125.459694
 40
15.825337
 50
87.565617
 51
89.840420
  0
ARC
  8
1
 62
7
  6
CONTINUOUS
 10
35.241628
 20
129.089000
 40
12.192752
 50
84.622340
 51
87.565647
  0
ARC
  8
1
 62
7
  6
CONTINUOUS
 10
35.263619
 20
129.552375
 40
11.729376
 50
80.460430
 51
84.517157
  0
ARC
  8
1
 62
7
  6
CONTINUOUS
 10
34.917493
 20
127.495388
 40
13.815280
 50
77.004695
 51
80.458616
  0
ARC
  8
1
 62
7
  6
CONTINUOUS
 10
34.232813
 20
124.528389
 40
16.860255
 50
74.159686
 51
77.004858
  0
ARC
  8
1
 62
7
  6
CONTINUOUS
 10
32.972715
 20
120.085583
 40
21.478303
 50
71.913881
 51
74.160883
  0
ARC
  8
1
 62
7
  6
CONTINUOUS
 10
30.600597
 20
112.819671
 40
29.121628
 50
70.249054
 51
71.915376
  0
ARC
  8
1
 62
7
  6
CONTINUOUS
 10
-94.787461
 20
-235.057430
 40
398.906197
 50
70.118383
 51
70.184040
  0
ARC
  8
1
 62
7
  6
CONTINUOUS
 10
47.705964
 20
158.969244
 40
20.094275
 50
-109.883586
 51
-108.584536
  0
ARC
  8
1
 62
7
  6
CONTINUOUS
 10
44.362422
 20
149.025233
 40
9.603202
 50
-108.584536
 51
-105.887996
  0
ARC
  8
1
 62
7
  6
CONTINUOUS
 10
43.413854
 20
145.692606
 40
6.138207
 50
-105.887996
 51
-101.711937
  0
ARC
  8
1
 62
7
  6
CONTINUOUS
 10
43.076795
 20
144.066716
 40
4.477747
 50
-101.711937
 51
-96.031828
  0
ARC
  8
1
 62
7
  6
CONTINUOUS
 10
43.046113
 20
143.776348
 40
4.185763
 50
-96.031828
 51
-89.712240
  0
ARC
  8
1
 62
7
  6
CONTINUOUS
 10
43.027722
 20
147.438080
 40
7.847540
 50
-89.712240
 51
-86.312834
  0
ARC
  8
1
 62
7
  6
CONTINUOUS
 10
42.898840
 20
149.438042
 40
9.851651
 50
-86.312834
 51
-83.578516
  0
ARC
  8
1
 62
7
  6
CONTINUOUS
 10
38.221821
 20
193.308307
 40
53.970382
 50
-83.853309
 51
-83.351289
  0
ARC
  8
1
 62
7
  6
CONTINUOUS
 10
47.162028
 20
116.613248
 40
23.243991
 50
95.483546
 51
96.649208
  0
ARC
  8
1
 62
7
  6
CONTINUOUS
 10
46.319556
 20
124.878766
 40
14.935872
 50
92.756620
 51
95.296479
  0
ARC
  8
1
 62
7
  6
CONTINUOUS
 10
46.533612
 20
120.418737
 40
19.401034
 50
90.807966
 51
92.754583
  0
ARC
  8
1
 62
7
  6
CONTINUOUS
 10
46.657217
 20
111.620094
 40
28.200545
 50
89.470695
 51
90.806993
  0
ARC
  8
1
 62
7
  6
CONTINUOUS
 10
46.433246
 20
87.412614
 40
52.409061
 50
88.751865
 51
89.470331
  0
ARC
  8
1
 62
7
  6
CONTINUOUS
 10
39.230075
 20
-243.178435
 40
383.078575
 50
88.653510
 51
88.751803
  0
ARC
  8
1
 62
7
  6
CONTINUOUS
 10
52.682727
 20
337.543282
 40
197.799004
 50
-91.289378
 51
-90.999773
  0
ARC
  8
1
 62
7
  6
CONTINUOUS
 10
53.678910
 20
394.627530
 40
254.891944
 50
-90.999773
 51
-90.774881
  0
ARC
  8
1
 62
7
  6
CONTINUOUS
 10
55.064286
 20
497.057898
 40
357.331680
 50
-90.774881
 51
-90.614375
  0
ARC
  8
1
 62
7
  6
CONTINUOUS
 10
57.628111
 20
736.147359
 40
596.434887
 50
-90.614375
 51
-90.518180
  0
ARC
  8
1
 62
7
  6
CONTINUOUS
 10
68.409231
 20
1928.197097
 40
1788.533377
 50
-90.518180
 51
-90.486095
  0
ARC
  8
1
 62
7
  6
CONTINUOUS
 10
39.731655
 20
31.852748
 40
108.538746
 50
93.096510
 51
93.431218
  0
ARC
  8
1
 62
7
  6
CONTINUOUS
 10
35.812304
 20
104.310408
 40
35.975162
 50
92.089196
 51
93.097128
  0
ARC
  8
1
 62
7
  6
CONTINUOUS
 10
35.280163
 20
118.908099
 40
21.367775
 50
90.398926
 51
92.090203
  0
ARC
  8
1
 62
7
  6
CONTINUOUS
 10
35.236618
 20
125.196382
 40
15.079341
 50
88.012844
 51
90.399830
  0
ARC
  8
1
 62
7
  6
CONTINUOUS
 10
35.356946
 20
128.664373
 40
11.609263
 50
84.922842
 51
88.012855
  0
ARC
  8
1
 62
7
  6
CONTINUOUS
 10
35.370630
 20
129.068290
 40
11.205742
 50
80.565377
 51
84.809763
  0
ARC
  8
1
 62
7
  6
CONTINUOUS
 10
35.023016
 20
126.979122
 40
13.323632
 50
76.982552
 51
80.563438
  0
ARC
  8
1
 62
7
  6
CONTINUOUS
 10
34.313275
 20
123.908700
 40
16.475017
 50
74.070455
 51
76.982914
  0
ARC
  8
1
 62
7
  6
CONTINUOUS
 10
32.965859
 20
119.185778
 40
21.386384
 50
71.814123
 51
74.071942
  0
ARC
  8
1
 62
7
  6
CONTINUOUS
 10
30.310502
 20
111.099871
 40
29.897130
 50
70.191973
 51
71.815844
  0
ARC
  8
1
 62
7
  6
CONTINUOUS
 10
-222.406073
 20
-588.151925
 40
773.414928
 50
70.098176
 51
70.132048
  0
ARC
  8
1
 62
7
  6
CONTINUOUS
 10
47.595675
 20
157.643429
 40
19.750663
 50
-109.903872
 51
-108.582148
  0
ARC
  8
1
 62
7
  6
CONTINUOUS
 10
44.346012
 20
147.977288
 40
9.552888
 50
-108.582148
 51
-105.871543
  0
ARC
  8
1
 62
7
  6
CONTINUOUS
 10
43.409925
 20
144.684926
 40
6.130037
 50
-105.871543
 51
-101.690264
  0
ARC
  8
1
 62
7
  6
CONTINUOUS
 10
43.075862
 20
143.070411
 40
4.481324
 50
-101.690264
 51
-96.015001
  0
ARC
  8
1
 62
7
  6
CONTINUOUS
 10
43.045693
 20
142.784100
 40
4.193427
 50
-96.015001
 51
-89.707041
  0
ARC
  8
1
 62
7
  6
CONTINUOUS
 10
43.026954
 20
146.448994
 40
7.858369
 50
-89.707041
 51
-86.312316
  0
ARC
  8
1
 62
7
  6
CONTINUOUS
 10
42.897318
 20
148.460382
 40
9.873931
 50
-86.312316
 51
-83.584180
  0
ARC
  8
1
 62
7
  6
CONTINUOUS
 10
38.208864
 20
192.469301
 40
54.131748
 50
-83.857909
 51
-83.357391
  0
ARC
  8
1
 62
7
  6
CONTINUOUS
 10
47.161855
 20
115.593384
 40
23.263747
 50
95.478446
 51
96.643106
  0
ARC
  8
1
 62
7
  6
CONTINUOUS
 10
46.319844
 20
123.862001
 40
14.952591
 50
92.754637
 51
95.291646
  0
ARC
  8
1
 62
7
  6
CONTINUOUS
 10
46.533952
 20
119.397693
 40
19.422031
 50
90.808093
 51
92.752605
  0
ARC
  8
1
 62
7
  6
CONTINUOUS
 10
46.657675
 20
110.592075
 40
28.228517
 50
89.472149
 51
90.807122
  0
ARC
  8
1
 62
7
  6
CONTINUOUS
 10
46.434218
 20
86.373730
 40
52.447894
 50
88.753851
 51
89.471785
  0
ARC
  8
1
 62
7
  6
CONTINUOUS
 10
39.265341
 20
-243.167852
 40
382.067443
 50
88.655236
 51
88.753789
  0
ARC
  8
1
 62
7
  6
CONTINUOUS
 10
52.690862
 20
337.157633
 40
198.413382
 50
-91.287734
 51
-90.999027
  0
ARC
  8
1
 62
7
  6
CONTINUOUS
 10
53.689400
 20
394.419535
 40
255.683990
 50
-90.999027
 51
-90.774831
  0
ARC
  8
1
 62
7
  6
CONTINUOUS
 10
55.078993
 20
497.168313
 40
358.442164
 50
-90.774831
 51
-90.614823
  0
ARC
  8
1
 62
7
  6
CONTINUOUS
 10
57.652663
 20
737.001180
 40
598.288840
 50
-90.614823
 51
-90.518925
  0
ARC
  8
1
 62
7
  6
CONTINUOUS
 10
68.482842
 20
1932.754521
 40
1794.091225
 50
-90.518925
 51
-90.486940
  0
ARC
  8
1
 62
7
  6
CONTINUOUS
 10
41.130308
 20
-537.645559
 40
673.919889
 50
90.617688
 51
90.671214
  0
ARC
  8
1
 62
7
  6
CONTINUOUS
 10
36.287302
 20
-88.434811
 40
224.683036
 50
90.457127
 51
90.617685
  0
ARC
  8
1
 62
7
  6
CONTINUOUS
 10
35.570696
 20
1.379612
 40
134.865754
 50
90.189596
 51
90.457119
  0
ARC
  8
1
 62
7
  6
CONTINUOUS
 10
35.443386
 20
39.844962
 40
96.400193
 50
89.815225
 51
90.189582
  0
ARC
  8
1
 62
7
  6
CONTINUOUS
 10
35.512179
 20
61.186086
 40
75.058958
 50
89.334231
 51
89.815201
  0
ARC
  8
1
 62
7
  6
CONTINUOUS
 10
34.996206
 20
25.659242
 40
110.589447
 50
88.859952
 51
89.280800
  0
ARC
  8
1
 62
7
  6
CONTINUOUS
 10
45.368844
 20
546.905138
 40
410.759645
 50
-91.140011
 51
-91.026694
  0
ARC
  8
1
 62
7
  6
CONTINUOUS
 10
39.295539
 20
208.014166
 40
71.814257
 50
-91.026694
 51
-90.378902
  0
ARC
  8
1
 62
7
  6
CONTINUOUS
 10
39.080034
 20
175.426991
 40
39.226369
 50
-90.378902
 51
-89.194107
  0
ARC
  8
1
 62
7
  6
CONTINUOUS
 10
39.252949
 20
163.134260
 40
26.932422
 50
-89.194107
 51
-87.470166
  0
ARC
  8
1
 62
7
  6
CONTINUOUS
 10
39.323587
 20
161.535481
 40
25.332083
 50
-87.470166
 51
-86.491289
  0
ARC
  8
1
 62
7
  6
CONTINUOUS
 10
24.660550
 20
400.677325
 40
264.923039
 50
-86.491289
 51
-86.397647
  0
ARC
  8
1
 62
7
  6
CONTINUOUS
 10
47.539975
 20
39.650351
 40
96.828265
 50
93.434899
 51
93.691320
  0
ARC
  8
1
 62
7
  6
CONTINUOUS
 10
43.641445
 20
104.599744
 40
31.761974
 50
92.651988
 51
93.434676
  0
ARC
  8
1
 62
7
  6
CONTINUOUS
 10
43.054690
 20
117.264228
 40
19.083905
 50
91.346423
 51
92.651542
  0
ARC
  8
1
 62
7
  6
CONTINUOUS
 10
43.142603
 20
110.678538
 40
25.669929
 50
90.148692
 51
91.197194
  0
ARC
  8
1
 62
7
  6
CONTINUOUS
 10
42.753723
 20
260.150572
 40
123.802610
 50
-89.850857
 51
-89.633374
  0
ARC
  8
1
 62
7
  6
CONTINUOUS
 10
43.430375
 20
154.405664
 40
18.055537
 50
-89.633374
 51
-88.146289
  0
ARC
  8
1
 62
7
  6
CONTINUOUS
 10
43.704294
 20
145.942145
 40
9.587587
 50
-88.146289
 51
-85.359625
  0
ARC
  8
1
 62
7
  6
CONTINUOUS
 10
43.956501
 20
142.834892
 40
6.470116
 50
-85.359625
 51
-81.249305
  0
ARC
  8
1
 62
7
  6
CONTINUOUS
 10
44.016292
 20
142.446454
 40
6.077103
 50
-81.249305
 51
-74.819785
  0
ARC
  8
1
 62
7
  6
CONTINUOUS
 10
41.883422
 20
150.307449
 40
14.222309
 50
-74.819785
 51
-72.054288
  0
ARC
  8
1
 62
7
  6
CONTINUOUS
 10
38.983034
 20
159.262788
 40
23.635615
 50
-72.054288
 51
-70.380616
  0
ARC
  8
1
 62
7
  6
CONTINUOUS
 10
57.406559
 20
107.069495
 40
31.714071
 50
108.063241
 51
109.310396
  0
ARC
  8
1
 62
7
  6
CONTINUOUS
 10
50.969089
 20
126.811570
 40
10.948944
 50
104.477490
 51
108.069303
  0
ARC
  8
1
 62
7
  6
CONTINUOUS
 10
50.436213
 20
128.679669
 40
9.007079
 50
97.834104
 51
104.166229
  0
ARC
  8
1
 62
7
  6
CONTINUOUS
 10
50.795099
 20
126.058343
 40
11.652858
 50
92.921344
 51
97.825433
  0
ARC
  8
1
 62
7
  6
CONTINUOUS
 10
51.052762
 20
121.017391
 40
16.700391
 50
89.474352
 51
92.922768
  0
ARC
  8
1
 62
7
  6
CONTINUOUS
 10
50.946586
 20
109.203267
 40
28.514991
 50
87.442926
 51
89.478800
  0
ARC
  8
1
 62
7
  6
CONTINUOUS
 10
48.351088
 20
50.977987
 40
86.798092
 50
86.774021
 51
87.446082
  0
ARC
  8
1
 62
7
  6
CONTINUOUS
 10
41.084098
 20
-526.521053
 40
661.795681
 50
90.625006
 51
90.679511
  0
ARC
  8
1
 62
7
  6
CONTINUOUS
 10
36.271949
 20
-85.399124
 40
220.647505
 50
90.461513
 51
90.625002
  0
ARC
  8
1
 62
7
  6
CONTINUOUS
 10
35.561524
 20
2.793957
 40
132.451563
 50
90.189108
 51
90.461504
  0
ARC
  8
1
 62
7
  6
CONTINUOUS
 10
35.436842
 20
40.561763
 40
94.683551
 50
89.807939
 51
90.189091
  0
ARC
  8
1
 62
7
  6
CONTINUOUS
 10
35.507039
 20
61.513125
 40
73.732071
 50
89.318255
 51
89.807912
  0
ARC
  8
1
 62
7
  6
CONTINUOUS
 10
34.985430
 20
26.385580
 40
108.863385
 50
88.836153
 51
89.263724
  0
ARC
  8
1
 62
7
  6
CONTINUOUS
 10
45.219969
 20
530.173288
 40
395.028270
 50
-91.163805
 51
-91.045962
  0
ARC
  8
1
 62
7
  6
CONTINUOUS
 10
39.288691
 20
205.305325
 40
70.106167
 50
-91.045962
 51
-90.382343
  0
ARC
  8
1
 62
7
  6
CONTINUOUS
 10
39.076679
 20
173.534855
 40
38.334989
 50
-90.382343
 51
-89.170065
  0
ARC
  8
1
 62
7
  6
CONTINUOUS
 10
39.250675
 20
161.523634
 40
26.322508
 50
-89.170065
 51
-87.406555
  0
ARC
  8
1
 62
7
  6
CONTINUOUS
 10
39.314934
 20
160.104958
 40
24.902377
 50
-87.406555
 51
-86.411104
  0
ARC
  8
1
 62
7
  6
CONTINUOUS
 10
17.188660
 20
512.883007
 40
378.373626
 50
-86.411104
 51
-86.345558
  0
ARC
  8
1
 62
7
  6
CONTINUOUS
 10
46.581389
 20
54.722453
 40
80.728874
 50
93.439442
 51
93.746960
  0
ARC
  8
1
 62
7
  6
CONTINUOUS
 10
43.465876
 20
106.557205
 40
28.800578
 50
92.575834
 51
93.439141
  0
ARC
  8
1
 62
7
  6
CONTINUOUS
 10
42.963517
 20
117.719834
 40
17.626650
 50
91.161322
 51
92.575234
  0
ARC
  8
1
 62
7
  6
CONTINUOUS
 10
43.026875
 20
111.234802
 40
24.111730
 50
89.881892
 51
90.999522
  0
ARC
  8
1
 62
7
  6
CONTINUOUS
 10
43.281073
 20
235.033608
 40
99.687337
 50
-90.117534
 51
-89.847089
  0
ARC
  8
1
 62
7
  6
CONTINUOUS
 10
43.504020
 20
151.495197
 40
16.148628
 50
-89.847089
 51
-88.183324
  0
ARC
  8
1
 62
7
  6
CONTINUOUS
 10
43.742700
 20
143.970061
 40
8.619708
 50
-88.183324
 51
-85.085289
  0
ARC
  8
1
 62
7
  6
CONTINUOUS
 10
43.982842
 20
141.177348
 40
5.816689
 50
-85.085289
 51
-80.520351
  0
ARC
  8
1
 62
7
  6
CONTINUOUS
 10
44.039600
 20
140.837432
 40
5.472067
 50
-80.520351
 51
-73.328076
  0
ARC
  8
1
 62
7
  6
CONTINUOUS
 10
41.892930
 20
148.005418
 40
12.954595
 50
-73.328076
 51
-70.264968
  0
ARC
  8
1
 62
7
  6
CONTINUOUS
 10
38.945325
 20
156.221925
 40
21.683820
 50
-70.264968
 51
-68.422014
  0
ARC
  8
1
 62
7
  6
CONTINUOUS
 10
57.102055
 20
109.850026
 40
28.116202
 50
109.811104
 51
111.231961
  0
ARC
  8
1
 62
7
  6
CONTINUOUS
 10
50.891413
 20
127.094575
 40
9.787358
 50
105.767465
 51
109.819658
  0
ARC
  8
1
 62
7
  6
CONTINUOUS
 10
50.365970
 20
128.775570
 40
8.026982
 50
98.326593
 51
105.418499
  0
ARC
  8
1
 62
7
  6
CONTINUOUS
 10
50.708200
 20
126.422137
 40
10.405167
 50
92.829298
 51
98.314530
  0
ARC
  8
1
 62
7
  6
CONTINUOUS
 10
50.935759
 20
121.828904
 40
15.004034
 50
88.990190
 51
92.831428
  0
ARC
  8
1
 62
7
  6
CONTINUOUS
 10
50.748738
 20
111.058986
 40
25.775576
 50
86.737902
 51
88.996442
  0
ARC
  8
1
 62
7
  6
CONTINUOUS
 10
47.740737
 20
58.177724
 40
78.742319
 50
85.998498
 51
86.742272
  0
ARC
  8
1
 62
7
  6
CONTINUOUS
 10
42.214848
 20
-142.892515
 40
276.766300
 50
91.728882
 51
91.859202
  0
ARC
  8
1
 62
7
  6
CONTINUOUS
 10
36.648852
 20
41.510002
 40
92.279799
 50
91.337979
 51
91.728869
  0
ARC
  8
1
 62
7
  6
CONTINUOUS
 10
35.787844
 20
78.372310
 40
55.407437
 50
90.686765
 51
91.337940
  0
ARC
  8
1
 62
7
  6
CONTINUOUS
 10
35.598761
 20
94.141050
 40
39.637564
 50
89.775956
 51
90.686671
  0
ARC
  8
1
 62
7
  6
CONTINUOUS
 10
35.632750
 20
102.859441
 40
30.919107
 50
88.607113
 51
89.775766
  0
ARC
  8
1
 62
7
  6
CONTINUOUS
 10
35.235352
 20
90.055013
 40
43.729496
 50
87.526683
 51
88.494394
  0
ARC
  8
1
 62
7
  6
CONTINUOUS
 10
51.773671
 20
472.977025
 40
339.549493
 50
-92.473022
 51
-92.348349
  0
ARC
  8
1
 62
7
  6
CONTINUOUS
 10
39.282288
 20
168.378950
 40
34.695394
 50
-92.348349
 51
-91.130094
  0
ARC
  8
1
 62
7
  6
CONTINUOUS
 10
38.955422
 20
151.809025
 40
18.122245
 50
-91.130094
 51
-88.804088
  0
ARC
  8
1
 62
7
  6
CONTINUOUS
 10
39.078691
 20
145.904129
 40
12.216062
 50
-88.804088
 51
-85.360943
  0
ARC
  8
1
 62
7
  6
CONTINUOUS
 10
39.231739
 20
144.018000
 40
10.323733
 50
-85.360943
 51
-82.753991
  0
ARC
  8
1
 62
7
  6
CONTINUOUS
 10
38.540624
 20
149.453631
 40
15.803125
 50
-82.753991
 51
-81.047996
  0
ARC
  8
1
 62
7
  6
CONTINUOUS
 10
38.676488
 20
148.591148
 40
14.930007
 50
-81.047996
 51
-79.238288
  0
ARC
  8
1
 62
7
  6
CONTINUOUS
 10
35.946471
 20
162.954539
 40
29.550539
 50
-79.238288
 51
-78.322206
  0
ARC
  8
1
 62
7
  6
CONTINUOUS
 10
36.599333
 20
159.795824
 40
26.325061
 50
-78.322206
 51
-77.292614
  0
ARC
  8
1
 62
7
  6
CONTINUOUS
 10
30.660929
 20
186.130769
 40
53.321246
 50
-77.292614
 51
-76.659059
  0
ARC
  8
1
 62
7
  6
CONTINUOUS
 10
39.316052
 20
149.633531
 40
15.811786
 50
-76.659059
 51
-74.525078
  0
ARC
  8
1
 62
7
  6
CONTINUOUS
 10
38.933251
 20
151.016215
 40
17.246482
 50
-74.525078
 51
-72.572339
  0
ARC
  8
1
 62
7
  6
CONTINUOUS
 10
41.191667
 20
143.821773
 40
9.705896
 50
-72.572339
 51
-69.106729
  0
ARC
  8
1
 62
7
  6
CONTINUOUS
 10
40.990352
 20
144.349153
 40
10.270394
 50
-69.106729
 51
-65.828731
  0
ARC
  8
1
 62
7
  6
CONTINUOUS
 10
41.537312
 20
143.130478
 40
8.934604
 50
-65.828731
 51
-61.860926
  0
ARC
  8
1
 62
7
  6
CONTINUOUS
 10
25.188442
 20
174.449269
 40
44.263444
 50
-62.318949
 51
-61.515784
  0
ARC
  8
1
 62
7
  6
CONTINUOUS
 10
58.051937
 20
113.884249
 40
24.643239
 50
117.047426
 51
118.486201
  0
ARC
  8
1
 62
7
  6
CONTINUOUS
 10
51.127104
 20
127.449685
 40
9.412535
 50
113.315898
 51
117.054214
  0
ARC
  8
1
 62
7
  6
CONTINUOUS
 10
49.668102
 20
130.835053
 40
5.726154
 50
107.215670
 51
113.316643
  0
ARC
  8
1
 62
7
  6
CONTINUOUS
 10
49.524108
 20
131.211072
 40
5.324428
 50
102.179599
 51
106.933175
  0
ARC
  8
1
 62
7
  6
CONTINUOUS
 10
49.838131
 20
129.756287
 40
6.812719
 50
98.441987
 51
102.179838
  0
ARC
  8
1
 62
7
  6
CONTINUOUS
 10
50.208393
 20
127.264830
 40
9.331539
 50
95.697043
 51
98.444963
  0
ARC
  8
1
 62
7
  6
CONTINUOUS
 10
50.705491
 20
122.289945
 40
14.331197
 50
93.902117
 51
95.700215
  0
ARC
  8
1
 62
7
  6
CONTINUOUS
 10
51.726650
 20
107.332925
 40
29.323035
 50
93.024281
 51
93.903942
  0
ARC
  8
1
 62
7
  6
CONTINUOUS
 10
53.777466
 20
69.983408
 40
66.728779
 50
92.562157
 51
93.090767
  0
ARC
  8
1
 62
7
  6
CONTINUOUS
 10
54.579286
 20
52.056239
 40
84.673870
 50
92.147138
 51
92.561897
  0
ARC
  8
1
 62
7
  6
CONTINUOUS
 10
55.804701
 20
19.361087
 40
117.391978
 50
91.848754
 51
92.146944
  0
ARC
  8
1
 62
7
  6
CONTINUOUS
 10
58.288429
 20
-57.600360
 40
194.393492
 50
91.668939
 51
91.848625
  0
ARC
  8
1
 62
7
  6
CONTINUOUS
 10
69.556421
 20
-444.351054
 40
581.308299
 50
91.608850
 51
91.668874
  0
ARC
  8
1
 62
7
  6
CONTINUOUS
 10
41.908867
 20
-120.941450
 40
253.817769
 50
91.816216
 51
91.958253
  0
ARC
  8
1
 62
7
  6
CONTINUOUS
 10
36.547471
 20
48.135391
 40
84.655945
 50
91.390242
 51
91.816186
  0
ARC
  8
1
 62
7
  6
CONTINUOUS
 10
35.727566
 20
81.916523
 40
50.864864
 50
90.680920
 51
91.390165
  0
ARC
  8
1
 62
7
  6
CONTINUOUS
 10
35.555903
 20
96.351777
 40
36.428590
 50
89.689569
 51
90.680760
  0
ARC
  8
1
 62
7
  6
CONTINUOUS
 10
35.598915
 20
104.317442
 40
28.462808
 50
88.418747
 51
89.689274
  0
ARC
  8
1
 62
7
  6
CONTINUOUS
 10
35.166549
 20
91.883821
 40
40.903723
 50
87.257855
 51
88.293939
  0
ARC
  8
1
 62
7
  6
CONTINUOUS
 10
48.460073
 20
369.470287
 40
237.000873
 50
-92.741718
 51
-92.562826
  0
ARC
  8
1
 62
7
  6
CONTINUOUS
 10
39.217220
 20
162.970377
 40
30.294212
 50
-92.562826
 51
-91.166498
  0
ARC
  8
1
 62
7
  6
CONTINUOUS
 10
38.925622
 20
148.649711
 40
15.970578
 50
-91.166498
 51
-88.528797
  0
ARC
  8
1
 62
7
  6
CONTINUOUS
 10
39.059210
 20
143.448296
 40
10.767448
 50
-88.528797
 51
-84.631052
  0
ARC
  8
1
 62
7
  6
CONTINUOUS
 10
39.183611
 20
142.124610
 40
9.437929
 50
-84.631052
 51
-81.787729
  0
ARC
  8
1
 62
7
  6
CONTINUOUS
 10
37.754696
 20
152.025569
 40
19.441468
 50
-81.787729
 51
-80.404127
  0
ARC
  8
1
 62
7
  6
CONTINUOUS
 10
37.482615
 20
153.634916
 40
21.073652
 50
-80.404127
 51
-79.123155
  0
ARC
  8
1
 62
7
  6
CONTINUOUS
 10
12.302254
 20
287.140542
 40
156.933042
 50
-79.292679
 51
-79.120035
  0
ARC
  8
1
 62
7
  6
CONTINUOUS
 10
50.623282
 20
87.764124
 40
46.092714
 50
100.289507
 51
100.879328
  0
ARC
  8
1
 62
7
  6
CONTINUOUS
 10
56.559955
 20
53.547528
 40
80.819904
 50
99.684021
 51
100.097642
  0
ARC
  8
1
 62
7
  6
CONTINUOUS
 10
37.996681
 20
162.332314
 40
29.537357
 50
-80.316795
 51
-79.186127
  0
ARC
  8
1
 62
7
  6
CONTINUOUS
 10
41.227441
 20
145.418332
 40
12.317583
 50
-79.186127
 51
-76.489063
  0
ARC
  8
1
 62
7
  6
CONTINUOUS
 10
42.324316
 20
140.853355
 40
7.622676
 50
-76.489063
 51
-72.160704
  0
ARC
  8
1
 62
7
  6
CONTINUOUS
 10
42.963438
 20
138.867404
 40
5.536417
 50
-72.160704
 51
-59.683609
  0
ARC
  8
1
 62
7
  6
CONTINUOUS
 10
32.179807
 20
157.309263
 40
26.899676
 50
-59.683609
 51
-58.325727
  0
ARC
  8
1
 62
7
  6
CONTINUOUS
 10
-1366.114135
 20
2423.615621
 40
2689.862398
 50
-58.325727
 51
-58.312134
  0
ARC
  8
1
 62
7
  6
CONTINUOUS
 10
51.296194
 20
127.415402
 40
8.579550
 50
117.010934
 51
121.232482
  0
ARC
  8
1
 62
7
  6
CONTINUOUS
 10
49.513952
 20
130.913059
 40
4.653994
 50
109.331365
 51
117.019098
  0
ARC
  8
1
 62
7
  6
CONTINUOUS
 10
49.345059
 20
131.303094
 40
4.230149
 50
102.960588
 51
108.921537
  0
ARC
  8
1
 62
7
  6
CONTINUOUS
 10
49.641052
 20
130.016740
 40
5.550117
 50
98.378579
 51
102.960056
  0
ARC
  8
1
 62
7
  6
CONTINUOUS
 10
49.986870
 20
127.673873
 40
7.918369
 50
95.139967
 51
98.383935
  0
ARC
  8
1
 62
7
  6
CONTINUOUS
 10
50.450426
 20
122.534790
 40
13.078317
 50
93.167173
 51
95.145602
  0
ARC
  8
1
 62
7
  6
CONTINUOUS
 10
51.598494
 20
101.817048
 40
33.827844
 50
92.403966
 51
93.170002
  0
ARC
  8
1
 62
7
  6
CONTINUOUS
 10
57.614106
 20
-34.646280
 40
170.423639
 50
92.292652
 51
92.500249
  0
ARC
  8
1
 62
7
  6
CONTINUOUS
 10
59.395726
 20
-79.160560
 40
214.973558
 50
92.128976
 51
92.292508
  0
ARC
  8
1
 62
7
  6
CONTINUOUS
 10
62.430020
 20
-160.798470
 40
296.667837
 50
92.010932
 51
92.128865
  0
ARC
  8
1
 62
7
  6
CONTINUOUS
 10
69.203508
 20
-353.728806
 40
489.717040
 50
91.939642
 51
92.010857
  0
ARC
  8
1
 62
7
  6
CONTINUOUS
 10
102.114315
 20
-1325.550318
 40
1462.095656
 50
91.915789
 51
91.939604
  0
ARC
  8
1
 62
7
  6
CONTINUOUS
 10
39.531954
 20
291.139051
 40
160.034873
 50
-92.254813
 51
-91.990610
  0
ARC
  8
1
 62
7
  6
CONTINUOUS
 10
35.821048
 20
184.370938
 40
53.202291
 50
-91.990610
 51
-91.196779
  0
ARC
  8
1
 62
7
  6
CONTINUOUS
 10
35.372221
 20
162.886476
 40
31.713141
 50
-91.196779
 51
-89.867723
  0
ARC
  8
1
 62
7
  6
CONTINUOUS
 10
35.393515
 20
153.662902
 40
22.489543
 50
-89.867723
 51
-87.998049
  0
ARC
  8
1
 62
7
  6
CONTINUOUS
 10
35.572006
 20
148.556593
 40
17.380115
 50
-87.998049
 51
-85.583482
  0
ARC
  8
1
 62
7
  6
CONTINUOUS
 10
35.666493
 20
147.333231
 40
16.153110
 50
-85.583482
 51
-82.885122
  0
ARC
  8
1
 62
7
  6
CONTINUOUS
 10
34.630107
 20
155.636256
 40
24.520566
 50
-82.885122
 51
-81.104853
  0
ARC
  8
1
 62
7
  6
CONTINUOUS
 10
34.156268
 20
158.663805
 40
27.584970
 50
-81.104853
 51
-79.518071
  0
ARC
  8
1
 62
7
  6
CONTINUOUS
 10
27.305099
 20
195.694586
 40
65.244195
 50
-79.518071
 51
-78.845189
  0
ARC
  8
1
 62
7
  6
CONTINUOUS
 10
22.539890
 20
219.860665
 40
89.875610
 50
-78.845189
 51
-78.355388
  0
ARC
  8
1
 62
7
  6
CONTINUOUS
 10
-41.239318
 20
529.345156
 40
405.863644
 50
-78.355388
 51
-78.237306
  0
ARC
  8
1
 62
7
  6
CONTINUOUS
 10
36.758050
 20
154.774615
 40
23.258521
 50
-78.237306
 51
-76.179257
  0
ARC
  8
1
 62
7
  6
CONTINUOUS
 10
37.230672
 20
152.853446
 40
21.280072
 50
-76.179257
 51
-73.938483
  0
ARC
  8
1
 62
7
  6
CONTINUOUS
 10
40.011731
 20
143.193895
 40
11.228147
 50
-73.938483
 51
-69.709376
  0
ARC
  8
1
 62
7
  6
CONTINUOUS
 10
40.351717
 20
142.274332
 40
10.247746
 50
-69.709376
 51
-60.725091
  0
ARC
  8
1
 62
7
  6
CONTINUOUS
 10
31.201838
 20
158.595968
 40
28.959135
 50
-60.725091
 51
-59.175314
  0
ARC
  8
1
 62
7
  6
CONTINUOUS
 10
106.507514
 20
32.817211
 40
117.639816
 50
120.548955
 51
120.930510
  0
ARC
  8
1
 62
7
  6
CONTINUOUS
 10
55.598887
 20
119.077493
 40
17.477325
 50
118.001355
 51
120.554285
  0
ARC
  8
1
 62
7
  6
CONTINUOUS
 10
51.713948
 20
126.385819
 40
9.200588
 50
113.202936
 51
118.007889
  0
ARC
  8
1
 62
7
  6
CONTINUOUS
 10
51.272279
 20
127.298057
 40
8.188256
 50
105.673280
 51
112.877328
  0
ARC
  8
1
 62
7
  6
CONTINUOUS
 10
51.961798
 20
124.834282
 40
10.746697
 50
100.138109
 51
105.664161
  0
ARC
  8
1
 62
7
  6
CONTINUOUS
 10
52.825286
 20
120.012678
 40
15.645010
 50
96.297578
 51
100.142866
  0
ARC
  8
1
 62
7
  6
CONTINUOUS
 10
54.079530
 20
108.681524
 40
27.045368
 50
94.053982
 51
96.305491
  0
ARC
  8
1
 62
7
  6
CONTINUOUS
 10
58.033838
 20
52.992617
 40
82.874490
 50
93.319159
 51
94.059108
  0
ARC
  8
1
 62
7
  6
CONTINUOUS
 10
39.543958
 20
277.812460
 40
147.719135
 50
-92.447572
 51
-92.161060
  0
ARC
  8
1
 62
7
  6
CONTINUOUS
 10
35.824301
 20
179.240682
 40
49.077200
 50
-92.161060
 51
-91.299887
  0
ARC
  8
1
 62
7
  6
CONTINUOUS
 10
35.373567
 20
159.376830
 40
29.208235
 50
-91.299887
 51
-89.856522
  0
ARC
  8
1
 62
7
  6
CONTINUOUS
 10
35.394936
 20
150.843189
 40
20.674567
 50
-89.856522
 51
-87.823515
  0
ARC
  8
1
 62
7
  6
CONTINUOUS
 10
35.574492
 20
146.118685
 40
15.946652
 50
-87.823515
 51
-85.194541
  0
ARC
  8
1
 62
7
  6
CONTINUOUS
 10
35.642278
 20
145.312363
 40
15.137486
 50
-85.194541
 51
-82.318920
  0
ARC
  8
1
 62
7
  6
CONTINUOUS
 10
34.054190
 20
157.087399
 40
27.019132
 50
-82.318920
 51
-80.704916
  0
ARC
  8
1
 62
7
  6
CONTINUOUS
 10
32.869519
 20
164.325643
 40
34.353681
 50
-80.704916
 51
-79.431288
  0
ARC
  8
1
 62
7
  6
CONTINUOUS
 10
-344.042270
 20
2184.436313
 40
2089.325607
 50
-79.431288
 51
-79.410269
  0
ARC
  8
1
 62
7
  6
CONTINUOUS
 10
55.313671
 20
49.282019
 40
82.855260
 50
100.172482
 51
100.704428
  0
ARC
  8
1
 62
7
  6
CONTINUOUS
 10
70.614444
 20
-39.124082
 40
172.574853
 50
99.713454
 51
99.988774
  0
ARC
  8
1
 62
7
  6
CONTINUOUS
 10
34.547559
 20
171.581836
 40
41.195594
 50
-80.287453
 51
-79.135296
  0
ARC
  8
1
 62
7
  6
CONTINUOUS
 10
38.891274
 20
148.950169
 40
18.150850
 50
-79.135296
 51
-76.534077
  0
ARC
  8
1
 62
7
  6
CONTINUOUS
 10
40.463015
 20
142.386199
 40
11.401326
 50
-76.534077
 51
-72.421994
  0
ARC
  8
1
 62
7
  6
CONTINUOUS
 10
41.416103
 20
139.377679
 40
8.245448
 50
-72.421994
 51
-61.366018
  0
ARC
  8
1
 62
7
  6
CONTINUOUS
 10
34.336049
 20
152.345111
 40
23.019799
 50
-61.366018
 51
-59.420249
  0
ARC
  8
1
 62
7
  6
CONTINUOUS
 10
14.399484
 20
186.083209
 40
62.208138
 50
-59.420249
 51
-58.697858
  0
ARC
  8
1
 62
7
  6
CONTINUOUS
 10
57.771010
 20
114.568024
 40
21.431199
 50
118.951852
 51
121.041615
  0
ARC
  8
1
 62
7
  6
CONTINUOUS
 10
52.234383
 20
124.578798
 40
9.991363
 50
114.512702
 51
118.959095
  0
ARC
  8
1
 62
7
  6
CONTINUOUS
 10
51.630783
 20
125.783830
 40
8.644651
 50
107.297553
 51
114.186376
  0
ARC
  8
1
 62
7
  6
CONTINUOUS
 10
52.411503
 20
123.270753
 40
11.276205
 50
101.982335
 51
107.288337
  0
ARC
  8
1
 62
7
  6
CONTINUOUS
 10
53.457755
 20
118.345532
 40
16.311327
 50
98.277649
 51
101.985605
  0
ARC
  8
1
 62
7
  6
CONTINUOUS
 10
55.152163
 20
106.721023
 40
28.058675
 50
96.105879
 51
98.284129
  0
ARC
  8
1
 62
7
  6
CONTINUOUS
 10
61.295495
 20
49.353169
 40
85.754526
 50
95.393087
 51
96.110213
  0
ARC
  8
1
 62
7
  6
CONTINUOUS
 10
-41.798277
 20
1609.173716
 40
1482.345891
 50
-87.098544
 51
-87.063695
  0
ARC
  8
1
 62
7
  6
CONTINUOUS
 10
8.802612
 20
622.668916
 40
494.544205
 50
-87.063695
 51
-86.959201
  0
ARC
  8
1
 62
7
  6
CONTINUOUS
 10
19.259367
 20
425.824177
 40
297.421921
 50
-86.959201
 51
-86.785320
  0
ARC
  8
1
 62
7
  6
CONTINUOUS
 10
23.984962
 20
341.687488
 40
213.152629
 50
-86.785320
 51
-86.542422
  0
ARC
  8
1
 62
7
  6
CONTINUOUS
 10
26.795291
 20
295.173854
 40
166.554173
 50
-86.542422
 51
-86.231091
  0
ARC
  8
1
 62
7
  6
CONTINUOUS
 10
32.389127
 20
210.257841
 40
81.454112
 50
-86.231091
 51
-85.801116
  0
ARC
  8
1
 62
7
  6
CONTINUOUS
 10
36.128789
 20
159.319740
 40
30.378920
 50
-85.801116
 51
-84.648687
  0
ARC
  8
1
 62
7
  6
CONTINUOUS
 10
36.866306
 20
151.446219
 40
22.470933
 50
-84.648687
 51
-83.093348
  0
ARC
  8
1
 62
7
  6
CONTINUOUS
 10
37.739509
 20
144.237481
 40
15.209502
 50
-83.093348
 51
-80.800737
  0
ARC
  8
1
 62
7
  6
CONTINUOUS
 10
38.116984
 20
141.906689
 40
12.848341
 50
-80.800737
 51
-78.092049
  0
ARC
  8
1
 62
7
  6
CONTINUOUS
 10
38.432194
 20
140.411939
 40
11.320717
 50
-78.092049
 51
-72.912714
  0
ARC
  8
1
 62
7
  6
CONTINUOUS
 10
37.514474
 20
143.397390
 40
14.444037
 50
-72.912714
 51
-68.840949
  0
ARC
  8
1
 62
7
  6
CONTINUOUS
 10
37.467685
 20
143.518276
 40
14.573662
 50
-68.840949
 51
-64.786188
  0
ARC
  8
1
 62
7
  6
CONTINUOUS
 10
35.216699
 20
148.298874
 40
19.857700
 50
-64.786188
 51
-61.797754
  0
ARC
  8
1
 62
7
  6
CONTINUOUS
 10
35.345668
 20
148.058370
 40
19.584798
 50
-61.797754
 51
-58.760774
  0
ARC
  8
1
 62
7
  6
CONTINUOUS
 10
26.261618
 20
163.034769
 40
37.100862
 50
-58.760774
 51
-57.269449
  0
ARC
  8
1
 62
7
  6
CONTINUOUS
 10
-326.373634
 20
711.676906
 40
689.297011
 50
-57.269449
 51
-57.189411
  0
ARC
  8
1
 62
7
  6
CONTINUOUS
 10
65.665814
 20
103.554454
 40
34.241417
 50
121.169392
 51
122.771471
  0
ARC
  8
1
 62
7
  6
CONTINUOUS
 10
56.640698
 20
118.476638
 40
16.802257
 50
117.931795
 51
121.172856
  0
ARC
  8
1
 62
7
  6
CONTINUOUS
 10
53.944966
 20
123.560710
 40
11.047715
 50
113.027839
 51
117.930690
  0
ARC
  8
1
 62
7
  6
CONTINUOUS
 10
53.720485
 20
123.987252
 40
10.567425
 50
108.786075
 51
112.812376
  0
ARC
  8
1
 62
7
  6
CONTINUOUS
 10
54.764562
 20
120.917773
 40
13.809616
 50
105.688324
 51
108.785971
  0
ARC
  8
1
 62
7
  6
CONTINUOUS
 10
56.362533
 20
115.230773
 40
19.716855
 50
103.506457
 51
105.690219
  0
ARC
  8
1
 62
7
  6
CONTINUOUS
 10
59.561400
 20
101.918437
 40
33.408131
 50
102.212681
 51
103.508578
  0
ARC
  8
1
 62
7
  6
CONTINUOUS
 10
73.894838
 20
35.705439
 40
101.154780
 50
101.784668
 51
102.213977
  0
ARC
  8
1
 62
7
  6
CONTINUOUS
 10
-41.798277
 20
1608.173716
 40
1482.345891
 50
-87.098544
 51
-87.063695
  0
ARC
  8
1
 62
7
  6
CONTINUOUS
 10
8.802612
 20
621.668916
 40
494.544205
 50
-87.063695
 51
-86.959201
  0
ARC
  8
1
 62
7
  6
CONTINUOUS
 10
19.259367
 20
424.824177
 40
297.421921
 50
-86.959201
 51
-86.785320
  0
ARC
  8
1
 62
7
  6
CONTINUOUS
 10
23.984962
 20
340.687488
 40
213.152629
 50
-86.785320
 51
-86.542422
  0
ARC
  8
1
 62
7
  6
CONTINUOUS
 10
26.795291
 20
294.173854
 40
166.554172
 50
-86.542422
 51
-86.231091
  0
ARC
  8
1
 62
7
  6
CONTINUOUS
 10
32.389127
 20
209.257841
 40
81.454112
 50
-86.231091
 51
-85.801116
  0
ARC
  8
1
 62
7
  6
CONTINUOUS
 10
36.128789
 20
158.319740
 40
30.378920
 50
-85.801116
 51
-84.648687
  0
ARC
  8
1
 62
7
  6
CONTINUOUS
 10
36.866306
 20
150.446219
 40
22.470933
 50
-84.648687
 51
-83.093348
  0
ARC
  8
1
 62
7
  6
CONTINUOUS
 10
37.739509
 20
143.237481
 40
15.209502
 50
-83.093348
 51
-80.800737
  0
ARC
  8
1
 62
7
  6
CONTINUOUS
 10
38.116984
 20
140.906689
 40
12.848341
 50
-80.800737
 51
-78.092049
  0
ARC
  8
1
 62
7
  6
CONTINUOUS
 10
38.432194
 20
139.411939
 40
11.320717
 50
-78.092049
 51
-72.912714
  0
ARC
  8
1
 62
7
  6
CONTINUOUS
 10
37.514474
 20
142.397390
 40
14.444037
 50
-72.912714
 51
-68.840949
  0
ARC
  8
1
 62
7
  6
CONTINUOUS
 10
37.467685
 20
142.518276
 40
14.573662
 50
-68.840949
 51
-64.786188
  0
ARC
  8
1
 62
7
  6
CONTINUOUS
 10
35.216699
 20
147.298874
 40
19.857700
 50
-64.786188
 51
-61.797754
  0
ARC
  8
1
 62
7
  6
CONTINUOUS
 10
35.345668
 20
147.058370
 40
19.584798
 50
-61.797754
 51
-58.760774
  0
ARC
  8
1
 62
7
  6
CONTINUOUS
 10
26.261618
 20
162.034769
 40
37.100862
 50
-58.760774
 51
-57.269449
  0
ARC
  8
1
 62
7
  6
CONTINUOUS
 10
-326.373634
 20
710.676906
 40
689.297010
 50
-57.269449
 51
-57.189411
  0
ARC
  8
1
 62
7
  6
CONTINUOUS
 10
65.665814
 20
102.554454
 40
34.241417
 50
121.169392
 51
122.771471
  0
ARC
  8
1
 62
7
  6
CONTINUOUS
 10
56.640698
 20
117.476638
 40
16.802257
 50
117.931795
 51
121.172856
  0
ARC
  8
1
 62
7
  6
CONTINUOUS
 10
53.944966
 20
122.560710
 40
11.047715
 50
113.027839
 51
117.930690
  0
ARC
  8
1
 62
7
  6
CONTINUOUS
 10
53.720485
 20
122.987252
 40
10.567425
 50
108.786075
 51
112.812376
  0
ARC
  8
1
 62
7
  6
CONTINUOUS
 10
54.764562
 20
119.917773
 40
13.809616
 50
105.688324
 51
108.785971
  0
ARC
  8
1
 62
7
  6
CONTINUOUS
 10
56.362533
 20
114.230773
 40
19.716855
 50
103.506457
 51
105.690219
  0
ARC
  8
1
 62
7
  6
CONTINUOUS
 10
59.561400
 20
100.918437
 40
33.408131
 50
102.212681
 51
103.508578
  0
ARC
  8
1
 62
7
  6
CONTINUOUS
 10
73.894838
 20
34.705440
 40
101.154780
 50
101.784668
 51
102.213977
  0
ARC
  8
1
 62
7
  6
CONTINUOUS
 10
66.198422
 20
-92.478764
 40
231.804611
 50
94.115601
 51
94.187764
  0
ARC
  8
1
 62
7
  6
CONTINUOUS
 10
54.909529
 20
61.697485
 40
77.215624
 50
94.187764
 51
94.404337
  0
ARC
  8
1
 62
7
  6
CONTINUOUS
 10
52.531307
 20
92.574678
 40
46.246978
 50
94.404337
 51
94.765732
  0
ARC
  8
1
 62
7
  6
CONTINUOUS
 10
51.427045
 20
105.819987
 40
32.955718
 50
94.765732
 51
95.272476
  0
ARC
  8
1
 62
7
  6
CONTINUOUS
 10
50.747052
 20
113.188577
 40
25.555818
 50
95.272476
 51
95.925315
  0
ARC
  8
1
 62
7
  6
CONTINUOUS
 10
50.665183
 20
113.977396
 40
24.762763
 50
95.925315
 51
97.473747
  0
ARC
  8
1
 62
7
  6
CONTINUOUS
 10
52.952927
 20
96.538513
 40
42.351066
 50
97.473747
 51
98.378926
  0
ARC
  8
1
 62
7
  6
CONTINUOUS
 10
55.440106
 20
79.652395
 40
59.419371
 50
98.378926
 51
99.025148
  0
ARC
  8
1
 62
7
  6
CONTINUOUS
 10
107.907855
 20
-252.825429
 40
396.011633
 50
98.976398
 51
99.073666
  0
ARC
  8
1
 62
7
  6
CONTINUOUS
 10
28.017285
 20
247.426937
 40
110.579852
 50
-81.276794
 51
-80.926882
  0
ARC
  8
1
 62
7
  6
CONTINUOUS
 10
40.107626
 20
168.476041
 40
30.708591
 50
-82.110795
 51
-81.233323
  0
ARC
  8
1
 62
7
  6
CONTINUOUS
 10
42.326097
 20
152.462776
 40
14.542383
 50
-83.960069
 51
-82.108929
  0
ARC
  8
1
 62
7
  6
CONTINUOUS
 10
42.869068
 20
147.326135
 40
9.377124
 50
-86.813809
 51
-83.956844
  0
ARC
  8
1
 62
7
  6
CONTINUOUS
 10
43.010880
 20
144.772690
 40
6.819745
 50
-90.713526
 51
-86.811038
  0
ARC
  8
1
 62
7
  6
CONTINUOUS
 10
42.993172
 20
143.305373
 40
5.352321
 50
-102.717895
 51
-90.719575
  0
ARC
  8
1
 62
7
  6
CONTINUOUS
 10
44.245083
 20
149.186922
 40
11.365419
 50
-105.695107
 51
-102.346699
  0
ARC
  8
1
 62
7
  6
CONTINUOUS
 10
63.160557
 20
216.541612
 40
81.325760
 50
-106.158252
 51
-105.687735
  0
ARC
  8
1
 62
7
  6
CONTINUOUS
 10
36.069080
 20
123.041591
 40
16.020026
 50
73.838063
 51
76.220874
  0
ARC
  8
1
 62
7
  6
CONTINUOUS
 10
38.184924
 20
131.669332
 40
7.136631
 50
76.220874
 51
81.527964
  0
ARC
  8
1
 62
7
  6
CONTINUOUS
 10
38.421030
 20
133.254443
 40
5.534032
 50
81.527964
 51
87.673778
  0
ARC
  8
1
 62
7
  6
CONTINUOUS
 10
38.175049
 20
127.199176
 40
11.594293
 50
87.673778
 51
90.618317
  0
ARC
  8
1
 62
7
  6
CONTINUOUS
 10
38.177898
 20
126.935217
 40
11.858267
 50
90.618317
 51
93.515080
  0
ARC
  8
1
 62
7
  6
CONTINUOUS
 10
40.875309
 20
76.012754
 40
62.851781
 50
93.123286
 51
93.671905
  0
ARC
  8
1
 62
7
  6
CONTINUOUS
 10
34.655369
 20
172.931665
 40
34.266513
 50
-87.333833
 51
-86.327765
  0
ARC
  8
1
 62
7
  6
CONTINUOUS
 10
35.319367
 20
159.942885
 40
21.260988
 50
-89.123660
 51
-87.493063
  0
ARC
  8
1
 62
7
  6
CONTINUOUS
 10
35.230123
 20
165.797577
 40
27.116360
 50
-90.399376
 51
-89.124317
  0
ARC
  8
1
 62
7
  6
CONTINUOUS
 10
35.304706
 20
176.462906
 40
37.781950
 50
-91.313397
 51
-90.399739
  0
ARC
  8
1
 62
7
  6
CONTINUOUS
 10
35.878520
 20
201.482093
 40
62.807716
 50
-91.862712
 51
-91.313576
  0
ARC
  8
1
 62
7
  6
CONTINUOUS
 10
39.955072
 20
326.822832
 40
188.214730
 50
-92.045962
 51
-91.862782
  0
ARC
  8
1
 62
7
  6
CONTINUOUS
 10
-46.812063
 20
751.594446
 40
621.327364
 50
-81.239684
 51
-81.172221
  0
ARC
  8
1
 62
7
  6
CONTINUOUS
 10
16.201197
 20
342.681658
 40
207.587906
 50
-81.441813
 51
-81.239736
  0
ARC
  8
1
 62
7
  6
CONTINUOUS
 10
28.471575
 20
261.146703
 40
125.134822
 50
-81.777669
 51
-81.441918
  0
ARC
  8
1
 62
7
  6
CONTINUOUS
 10
33.493877
 20
226.392073
 40
90.019187
 50
-82.245661
 51
-81.777830
  0
ARC
  8
1
 62
7
  6
CONTINUOUS
 10
36.101422
 20
207.245062
 40
70.695437
 50
-82.843512
 51
-82.245881
  0
ARC
  8
1
 62
7
  6
CONTINUOUS
 10
40.677176
 20
170.546731
 40
33.712969
 50
-83.606747
 51
-82.789531
  0
ARC
  8
1
 62
7
  6
CONTINUOUS
 10
42.513029
 20
154.159142
 40
17.222868
 50
-85.203882
 51
-83.605571
  0
ARC
  8
1
 62
7
  6
CONTINUOUS
 10
42.996602
 20
148.391191
 40
11.434682
 50
-87.600825
 51
-85.201974
  0
ARC
  8
1
 62
7
  6
CONTINUOUS
 10
43.120450
 20
145.429404
 40
8.470307
 50
-90.822018
 51
-87.599171
  0
ARC
  8
1
 62
7
  6
CONTINUOUS
 10
43.095199
 20
143.661655
 40
6.702377
 50
-100.531523
 51
-90.822978
  0
ARC
  8
1
 62
7
  6
CONTINUOUS
 10
44.192717
 20
149.889603
 40
13.026148
 50
-103.194154
 51
-100.270725
  0
ARC
  8
1
 62
7
  6
CONTINUOUS
 10
52.721748
 20
186.286123
 40
50.408644
 50
-103.948931
 51
-103.189973
  0
ARC
  8
1
 62
7
  6
CONTINUOUS
 10
33.882403
 20
110.438120
 40
27.744030
 50
76.050857
 51
77.430249
  0
ARC
  8
1
 62
7
  6
CONTINUOUS
 10
37.573768
 20
126.993389
 40
10.782217
 50
77.430249
 51
80.967537
  0
ARC
  8
1
 62
7
  6
CONTINUOUS
 10
38.015523
 20
129.772325
 40
7.968388
 50
80.967537
 51
85.172986
  0
ARC
  8
1
 62
7
  6
CONTINUOUS
 10
37.520897
 20
123.915101
 40
13.846459
 50
85.172986
 51
87.595044
  0
ARC
  8
1
 62
7
  6
CONTINUOUS
 10
37.567029
 20
125.013519
 40
12.747073
 50
87.595044
 51
90.232202
  0
ARC
  8
1
 62
7
  6
CONTINUOUS
 10
37.673080
 20
98.845588
 40
38.915219
 50
90.232202
 51
91.097650
  0
ARC
  8
1
 62
7
  6
CONTINUOUS
 10
37.512999
 20
107.200589
 40
30.558685
 50
91.097650
 51
92.200136
  0
ARC
  8
1
 62
7
  6
CONTINUOUS
 10
41.850586
 20
-29.167252
 40
166.994949
 50
91.891072
 51
92.104785
  0
ARC
  8
1
 62
7
  6
CONTINUOUS
 10
43.560128
 20
-75.682901
 40
213.542002
 50
92.104785
 51
92.271637
  0
ARC
  8
1
 62
7
  6
CONTINUOUS
 10
46.909469
 20
-160.116511
 40
298.042017
 50
92.271637
 51
92.391036
  0
ARC
  8
1
 62
7
  6
CONTINUOUS
 10
55.127335
 20
-356.924789
 40
495.021792
 50
92.391036
 51
92.462865
  0
ARC
  8
1
 62
7
  6
CONTINUOUS
 10
97.751117
 20
-1347.908449
 40
1486.921687
 50
92.462865
 51
92.486768
  0
ARC
  8
1
 62
7
  6
CONTINUOUS
 10
110.424961
 20
95.642214
 40
55.586327
 50
89.768183
 51
90.767124
  0
ARC
  8
1
 62
7
  6
CONTINUOUS
 10
109.919261
 20
133.410211
 40
17.814945
 50
90.767124
 51
93.832459
  0
ARC
  8
1
 62
7
  6
CONTINUOUS
 10
109.377004
 20
141.504934
 40
9.702080
 50
93.832459
 51
99.294151
  0
ARC
  8
1
 62
7
  6
CONTINUOUS
 10
108.814889
 20
144.939768
 40
6.221554
 50
99.294151
 51
107.516439
  0
ARC
  8
1
 62
7
  6
CONTINUOUS
 10
108.282834
 20
146.625545
 40
4.453808
 50
107.516439
 51
118.727452
  0
ARC
  8
1
 62
7
  6
CONTINUOUS
 10
108.229028
 20
146.723711
 40
4.341863
 50
118.727452
 51
129.208308
  0
ARC
  8
1
 62
7
  6
CONTINUOUS
 10
111.596177
 20
142.596400
 40
9.668437
 50
129.208308
 51
134.045468
  0
ARC
  8
1
 62
7
  6
CONTINUOUS
 10
113.992311
 20
140.119068
 40
13.114977
 50
134.045468
 51
137.707871
  0
ARC
  8
1
 62
7
  6
CONTINUOUS
 10
-38.384196
 20
281.068703
 40
194.455737
 50
-43.051570
 51
-42.801271
  0
ARC
  8
1
 62
7
  6
CONTINUOUS
 10
92.410415
 20
158.877381
 40
15.464258
 50
-46.182350
 51
-43.043186
  0
ARC
  8
1
 62
7
  6
CONTINUOUS
 10
95.523360
 20
155.720778
 40
11.031492
 50
-52.352536
 51
-46.497170
  0
ARC
  8
1
 62
7
  6
CONTINUOUS
 10
94.301521
 20
157.309197
 40
13.035477
 50
-57.276528
 51
-52.364736
  0
ARC
  8
1
 62
7
  6
CONTINUOUS
 10
92.440038
 20
160.208527
 40
16.480943
 50
-61.160635
 51
-57.281009
  0
ARC
  8
1
 62
7
  6
CONTINUOUS
 10
89.460809
 20
165.618956
 40
22.657394
 50
-63.988251
 51
-61.160682
  0
ARC
  8
1
 62
7
  6
CONTINUOUS
 10
83.647830
 20
177.529060
 40
35.910367
 50
-65.774567
 51
-63.986803
  0
ARC
  8
1
 62
7
  6
CONTINUOUS
 10
81.439282
 20
182.221140
 40
41.095578
 50
-66.879719
 51
-65.650807
  0
ARC
  8
1
 62
7
  6
CONTINUOUS
 10
85.847074
 20
171.896378
 40
29.869299
 50
-68.567267
 51
-66.878991
  0
ARC
  8
1
 62
7
  6
CONTINUOUS
 10
88.240371
 20
165.798828
 40
23.318881
 50
-70.723611
 51
-68.566521
  0
ARC
  8
1
 62
7
  6
CONTINUOUS
 10
89.651342
 20
161.763966
 40
19.044427
 50
-73.357223
 51
-70.723181
  0
ARC
  8
1
 62
7
  6
CONTINUOUS
 10
90.543474
 20
158.772288
 40
15.922564
 50
-79.117316
 51
-73.349781
  0
ARC
  8
1
 62
7
  6
CONTINUOUS
 10
89.480783
 20
164.210645
 40
21.463757
 50
-81.021471
 51
-79.072403
  0
ARC
  8
1
 62
7
  6
CONTINUOUS
 10
88.109228
 20
172.890134
 40
30.250946
 50
-82.407090
 51
-81.021110
  0
ARC
  8
1
 62
7
  6
CONTINUOUS
 10
85.404921
 20
193.174004
 40
50.714295
 50
-83.234967
 51
-82.406625
  0
ARC
  8
1
 62
7
  6
CONTINUOUS
 10
73.396069
 20
294.401968
 40
152.652087
 50
-83.510167
 51
-83.234669
  0
ARC
  8
1
 62
7
  6
CONTINUOUS
 10
110.424961
 20
94.642214
 40
55.586327
 50
89.768183
 51
90.767124
  0
ARC
  8
1
 62
7
  6
CONTINUOUS
 10
109.919261
 20
132.410211
 40
17.814945
 50
90.767124
 51
93.832459
  0
ARC
  8
1
 62
7
  6
CONTINUOUS
 10
109.377004
 20
140.504934
 40
9.702080
 50
93.832459
 51
99.294151
  0
ARC
  8
1
 62
7
  6
CONTINUOUS
 10
108.814889
 20
143.939768
 40
6.221554
 50
99.294151
 51
107.516439
  0
ARC
  8
1
 62
7
  6
CONTINUOUS
 10
108.282834
 20
145.625545
 40
4.453808
 50
107.516439
 51
118.727452
  0
ARC
  8
1
 62
7
  6
CONTINUOUS
 10
108.229028
 20
145.723711
 40
4.341863
 50
118.727452
 51
129.208308
  0
ARC
  8
1
 62
7
  6
CONTINUOUS
 10
111.596177
 20
141.596400
 40
9.668437
 50
129.208308
 51
134.045468
  0
ARC
  8
1
 62
7
  6
CONTINUOUS
 10
113.992311
 20
139.119068
 40
13.114977
 50
134.045468
 51
137.707871
  0
ARC
  8
1
 62
7
  6
CONTINUOUS
 10
-38.384196
 20
280.068703
 40
194.455737
 50
-43.051570
 51
-42.801271
  0
ARC
  8
1
 62
7
  6
CONTINUOUS
 10
92.410415
 20
157.877381
 40
15.464258
 50
-46.182350
 51
-43.043186
  0
ARC
  8
1
 62
7
  6
CONTINUOUS
 10
95.523360
 20
154.720778
 40
11.031492
 50
-52.352536
 51
-46.497170
  0
ARC
  8
1
 62
7
  6
CONTINUOUS
 10
94.301521
 20
156.309197
 40
13.035477
 50
-57.276528
 51
-52.364736
  0
ARC
  8
1
 62
7
  6
CONTINUOUS
 10
92.440038
 20
159.208527
 40
16.480943
 50
-61.160635
 51
-57.281009
  0
ARC
  8
1
 62
7
  6
CONTINUOUS
 10
89.460809
 20
164.618956
 40
22.657394
 50
-63.988251
 51
-61.160682
  0
ARC
  8
1
 62
7
  6
CONTINUOUS
 10
83.647830
 20
176.529060
 40
35.910367
 50
-65.774567
 51
-63.986803
  0
ARC
  8
1
 62
7
  6
CONTINUOUS
 10
81.439282
 20
181.221140
 40
41.095578
 50
-66.879719
 51
-65.650807
  0
ARC
  8
1
 62
7
  6
CONTINUOUS
 10
85.847074
 20
170.896378
 40
29.869299
 50
-68.567267
 51
-66.878991
  0
ARC
  8
1
 62
7
  6
CONTINUOUS
 10
88.240371
 20
164.798828
 40
23.318881
 50
-70.723611
 51
-68.566521
  0
ARC
  8
1
 62
7
  6
CONTINUOUS
 10
89.651342
 20
160.763966
 40
19.044427
 50
-73.357223
 51
-70.723181
  0
ARC
  8
1
 62
7
  6
CONTINUOUS
 10
90.543474
 20
157.772288
 40
15.922564
 50
-79.117316
 51
-73.349781
  0
ARC
  8
1
 62
7
  6
CONTINUOUS
 10
89.480783
 20
163.210645
 40
21.463757
 50
-81.021471
 51
-79.072403
  0
ARC
  8
1
 62
7
  6
CONTINUOUS
 10
88.109228
 20
171.890134
 40
30.250946
 50
-82.407090
 51
-81.021110
  0
ARC
  8
1
 62
7
  6
CONTINUOUS
 10
85.404921
 20
192.174004
 40
50.714295
 50
-83.234967
 51
-82.406625
  0
ARC
  8
1
 62
7
  6
CONTINUOUS
 10
73.396069
 20
293.401968
 40
152.652087
 50
-83.510167
 51
-83.234669
  0
ARC
  8
1
 62
7
  6
CONTINUOUS
 10
104.207722
 20
68.756934
 40
77.738541
 50
85.246487
 51
85.796873
  0
ARC
  8
1
 62
7
  6
CONTINUOUS
 10
108.026203
 20
120.715925
 40
25.639427
 50
85.796873
 51
87.458156
  0
ARC
  8
1
 62
7
  6
CONTINUOUS
 10
108.498351
 20
131.351632
 40
14.993246
 50
87.458156
 51
90.276690
  0
ARC
  8
1
 62
7
  6
CONTINUOUS
 10
108.476263
 20
135.925425
 40
10.419399
 50
90.276690
 51
94.296065
  0
ARC
  8
1
 62
7
  6
CONTINUOUS
 10
108.289800
 20
138.407588
 40
7.930243
 50
94.296065
 51
99.543045
  0
ARC
  8
1
 62
7
  6
CONTINUOUS
 10
108.221496
 20
138.813881
 40
7.518248
 50
99.543045
 51
105.554956
  0
ARC
  8
1
 62
7
  6
CONTINUOUS
 10
109.680773
 20
133.571427
 40
12.960014
 50
105.554956
 51
109.069091
  0
ARC
  8
1
 62
7
  6
CONTINUOUS
 10
110.633596
 20
130.815030
 40
15.876449
 50
109.069091
 51
111.962877
  0
ARC
  8
1
 62
7
  6
CONTINUOUS
 10
138.285001
 20
62.247529
 40
89.809544
 50
111.962877
 51
112.477105
  0
ARC
  8
1
 62
7
  6
CONTINUOUS
 10
66.066807
 20
235.768707
 40
98.140470
 50
-67.764224
 51
-67.293844
  0
ARC
  8
1
 62
7
  6
CONTINUOUS
 10
86.148532
 20
186.968930
 40
45.370574
 50
-68.999222
 51
-67.917764
  0
ARC
  8
1
 62
7
  6
CONTINUOUS
 10
76.536812
 20
212.010703
 40
72.193616
 50
-69.676790
 51
-69.000190
  0
ARC
  8
1
 62
7
  6
CONTINUOUS
 10
37.279845
 20
318.008587
 40
185.227508
 50
-69.940390
 51
-69.677272
  0
ARC
  8
1
 62
7
  6
CONTINUOUS
 10
209.699789
 20
-154.182924
 40
317.458736
 50
110.059565
 51
110.213063
  0
ARC
  8
1
 62
7
  6
CONTINUOUS
 10
129.668623
 20
63.182475
 40
85.828203
 50
110.213063
 51
110.781905
  0
ARC
  8
1
 62
7
  6
CONTINUOUS
 10
131.739677
 20
57.725196
 40
91.665253
 50
110.781905
 51
111.235431
  0
ARC
  8
1
 62
7
  6
CONTINUOUS
 10
71.541396
 20
213.006942
 40
74.876860
 50
-69.421614
 51
-68.865875
  0
ARC
  8
1
 62
7
  6
CONTINUOUS
 10
87.176207
 20
171.362280
 40
30.393995
 50
-70.787953
 51
-69.420800
  0
ARC
  8
1
 62
7
  6
CONTINUOUS
 10
90.957551
 20
160.509848
 40
18.901657
 50
-72.978377
 51
-70.786718
  0
ARC
  8
1
 62
7
  6
CONTINUOUS
 10
92.501335
 20
155.466597
 40
13.627413
 50
-76.007272
 51
-72.977678
  0
ARC
  8
1
 62
7
  6
CONTINUOUS
 10
92.623799
 20
155.121516
 40
13.263007
 50
-80.602952
 51
-76.160157
  0
ARC
  8
1
 62
7
  6
CONTINUOUS
 10
91.981848
 20
159.004279
 40
17.198480
 50
-84.040770
 51
-80.605023
  0
ARC
  8
1
 62
7
  6
CONTINUOUS
 10
91.227839
 20
166.222904
 40
24.456378
 50
-86.468247
 51
-84.039620
  0
ARC
  8
1
 62
7
  6
CONTINUOUS
 10
90.184969
 20
183.096835
 40
41.362505
 50
-87.909240
 51
-86.466270
  0
ARC
  8
1
 62
7
  6
CONTINUOUS
 10
87.125083
 20
266.834204
 40
125.155761
 50
-88.386158
 51
-87.907915
  0
ARC
  8
1
 62
7
  6
CONTINUOUS
 10
104.207722
 20
67.756934
 40
77.738541
 50
85.246487
 51
85.796873
  0
ARC
  8
1
 62
7
  6
CONTINUOUS
 10
108.026203
 20
119.715925
 40
25.639427
 50
85.796873
 51
87.458156
  0
ARC
  8
1
 62
7
  6
CONTINUOUS
 10
108.498351
 20
130.351632
 40
14.993246
 50
87.458156
 51
90.276690
  0
ARC
  8
1
 62
7
  6
CONTINUOUS
 10
108.476263
 20
134.925425
 40
10.419399
 50
90.276690
 51
94.296065
  0
ARC
  8
1
 62
7
  6
CONTINUOUS
 10
108.289800
 20
137.407588
 40
7.930243
 50
94.296065
 51
99.543045
  0
ARC
  8
1
 62
7
  6
CONTINUOUS
 10
108.221496
 20
137.813881
 40
7.518248
 50
99.543045
 51
105.554956
  0
ARC
  8
1
 62
7
  6
CONTINUOUS
 10
109.680773
 20
132.571427
 40
12.960014
 50
105.554956
 51
109.069091
  0
ARC
  8
1
 62
7
  6
CONTINUOUS
 10
110.633596
 20
129.815030
 40
15.876449
 50
109.069091
 51
111.962877
  0
ARC
  8
1
 62
7
  6
CONTINUOUS
 10
138.285001
 20
61.247529
 40
89.809544
 50
111.962877
 51
112.477105
  0
ARC
  8
1
 62
7
  6
CONTINUOUS
 10
66.066807
 20
234.768707
 40
98.140470
 50
-67.764224
 51
-67.293844
  0
ARC
  8
1
 62
7
  6
CONTINUOUS
 10
86.148532
 20
185.968930
 40
45.370574
 50
-68.999222
 51
-67.917764
  0
ARC
  8
1
 62
7
  6
CONTINUOUS
 10
76.536812
 20
211.010703
 40
72.193616
 50
-69.676790
 51
-69.000190
  0
ARC
  8
1
 62
7
  6
CONTINUOUS
 10
37.279845
 20
317.008587
 40
185.227508
 50
-69.940390
 51
-69.677272
  0
ARC
  8
1
 62
7
  6
CONTINUOUS
 10
209.699789
 20
-155.182924
 40
317.458736
 50
110.059565
 51
110.213063
  0
ARC
  8
1
 62
7
  6
CONTINUOUS
 10
129.668623
 20
62.182475
 40
85.828203
 50
110.213063
 51
110.781905
  0
ARC
  8
1
 62
7
  6
CONTINUOUS
 10
131.739677
 20
56.725196
 40
91.665253
 50
110.781905
 51
111.235431
  0
ARC
  8
1
 62
7
  6
CONTINUOUS
 10
71.541396
 20
212.006942
 40
74.876860
 50
-69.421614
 51
-68.865875
  0
ARC
  8
1
 62
7
  6
CONTINUOUS
 10
87.176207
 20
170.362280
 40
30.393995
 50
-70.787953
 51
-69.420800
  0
ARC
  8
1
 62
7
  6
CONTINUOUS
 10
90.957551
 20
159.509848
 40
18.901657
 50
-72.978377
 51
-70.786718
  0
ARC
  8
1
 62
7
  6
CONTINUOUS
 10
92.501335
 20
154.466597
 40
13.627413
 50
-76.007272
 51
-72.977678
  0
ARC
  8
1
 62
7
  6
CONTINUOUS
 10
92.623799
 20
154.121516
 40
13.263007
 50
-80.602952
 51
-76.160157
  0
ARC
  8
1
 62
7
  6
CONTINUOUS
 10
91.981848
 20
158.004279
 40
17.198480
 50
-84.040770
 51
-80.605023
  0
ARC
  8
1
 62
7
  6
CONTINUOUS
 10
91.227839
 20
165.222904
 40
24.456378
 50
-86.468247
 51
-84.039620
  0
ARC
  8
1
 62
7
  6
CONTINUOUS
 10
90.184969
 20
182.096835
 40
41.362505
 50
-87.909240
 51
-86.466270
  0
ARC
  8
1
 62
7
  6
CONTINUOUS
 10
87.125083
 20
265.834204
 40
125.155761
 50
-88.386158
 51
-87.907915
  0
ARC
  8
1
 62
7
  6
CONTINUOUS
 10
105.562727
 20
297.125518
 40
155.980409
 50
-88.363008
 51
-88.131028
  0
ARC
  8
1
 62
7
  6
CONTINUOUS
 10
108.536731
 20
193.056036
 40
51.868442
 50
-89.059887
 51
-88.362827
  0
ARC
  8
1
 62
7
  6
CONTINUOUS
 10
108.879141
 20
172.180183
 40
30.989781
 50
-90.224655
 51
-89.059604
  0
ARC
  8
1
 62
7
  6
CONTINUOUS
 10
108.843917
 20
163.218713
 40
22.028241
 50
-91.860811
 51
-90.224432
  0
ARC
  8
1
 62
7
  6
CONTINUOUS
 10
108.679242
 20
158.174406
 40
16.981247
 50
-96.475793
 51
-91.858140
  0
ARC
  8
1
 62
7
  6
CONTINUOUS
 10
110.361685
 20
173.535736
 40
32.434374
 50
-97.677750
 51
-96.368398
  0
ARC
  8
1
 62
7
  6
CONTINUOUS
 10
122.504287
 20
263.615061
 40
123.328420
 50
-98.022149
 51
-97.677298
  0
ARC
  8
1
 62
7
  6
CONTINUOUS
 10
95.644956
 20
73.034090
 40
69.135941
 50
81.978024
 51
82.593699
  0
ARC
  8
1
 62
7
  6
CONTINUOUS
 10
101.073350
 20
114.794445
 40
27.024248
 50
82.593699
 51
84.169275
  0
ARC
  8
1
 62
7
  6
CONTINUOUS
 10
102.009737
 20
123.964095
 40
17.806910
 50
84.169275
 51
85.668293
  0
ARC
  8
1
 62
7
  6
CONTINUOUS
 10
101.900227
 20
122.518359
 40
19.256788
 50
85.668293
 51
87.054098
  0
ARC
  8
1
 62
7
  6
CONTINUOUS
 10
102.134354
 20
127.067959
 40
14.701168
 50
87.054098
 51
88.868117
  0
ARC
  8
1
 62
7
  6
CONTINUOUS
 10
102.116439
 20
126.161200
 40
15.608104
 50
88.868117
 51
90.575180
  0
ARC
  8
1
 62
7
  6
CONTINUOUS
 10
102.089585
 20
128.836048
 40
12.933121
 50
90.575180
 51
95.135553
  0
ARC
  8
1
 62
7
  6
CONTINUOUS
 10
102.817890
 20
120.732355
 40
21.069475
 50
95.135553
 51
96.672261
  0
ARC
  8
1
 62
7
  6
CONTINUOUS
 10
102.733806
 20
121.451126
 40
20.345803
 50
96.672261
 51
98.265469
  0
ARC
  8
1
 62
7
  6
CONTINUOUS
 10
108.067988
 20
84.731728
 40
57.450624
 50
98.265469
 51
98.830208
  0
ARC
  8
1
 62
7
  6
CONTINUOUS
 10
107.188772
 20
90.391378
 40
51.723088
 50
98.830208
 51
99.457639
  0
ARC
  8
1
 62
7
  6
CONTINUOUS
 10
-70.950879
 20
1176.692701
 40
1049.087832
 50
-80.724952
 51
-80.694245
  0
ARC
  8
1
 62
7
  6
CONTINUOUS
 10
81.978466
 20
240.251264
 40
100.241190
 50
-81.046044
 51
-80.724899
  0
ARC
  8
1
 62
7
  6
CONTINUOUS
 10
89.401304
 20
193.140048
 40
52.548788
 50
-81.658185
 51
-81.046000
  0
ARC
  8
1
 62
7
  6
CONTINUOUS
 10
91.862577
 20
176.354393
 40
35.583645
 50
-82.561744
 51
-81.658182
  0
ARC
  8
1
 62
7
  6
CONTINUOUS
 10
92.985396
 20
167.754453
 40
26.910716
 50
-83.756369
 51
-82.561833
  0
ARC
  8
1
 62
7
  6
CONTINUOUS
 10
93.116991
 20
166.704153
 40
25.852340
 50
-84.773211
 51
-83.793132
  0
ARC
  8
1
 62
7
  6
CONTINUOUS
 10
92.687997
 20
171.393572
 40
30.561340
 50
-85.602589
 51
-84.773188
  0
ARC
  8
1
 62
7
  6
CONTINUOUS
 10
92.168460
 20
178.149228
 40
37.336944
 50
-86.281695
 51
-85.602551
  0
ARC
  8
1
 62
7
  6
CONTINUOUS
 10
91.482720
 20
188.700519
 40
47.910495
 50
-86.811046
 51
-86.281655
  0
ARC
  8
1
 62
7
  6
CONTINUOUS
 10
90.435618
 20
207.493661
 40
66.732785
 50
-87.191100
 51
-86.811015
  0
ARC
  8
1
 62
7
  6
CONTINUOUS
 10
89.179547
 20
232.916850
 40
92.186983
 50
-87.565948
 51
-87.185692
  0
ARC
  8
1
 62
7
  6
CONTINUOUS
 10
88.064432
 20
259.150621
 40
118.444444
 50
-87.861851
 51
-87.565960
  0
ARC
  8
1
 62
7
  6
CONTINUOUS
 10
86.299606
 20
306.421106
 40
165.747862
 50
-88.073272
 51
-87.861858
  0
ARC
  8
1
 62
7
  6
CONTINUOUS
 10
82.586980
 20
416.783675
 40
276.172860
 50
-88.200146
 51
-88.073276
  0
ARC
  8
1
 62
7
  6
CONTINUOUS
 10
65.242030
 20
968.754713
 40
828.416352
 50
-88.242442
 51
-88.200148
  0
ARC
  8
1
 62
7
  6
CONTINUOUS
 10
105.562727
 20
296.125518
 40
155.980409
 50
-88.363008
 51
-88.131028
  0
ARC
  8
1
 62
7
  6
CONTINUOUS
 10
108.536731
 20
192.056036
 40
51.868442
 50
-89.059887
 51
-88.362827
  0
ARC
  8
1
 62
7
  6
CONTINUOUS
 10
108.879141
 20
171.180183
 40
30.989781
 50
-90.224655
 51
-89.059604
  0
ARC
  8
1
 62
7
  6
CONTINUOUS
 10
108.843917
 20
162.218713
 40
22.028241
 50
-91.860811
 51
-90.224432
  0
ARC
  8
1
 62
7
  6
CONTINUOUS
 10
108.679242
 20
157.174406
 40
16.981247
 50
-96.475793
 51
-91.858140
  0
ARC
  8
1
 62
7
  6
CONTINUOUS
 10
110.361685
 20
172.535736
 40
32.434374
 50
-97.677750
 51
-96.368398
  0
ARC
  8
1
 62
7
  6
CONTINUOUS
 10
122.504287
 20
262.615061
 40
123.328420
 50
-98.022149
 51
-97.677298
  0
ARC
  8
1
 62
7
  6
CONTINUOUS
 10
95.644956
 20
72.034090
 40
69.135941
 50
81.978024
 51
82.593699
  0
ARC
  8
1
 62
7
  6
CONTINUOUS
 10
101.073350
 20
113.794445
 40
27.024248
 50
82.593699
 51
84.169275
  0
ARC
  8
1
 62
7
  6
CONTINUOUS
 10
102.009737
 20
122.964095
 40
17.806910
 50
84.169275
 51
85.668293
  0
ARC
  8
1
 62
7
  6
CONTINUOUS
 10
101.900227
 20
121.518359
 40
19.256788
 50
85.668293
 51
87.054098
  0
ARC
  8
1
 62
7
  6
CONTINUOUS
 10
102.134354
 20
126.067959
 40
14.701168
 50
87.054098
 51
88.868117
  0
ARC
  8
1
 62
7
  6
CONTINUOUS
 10
102.116439
 20
125.161200
 40
15.608104
 50
88.868117
 51
90.575180
  0
ARC
  8
1
 62
7
  6
CONTINUOUS
 10
102.089585
 20
127.836048
 40
12.933121
 50
90.575180
 51
95.135553
  0
ARC
  8
1
 62
7
  6
CONTINUOUS
 10
102.817890
 20
119.732355
 40
21.069475
 50
95.135553
 51
96.672261
  0
ARC
  8
1
 62
7
  6
CONTINUOUS
 10
102.733806
 20
120.451126
 40
20.345803
 50
96.672261
 51
98.265469
  0
ARC
  8
1
 62
7
  6
CONTINUOUS
 10
108.067988
 20
83.731728
 40
57.450624
 50
98.265469
 51
98.830208
  0
ARC
  8
1
 62
7
  6
CONTINUOUS
 10
107.188772
 20
89.391378
 40
51.723088
 50
98.830208
 51
99.457639
  0
ARC
  8
1
 62
7
  6
CONTINUOUS
 10
-70.950879
 20
1175.692701
 40
1049.087832
 50
-80.724952
 51
-80.694245
  0
ARC
  8
1
 62
7
  6
CONTINUOUS
 10
81.978466
 20
239.251264
 40
100.241190
 50
-81.046044
 51
-80.724899
  0
ARC
  8
1
 62
7
  6
CONTINUOUS
 10
89.401304
 20
192.140048
 40
52.548788
 50
-81.658185
 51
-81.046000
  0
ARC
  8
1
 62
7
  6
CONTINUOUS
 10
91.862577
 20
175.354393
 40
35.583645
 50
-82.561744
 51
-81.658182
  0
ARC
  8
1
 62
7
  6
CONTINUOUS
 10
92.985396
 20
166.754453
 40
26.910716
 50
-83.756369
 51
-82.561833
  0
ARC
  8
1
 62
7
  6
CONTINUOUS
 10
93.116991
 20
165.704153
 40
25.852340
 50
-84.773211
 51
-83.793132
  0
ARC
  8
1
 62
7
  6
CONTINUOUS
 10
92.687997
 20
170.393572
 40
30.561340
 50
-85.602589
 51
-84.773188
  0
ARC
  8
1
 62
7
  6
CONTINUOUS
 10
92.168460
 20
177.149228
 40
37.336944
 50
-86.281695
 51
-85.602551
  0
ARC
  8
1
 62
7
  6
CONTINUOUS
 10
91.482720
 20
187.700519
 40
47.910495
 50
-86.811046
 51
-86.281655
  0
ARC
  8
1
 62
7
  6
CONTINUOUS
 10
90.435618
 20
206.493661
 40
66.732785
 50
-87.191100
 51
-86.811015
  0
ARC
  8
1
 62
7
  6
CONTINUOUS
 10
89.179547
 20
231.916850
 40
92.186983
 50
-87.565948
 51
-87.185692
  0
ARC
  8
1
 62
7
  6
CONTINUOUS
 10
88.064432
 20
258.150621
 40
118.444444
 50
-87.861851
 51
-87.565960
  0
ARC
  8
1
 62
7
  6
CONTINUOUS
 10
86.299606
 20
305.421106
 40
165.747862
 50
-88.073272
 51
-87.861858
  0
ARC
  8
1
 62
7
  6
CONTINUOUS
 10
82.586980
 20
415.783675
 40
276.172860
 50
-88.200146
 51
-88.073276
  0
ARC
  8
1
 62
7
  6
CONTINUOUS
 10
65.242030
 20
967.754713
 40
828.416351
 50
-88.242442
 51
-88.200148
  0
ARC
  8
1
 62
7
  6
CONTINUOUS
 10
105.211517
 20
222.587059
 40
84.035128
 50
-86.722415
 51
-86.289503
  0
ARC
  8
1
 62
7
  6
CONTINUOUS
 10
108.425505
 20
166.455810
 40
27.811941
 50
-88.026374
 51
-86.721413
  0
ARC
  8
1
 62
7
  6
CONTINUOUS
 10
108.815216
 20
155.134150
 40
16.483576
 50
-90.217723
 51
-88.024873
  0
ARC
  8
1
 62
7
  6
CONTINUOUS
 10
108.796548
 20
150.270246
 40
11.619636
 50
-93.314020
 51
-90.216809
  0
ARC
  8
1
 62
7
  6
CONTINUOUS
 10
108.649852
 20
147.707635
 40
9.052830
 50
-102.520640
 51
-93.324713
  0
ARC
  8
1
 62
7
  6
CONTINUOUS
 10
111.494153
 20
161.126690
 40
22.769758
 50
-104.278365
 51
-102.187287
  0
ARC
  8
1
 62
7
  6
CONTINUOUS
 10
72.415047
 20
7.546674
 40
135.704208
 50
75.724170
 51
76.075794
  0
ARC
  8
1
 62
7
  6
CONTINUOUS
 10
100.977271
 20
122.752526
 40
17.010531
 50
76.075794
 51
78.871930
  0
ARC
  8
1
 62
7
  6
CONTINUOUS
 10
102.541010
 20
130.702350
 40
8.908372
 50
78.871930
 51
84.184149
  0
ARC
  8
1
 62
7
  6
CONTINUOUS
 10
102.729071
 20
132.548701
 40
7.052469
 50
84.184149
 51
87.689798
  0
ARC
  8
1
 62
7
  6
CONTINUOUS
 10
102.242735
 20
120.493512
 40
19.117463
 50
87.689798
 51
88.986204
  0
ARC
  8
1
 62
7
  6
CONTINUOUS
 10
102.279757
 20
122.585656
 40
17.024992
 50
88.986204
 51
90.445654
  0
ARC
  8
1
 62
7
  6
CONTINUOUS
 10
101.674311
 20
319.648256
 40
180.038745
 50
-89.987639
 51
-89.849464
  0
ARC
  8
1
 62
7
  6
CONTINUOUS
 10
101.708339
 20
161.309411
 40
21.699896
 50
-91.133227
 51
-89.987288
  0
ARC
  8
1
 62
7
  6
CONTINUOUS
 10
101.671490
 20
157.399095
 40
17.789662
 50
-92.771542
 51
-91.263647
  0
ARC
  8
1
 62
7
  6
CONTINUOUS
 10
102.173776
 20
167.771932
 40
28.174653
 50
-93.723218
 51
-92.771814
  0
ARC
  8
1
 62
7
  6
CONTINUOUS
 10
104.770593
 20
207.676238
 40
68.163365
 50
-94.116418
 51
-93.723287
  0
ARC
  8
1
 62
7
  6
CONTINUOUS
 10
88.268717
 20
-21.614174
 40
161.720094
 50
85.883549
 51
86.049211
  0
ARC
  8
1
 62
7
  6
CONTINUOUS
 10
96.864939
 20
102.853719
 40
36.955711
 50
86.049211
 51
86.773996
  0
ARC
  8
1
 62
7
  6
CONTINUOUS
 10
97.448554
 20
113.208130
 40
26.584865
 50
86.773996
 51
88.191986
  0
ARC
  8
1
 62
7
  6
CONTINUOUS
 10
96.927797
 20
96.710876
 40
43.090337
 50
88.191986
 51
89.067107
  0
ARC
  8
1
 62
7
  6
CONTINUOUS
 10
96.934231
 20
97.105947
 40
42.695213
 50
89.067107
 51
89.950724
  0
ARC
  8
1
 62
7
  6
CONTINUOUS
 10
96.875998
 20
29.395314
 40
110.405870
 50
89.950724
 51
90.292543
  0
ARC
  8
1
 62
7
  6
CONTINUOUS
 10
96.860325
 20
32.464866
 40
107.336279
 50
90.292543
 51
90.644167
  0
ARC
  8
1
 62
7
  6
CONTINUOUS
 10
100.660537
 20
-376.884176
 40
516.702797
 50
90.555216
 51
90.666246
  0
ARC
  8
1
 62
7
  6
CONTINUOUS
 10
102.369455
 20
-523.841019
 40
663.669576
 50
90.666246
 51
90.752663
  0
ARC
  8
1
 62
7
  6
CONTINUOUS
 10
105.849860
 20
-788.768466
 40
928.619883
 50
90.752663
 51
90.814409
  0
ARC
  8
1
 62
7
  6
CONTINUOUS
 10
114.635306
 20
-1406.805427
 40
1546.719284
 50
90.814409
 51
90.851475
  0
ARC
  8
1
 62
7
  6
CONTINUOUS
 10
160.621927
 20
-4501.017690
 40
4641.273258
 50
90.851475
 51
90.863827
  0
ARC
  8
1
 62
7
  6
CONTINUOUS
 10
105.211517
 20
221.587059
 40
84.035128
 50
-86.722415
 51
-86.289503
  0
ARC
  8
1
 62
7
  6
CONTINUOUS
 10
108.425505
 20
165.455810
 40
27.811941
 50
-88.026374
 51
-86.721413
  0
ARC
  8
1
 62
7
  6
CONTINUOUS
 10
108.815216
 20
154.134150
 40
16.483576
 50
-90.217723
 51
-88.024873
  0
ARC
  8
1
 62
7
  6
CONTINUOUS
 10
108.796548
 20
149.270246
 40
11.619636
 50
-93.314020
 51
-90.216809
  0
ARC
  8
1
 62
7
  6
CONTINUOUS
 10
108.649852
 20
146.707635
 40
9.052830
 50
-102.520640
 51
-93.324713
  0
ARC
  8
1
 62
7
  6
CONTINUOUS
 10
111.494153
 20
160.126690
 40
22.769758
 50
-104.278365
 51
-102.187287
  0
ARC
  8
1
 62
7
  6
CONTINUOUS
 10
72.415047
 20
6.546675
 40
135.704208
 50
75.724170
 51
76.075794
  0
ARC
  8
1
 62
7
  6
CONTINUOUS
 10
100.977271
 20
121.752526
 40
17.010531
 50
76.075794
 51
78.871930
  0
ARC
  8
1
 62
7
  6
CONTINUOUS
 10
102.541010
 20
129.702350
 40
8.908372
 50
78.871930
 51
84.184149
  0
ARC
  8
1
 62
7
  6
CONTINUOUS
 10
102.729071
 20
131.548701
 40
7.052469
 50
84.184149
 51
87.689798
  0
ARC
  8
1
 62
7
  6
CONTINUOUS
 10
102.242735
 20
119.493512
 40
19.117463
 50
87.689798
 51
88.986204
  0
ARC
  8
1
 62
7
  6
CONTINUOUS
 10
102.279757
 20
121.585656
 40
17.024992
 50
88.986204
 51
90.445654
  0
ARC
  8
1
 62
7
  6
CONTINUOUS
 10
101.674311
 20
318.648256
 40
180.038745
 50
-89.987639
 51
-89.849464
  0
ARC
  8
1
 62
7
  6
CONTINUOUS
 10
101.708339
 20
160.309411
 40
21.699896
 50
-91.133227
 51
-89.987288
  0
ARC
  8
1
 62
7
  6
CONTINUOUS
 10
101.671490
 20
156.399095
 40
17.789662
 50
-92.771542
 51
-91.263647
  0
ARC
  8
1
 62
7
  6
CONTINUOUS
 10
102.173776
 20
166.771932
 40
28.174653
 50
-93.723218
 51
-92.771814
  0
ARC
  8
1
 62
7
  6
CONTINUOUS
 10
104.770593
 20
206.676238
 40
68.163365
 50
-94.116418
 51
-93.723287
  0
ARC
  8
1
 62
7
  6
CONTINUOUS
 10
88.268717
 20
-22.614174
 40
161.720094
 50
85.883549
 51
86.049211
  0
ARC
  8
1
 62
7
  6
CONTINUOUS
 10
96.864939
 20
101.853719
 40
36.955711
 50
86.049211
 51
86.773996
  0
ARC
  8
1
 62
7
  6
CONTINUOUS
 10
97.448554
 20
112.208130
 40
26.584865
 50
86.773996
 51
88.191986
  0
ARC
  8
1
 62
7
  6
CONTINUOUS
 10
96.927797
 20
95.710876
 40
43.090337
 50
88.191986
 51
89.067107
  0
ARC
  8
1
 62
7
  6
CONTINUOUS
 10
96.934231
 20
96.105947
 40
42.695213
 50
89.067107
 51
89.950724
  0
ARC
  8
1
 62
7
  6
CONTINUOUS
 10
96.875998
 20
28.395315
 40
110.405870
 50
89.950724
 51
90.292543
  0
ARC
  8
1
 62
7
  6
CONTINUOUS
 10
96.860325
 20
31.464866
 40
107.336279
 50
90.292543
 51
90.644167
  0
ARC
  8
1
 62
7
  6
CONTINUOUS
 10
100.660537
 20
-377.884176
 40
516.702797
 50
90.555216
 51
90.666246
  0
ARC
  8
1
 62
7
  6
CONTINUOUS
 10
102.369455
 20
-524.841019
 40
663.669576
 50
90.666246
 51
90.752663
  0
ARC
  8
1
 62
7
  6
CONTINUOUS
 10
105.849860
 20
-789.768466
 40
928.619884
 50
90.752663
 51
90.814409
  0
ARC
  8
1
 62
7
  6
CONTINUOUS
 10
114.635306
 20
-1407.805428
 40
1546.719285
 50
90.814409
 51
90.851475
  0
ARC
  8
1
 62
7
  6
CONTINUOUS
 10
160.621927
 20
-4502.017685
 40
4641.273253
 50
90.851475
 51
90.863827
  0
ARC
  8
1
 62
7
  6
CONTINUOUS
 10
105.690465
 20
249.670662
 40
116.048595
 50
-87.862945
 51
-87.550690
  0
ARC
  8
1
 62
7
  6
CONTINUOUS
 10
108.580540
 20
172.215121
 40
38.539154
 50
-88.801668
 51
-87.862570
  0
ARC
  8
1
 62
7
  6
CONTINUOUS
 10
108.905784
 20
156.655818
 40
22.976452
 50
-90.372960
 51
-88.801110
  0
ARC
  8
1
 62
7
  6
CONTINUOUS
 10
108.862223
 20
149.978822
 40
16.299314
 50
-92.583349
 51
-90.372617
  0
ARC
  8
1
 62
7
  6
CONTINUOUS
 10
108.696752
 20
146.308944
 40
12.625708
 50
-95.433999
 51
-92.583841
  0
ARC
  8
1
 62
7
  6
CONTINUOUS
 10
108.667632
 20
145.789020
 40
12.105380
 50
-99.480406
 51
-95.529831
  0
ARC
  8
1
 62
7
  6
CONTINUOUS
 10
108.965347
 20
147.572573
 40
13.913610
 50
-102.926841
 51
-99.479910
  0
ARC
  8
1
 62
7
  6
CONTINUOUS
 10
109.488941
 20
149.855689
 40
16.255995
 50
-105.884295
 51
-102.925343
  0
ARC
  8
1
 62
7
  6
CONTINUOUS
 10
110.327263
 20
152.804022
 40
19.321195
 50
-108.376067
 51
-105.882417
  0
ARC
  8
1
 62
7
  6
CONTINUOUS
 10
111.631894
 20
156.733709
 40
23.461787
 50
-110.426219
 51
-108.374261
  0
ARC
  8
1
 62
7
  6
CONTINUOUS
 10
114.427284
 20
164.249682
 40
31.480767
 50
-111.268764
 51
-110.419924
  0
ARC
  8
1
 62
7
  6
CONTINUOUS
 10
122.444604
 20
184.845626
 40
53.582132
 50
-111.766890
 51
-111.268992
  0
ARC
  8
1
 62
7
  6
CONTINUOUS
 10
170.804190
 20
305.954979
 40
183.989665
 50
-111.911852
 51
-111.767024
  0
ARC
  8
1
 62
7
  6
CONTINUOUS
 10
54.709864
 20
17.334227
 40
127.104904
 50
68.088077
 51
68.297544
  0
ARC
  8
1
 62
7
  6
CONTINUOUS
 10
84.270819
 20
91.608360
 40
47.164319
 50
68.297544
 51
68.861777
  0
ARC
  8
1
 62
7
  6
CONTINUOUS
 10
88.418431
 20
102.335834
 40
35.662956
 50
68.861777
 51
69.657761
  0
ARC
  8
1
 62
7
  6
CONTINUOUS
 10
79.368783
 20
77.926774
 40
61.695595
 50
69.657761
 51
70.118098
  0
ARC
  8
1
 62
7
  6
CONTINUOUS
 10
79.749492
 20
78.979511
 40
60.576134
 50
70.118098
 51
70.587365
  0
ARC
  8
1
 62
7
  6
CONTINUOUS
 10
29.020175
 20
-64.972862
 40
213.205584
 50
70.587365
 51
70.720859
  0
ARC
  8
1
 62
7
  6
CONTINUOUS
 10
33.629535
 20
-51.795219
 40
199.245052
 50
70.720859
 51
70.863926
  0
ARC
  8
1
 62
7
  6
CONTINUOUS
 10
-68.978860
 20
-347.508322
 40
512.254192
 50
70.863926
 51
70.941016
  0
ARC
  8
1
 62
7
  6
CONTINUOUS
 10
87.536330
 20
105.529190
 40
32.942193
 50
70.941016
 51
72.139807
  0
ARC
  8
1
 62
7
  6
CONTINUOUS
 10
89.183119
 20
110.639884
 40
27.572733
 50
72.139807
 51
73.569068
  0
ARC
  8
1
 62
7
  6
CONTINUOUS
 10
92.665657
 20
122.448991
 40
15.260825
 50
73.569068
 51
76.142823
  0
ARC
  8
1
 62
7
  6
CONTINUOUS
 10
93.008307
 20
123.838029
 40
13.830149
 50
76.142823
 51
78.973147
  0
ARC
  8
1
 62
7
  6
CONTINUOUS
 10
93.467346
 20
126.193683
 40
11.430185
 50
78.973147
 51
83.964434
  0
ARC
  8
1
 62
7
  6
CONTINUOUS
 10
92.635850
 20
118.329491
 40
19.338213
 50
83.964434
 51
86.923009
  0
ARC
  8
1
 62
7
  6
CONTINUOUS
 10
92.627751
 20
118.178816
 40
19.489105
 50
86.923009
 51
89.874572
  0
ARC
  8
1
 62
7
  6
CONTINUOUS
 10
92.536729
 20
76.600209
 40
61.067813
 50
89.874572
 51
90.821196
  0
ARC
  8
1
 62
7
  6
CONTINUOUS
 10
92.503661
 20
78.907270
 40
58.760514
 50
90.821196
 51
91.807889
  0
ARC
  8
1
 62
7
  6
CONTINUOUS
 10
105.692356
 20
249.034388
 40
116.411909
 50
-87.870535
 51
-87.559270
  0
ARC
  8
1
 62
7
  6
CONTINUOUS
 10
108.581131
 20
171.337534
 40
38.661371
 50
-88.806261
 51
-87.870166
  0
ARC
  8
1
 62
7
  6
CONTINUOUS
 10
108.906123
 20
155.730573
 40
23.051026
 50
-90.372458
 51
-88.805712
  0
ARC
  8
1
 62
7
  6
CONTINUOUS
 10
108.862492
 20
149.033444
 40
16.353756
 50
-92.575540
 51
-90.372124
  0
ARC
  8
1
 62
7
  6
CONTINUOUS
 10
108.697023
 20
145.352452
 40
12.669046
 50
-95.416585
 51
-92.576035
  0
ARC
  8
1
 62
7
  6
CONTINUOUS
 10
108.666130
 20
144.814523
 40
12.130619
 50
-99.453778
 51
-95.511162
  0
ARC
  8
1
 62
7
  6
CONTINUOUS
 10
108.955710
 20
146.554353
 40
13.894384
 50
-102.905118
 51
-99.453267
  0
ARC
  8
1
 62
7
  6
CONTINUOUS
 10
109.461061
 20
148.761803
 40
16.158940
 50
-105.880391
 51
-102.903632
  0
ARC
  8
1
 62
7
  6
CONTINUOUS
 10
110.261700
 20
151.578399
 40
19.087120
 50
-108.402758
 51
-105.878522
  0
ARC
  8
1
 62
7
  6
CONTINUOUS
 10
111.488828
 20
155.269001
 40
22.976385
 50
-110.496324
 51
-108.400938
  0
ARC
  8
1
 62
7
  6
CONTINUOUS
 10
114.326165
 20
162.863005
 40
31.083134
 50
-111.353704
 51
-110.493925
  0
ARC
  8
1
 62
7
  6
CONTINUOUS
 10
123.458572
 20
186.221079
 40
56.163016
 50
-111.829001
 51
-111.353936
  0
ARC
  8
1
 62
7
  6
CONTINUOUS
 10
214.963563
 20
414.662455
 40
302.249639
 50
-111.917309
 51
-111.829143
  0
ARC
  8
1
 62
7
  6
CONTINUOUS
 10
69.027286
 20
51.951566
 40
88.719140
 50
68.082607
 51
68.382688
  0
ARC
  8
1
 62
7
  6
CONTINUOUS
 10
87.483820
 20
98.526327
 40
38.620717
 50
68.382688
 51
69.071607
  0
ARC
  8
1
 62
7
  6
CONTINUOUS
 10
90.086576
 20
105.332152
 40
31.334182
 50
69.071607
 51
69.977298
  0
ARC
  8
1
 62
7
  6
CONTINUOUS
 10
74.497113
 20
62.553199
 40
76.865162
 50
69.977298
 51
70.346697
  0
ARC
  8
1
 62
7
  6
CONTINUOUS
 10
67.977921
 20
44.298939
 40
96.248605
 50
70.346697
 51
70.642007
  0
ARC
  8
1
 62
7
  6
CONTINUOUS
 10
175.982427
 20
351.016371
 40
228.929159
 50
-109.540168
 51
-109.415831
  0
ARC
  8
1
 62
7
  6
CONTINUOUS
 10
121.757194
 20
198.228940
 40
66.804593
 50
-109.967209
 51
-109.540337
  0
ARC
  8
1
 62
7
  6
CONTINUOUS
 10
140.048021
 20
247.937072
 40
119.770870
 50
-110.403850
 51
-110.070962
  0
ARC
  8
1
 62
7
  6
CONTINUOUS
 10
75.453537
 20
74.283644
 40
65.507192
 50
69.596092
 51
70.204855
  0
ARC
  8
1
 62
7
  6
CONTINUOUS
 10
88.984343
 20
111.876900
 40
25.553023
 50
70.204855
 51
71.761348
  0
ARC
  8
1
 62
7
  6
CONTINUOUS
 10
92.082264
 20
121.277900
 40
15.654745
 50
71.761348
 51
74.290414
  0
ARC
  8
1
 62
7
  6
CONTINUOUS
 10
93.289747
 20
125.570900
 40
11.195164
 50
74.290414
 51
77.810346
  0
ARC
  8
1
 62
7
  6
CONTINUOUS
 10
93.507264
 20
126.577838
 40
10.165000
 50
77.810346
 51
83.408466
  0
ARC
  8
1
 62
7
  6
CONTINUOUS
 10
92.892191
 20
121.255033
 40
15.523224
 50
83.408466
 51
87.089302
  0
ARC
  8
1
 62
7
  6
CONTINUOUS
 10
92.765117
 20
118.755775
 40
18.025711
 50
87.089302
 51
90.282748
  0
ARC
  8
1
 62
7
  6
CONTINUOUS
 10
92.892430
 20
92.957259
 40
43.824541
 50
90.282748
 51
91.605223
  0
ARC
  8
1
 62
7
  6
CONTINUOUS
 10
93.454979
 20
72.883257
 40
63.906424
 50
91.605223
 51
92.515757
  0
ARC
  8
1
 62
7
  6
CONTINUOUS
 10
106.688436
 20
241.234651
 40
110.077868
 50
-88.267066
 51
-87.937624
  0
ARC
  8
1
 62
7
  6
CONTINUOUS
 10
108.912123
 20
167.725910
 40
36.535501
 50
-89.257775
 51
-88.266610
  0
ARC
  8
1
 62
7
  6
CONTINUOUS
 10
109.103266
 20
152.951356
 40
21.759710
 50
-90.917215
 51
-89.257086
  0
ARC
  8
1
 62
7
  6
CONTINUOUS
 10
109.001617
 20
146.609776
 40
15.417316
 50
-93.253564
 51
-90.916763
  0
ARC
  8
1
 62
7
  6
CONTINUOUS
 10
108.803810
 20
143.128214
 40
11.930139
 50
-96.268860
 51
-93.254082
  0
ARC
  8
1
 62
7
  6
CONTINUOUS
 10
108.787497
 20
142.784043
 40
11.586264
 50
-100.118876
 51
-96.374517
  0
ARC
  8
1
 62
7
  6
CONTINUOUS
 10
109.171973
 20
144.938750
 40
13.775004
 50
-103.276923
 51
-100.118598
  0
ARC
  8
1
 62
7
  6
CONTINUOUS
 10
109.885138
 20
147.962762
 40
16.881973
 50
-105.860536
 51
-103.275617
  0
ARC
  8
1
 62
7
  6
CONTINUOUS
 10
111.154339
 20
152.432168
 40
21.528097
 50
-107.889624
 51
-105.858961
  0
ARC
  8
1
 62
7
  6
CONTINUOUS
 10
113.519409
 20
159.761260
 40
29.229340
 50
-109.383004
 51
-107.888325
  0
ARC
  8
1
 62
7
  6
CONTINUOUS
 10
116.463605
 20
168.197786
 40
38.164824
 50
-110.097121
 51
-109.349070
  0
ARC
  8
1
 62
7
  6
CONTINUOUS
 10
118.926710
 20
174.929166
 40
45.332694
 50
-110.725999
 51
-110.097304
  0
ARC
  8
1
 62
7
  6
CONTINUOUS
 10
122.739687
 20
185.005728
 40
56.106546
 50
-111.233618
 51
-110.726128
  0
ARC
  8
1
 62
7
  6
CONTINUOUS
 10
129.195811
 20
201.621397
 40
73.932426
 50
-111.618735
 51
-111.233699
  0
ARC
  8
1
 62
7
  6
CONTINUOUS
 10
142.022924
 20
233.987865
 40
108.747984
 50
-111.880649
 51
-111.618773
  0
ARC
  8
1
 62
7
  6
CONTINUOUS
 10
120.690079
 20
181.071933
 40
51.693851
 50
-112.490131
 51
-111.796789
  0
ARC
  8
1
 62
7
  6
CONTINUOUS
 10
109.606794
 20
154.301712
 40
22.720001
 50
-114.067691
 51
-112.489901
  0
ARC
  8
1
 62
7
  6
CONTINUOUS
 10
106.272786
 20
146.837123
 40
14.544691
 50
-116.532205
 51
-114.067740
  0
ARC
  8
1
 62
7
  6
CONTINUOUS
 10
104.570945
 20
143.427890
 40
10.734293
 50
-119.877531
 51
-116.533797
  0
ARC
  8
1
 62
7
  6
CONTINUOUS
 10
103.514413
 20
141.587396
 40
8.612106
 50
-124.071177
 51
-119.882369
  0
ARC
  8
1
 62
7
  6
CONTINUOUS
 10
105.264938
 20
144.057974
 40
11.639460
 50
-127.736486
 51
-124.395871
  0
ARC
  8
1
 62
7
  6
CONTINUOUS
 10
169.480651
 20
227.061091
 40
116.583137
 50
-128.063096
 51
-127.728379
  0
ARC
  8
1
 62
7
  6
CONTINUOUS
 10
88.711980
 20
123.920473
 40
14.419021
 50
51.926527
 51
54.608950
  0
ARC
  8
1
 62
7
  6
CONTINUOUS
 10
93.312899
 20
130.396736
 40
6.474813
 50
54.608950
 51
60.474341
  0
ARC
  8
1
 62
7
  6
CONTINUOUS
 10
94.534608
 20
132.553845
 40
3.995763
 50
60.474341
 51
69.834067
  0
ARC
  8
1
 62
7
  6
CONTINUOUS
 10
94.727330
 20
133.078613
 40
3.436725
 50
69.834067
 51
77.120936
  0
ARC
  8
1
 62
7
  6
CONTINUOUS
 10
94.126068
 20
130.448949
 40
6.134251
 50
77.120936
 51
81.257210
  0
ARC
  8
1
 62
7
  6
CONTINUOUS
 10
94.125546
 20
130.445553
 40
6.137686
 50
81.257210
 51
85.451042
  0
ARC
  8
1
 62
7
  6
CONTINUOUS
 10
92.966631
 20
115.879282
 40
20.749988
 50
85.451042
 51
86.703465
  0
ARC
  8
1
 62
7
  6
CONTINUOUS
 10
93.162367
 20
119.277542
 40
17.346095
 50
86.703465
 51
88.204524
  0
ARC
  8
1
 62
7
  6
CONTINUOUS
 10
78.587710
 20
-241.342894
 40
378.260254
 50
87.709417
 51
87.803235
  0
ARC
  8
1
 62
7
  6
CONTINUOUS
 10
74.949833
 20
-336.179114
 40
473.166221
 50
87.803235
 51
87.877609
  0
ARC
  8
1
 62
7
  6
CONTINUOUS
 10
68.330526
 20
-514.791271
 40
651.900991
 50
87.877609
 51
87.931250
  0
ARC
  8
1
 62
7
  6
CONTINUOUS
 10
53.317493
 20
-930.409292
 40
1067.790075
 50
87.931250
 51
87.963860
  0
ARC
  8
1
 62
7
  6
CONTINUOUS
 10
-23.143521
 20
-3081.071849
 40
3219.811386
 50
87.963860
 51
87.974652
  0
ARC
  8
1
 62
7
  6
CONTINUOUS
 10
106.733990
 20
243.162610
 40
113.002392
 50
-88.334830
 51
-88.014132
  0
ARC
  8
1
 62
7
  6
CONTINUOUS
 10
108.926962
 20
167.718529
 40
37.526445
 50
-89.298951
 51
-88.334443
  0
ARC
  8
1
 62
7
  6
CONTINUOUS
 10
109.112151
 20
152.565937
 40
22.372722
 50
-90.912765
 51
-89.298384
  0
ARC
  8
1
 62
7
  6
CONTINUOUS
 10
109.008530
 20
146.067474
 40
15.873432
 50
-93.182774
 51
-90.912451
  0
ARC
  8
1
 62
7
  6
CONTINUOUS
 10
108.810355
 20
142.501275
 40
12.301731
 50
-96.109432
 51
-93.183384
  0
ARC
  8
1
 62
7
  6
CONTINUOUS
 10
108.777542
 20
142.011370
 40
11.811133
 50
-99.881493
 51
-96.204090
  0
ARC
  8
1
 62
7
  6
CONTINUOUS
 10
109.083459
 20
143.768457
 40
13.594652
 50
-103.084285
 51
-99.880832
  0
ARC
  8
1
 62
7
  6
CONTINUOUS
 10
109.606060
 20
146.018724
 40
15.904807
 50
-105.827789
 51
-103.082874
  0
ARC
  8
1
 62
7
  6
CONTINUOUS
 10
110.435053
 20
148.944915
 40
18.946158
 50
-108.132847
 51
-105.826134
  0
ARC
  8
1
 62
7
  6
CONTINUOUS
 10
111.729174
 20
152.898595
 40
23.106246
 50
-110.020149
 51
-108.131316
  0
ARC
  8
1
 62
7
  6
CONTINUOUS
 10
114.914689
 20
161.634577
 40
32.404896
 50
-110.903860
 51
-110.024133
  0
ARC
  8
1
 62
7
  6
CONTINUOUS
 10
127.220606
 20
193.852812
 40
66.893304
 50
-111.329770
 51
-110.904246
  0
ARC
  8
1
 62
7
  6
CONTINUOUS
 10
-226.318506
 20
-711.534093
 40
905.071382
 50
68.670144
 51
68.701586
  0
ARC
  8
1
 62
7
  6
CONTINUOUS
 10
81.234260
 20
77.362490
 40
58.344436
 50
68.701586
 51
69.189789
  0
ARC
  8
1
 62
7
  6
CONTINUOUS
 10
91.183616
 20
103.540299
 40
30.339662
 50
69.189789
 51
70.130686
  0
ARC
  8
1
 62
7
  6
CONTINUOUS
 10
88.891049
 20
97.196540
 40
37.084967
 50
70.130686
 51
71.078679
  0
ARC
  8
1
 62
7
  6
CONTINUOUS
 10
111.807926
 20
163.735897
 40
33.290320
 50
-110.153295
 51
-109.096662
  0
ARC
  8
1
 62
7
  6
CONTINUOUS
 10
104.767470
 20
144.553919
 40
12.857103
 50
-112.878684
 51
-110.150746
  0
ARC
  8
1
 62
7
  6
CONTINUOUS
 10
102.838307
 20
139.982522
 40
7.895315
 50
-117.304543
 51
-112.877788
  0
ARC
  8
1
 62
7
  6
CONTINUOUS
 10
101.852629
 20
138.071226
 40
5.744824
 50
-123.405919
 51
-117.313475
  0
ARC
  8
1
 62
7
  6
CONTINUOUS
 10
102.630468
 20
139.142648
 40
7.067739
 50
-129.536096
 51
-123.887809
  0
ARC
  8
1
 62
7
  6
CONTINUOUS
 10
113.455336
 20
152.271923
 40
24.084074
 50
-131.187945
 51
-129.514134
  0
ARC
  8
1
 62
7
  6
CONTINUOUS
 10
85.582637
 20
120.423212
 40
18.238825
 50
48.804740
 51
51.001020
  0
ARC
  8
1
 62
7
  6
CONTINUOUS
 10
93.127270
 20
129.740397
 40
6.250021
 50
51.001020
 51
57.272292
  0
ARC
  8
1
 62
7
  6
CONTINUOUS
 10
94.602620
 20
132.036047
 40
3.521162
 50
57.272292
 51
68.167734
  0
ARC
  8
1
 62
7
  6
CONTINUOUS
 10
94.819944
 20
132.578510
 40
2.936787
 50
68.167734
 51
76.650875
  0
ARC
  8
1
 62
7
  6
CONTINUOUS
 10
94.209758
 20
130.007089
 40
5.579613
 50
76.650875
 51
81.189746
  0
ARC
  8
1
 62
7
  6
CONTINUOUS
 10
94.237976
 20
130.189156
 40
5.395372
 50
81.189746
 51
85.970403
  0
ARC
  8
1
 62
7
  6
CONTINUOUS
 10
93.008547
 20
112.737047
 40
22.890732
 50
85.970403
 51
87.110929
  0
ARC
  8
1
 62
7
  6
CONTINUOUS
 10
93.364575
 20
119.791785
 40
15.827016
 50
87.110929
 51
88.764438
  0
ARC
  8
1
 62
7
  6
CONTINUOUS
 10
102.346889
 20
400.574077
 40
265.099822
 50
-92.002213
 51
-91.867910
  0
ARC
  8
1
 62
7
  6
CONTINUOUS
 10
104.622910
 20
465.653648
 40
330.219181
 50
-92.109051
 51
-92.002365
  0
ARC
  8
1
 62
7
  6
CONTINUOUS
 10
109.082075
 20
586.713791
 40
451.361421
 50
-92.186602
 51
-92.109171
  0
ARC
  8
1
 62
7
  6
CONTINUOUS
 10
120.106278
 20
875.414058
 40
740.272095
 50
-92.233644
 51
-92.186685
  0
ARC
  8
1
 62
7
  6
CONTINUOUS
 10
177.115846
 20
2336.998784
 40
2202.968236
 50
-92.249424
 51
-92.233686
  0
ARC
  8
1
 62
7
  6
CONTINUOUS
 10
104.278093
 20
229.969002
 40
101.441226
 50
-86.818130
 51
-86.398743
  0
ARC
  8
1
 62
7
  6
CONTINUOUS
 10
108.047170
 20
162.156809
 40
33.524369
 50
-88.082355
 51
-86.816954
  0
ARC
  8
1
 62
7
  6
CONTINUOUS
 10
108.505456
 20
148.449415
 40
19.809316
 50
-90.211103
 51
-88.080446
  0
ARC
  8
1
 62
7
  6
CONTINUOUS
 10
108.483267
 20
142.536371
 40
13.896231
 50
-93.228585
 51
-90.209440
  0
ARC
  8
1
 62
7
  6
CONTINUOUS
 10
108.300531
 20
139.296194
 40
10.650905
 50
-97.148832
 51
-93.228801
  0
ARC
  8
1
 62
7
  6
CONTINUOUS
 10
108.327070
 20
139.276553
 40
10.634758
 50
-101.467155
 51
-97.303869
  0
ARC
  8
1
 62
7
  6
CONTINUOUS
 10
108.977983
 20
142.483239
 40
13.906841
 50
-104.665833
 51
-101.468850
  0
ARC
  8
1
 62
7
  6
CONTINUOUS
 10
110.533130
 20
148.427192
 40
20.050866
 50
-106.896803
 51
-104.664639
  0
ARC
  8
1
 62
7
  6
CONTINUOUS
 10
114.865702
 20
162.694498
 40
34.961508
 50
-108.183657
 51
-106.894768
  0
ARC
  8
1
 62
7
  6
CONTINUOUS
 10
142.319217
 20
246.286442
 40
122.946213
 50
-108.550526
 51
-108.182019
  0
ARC
  8
1
 62
7
  6
CONTINUOUS
 10
126.391150
 20
199.662028
 40
73.677359
 50
-109.038182
 51
-108.342603
  0
ARC
  8
1
 62
7
  6
CONTINUOUS
 10
109.603810
 20
151.017843
 40
22.217944
 50
-111.333674
 51
-109.034439
  0
ARC
  8
1
 62
7
  6
CONTINUOUS
 10
106.165545
 20
142.218309
 40
12.770538
 50
-115.295376
 51
-111.327360
  0
ARC
  8
1
 62
7
  6
CONTINUOUS
 10
104.476373
 20
138.644825
 40
8.817932
 50
-120.992770
 51
-115.293337
  0
ARC
  8
1
 62
7
  6
CONTINUOUS
 10
103.437749
 20
136.912603
 40
6.798198
 50
-128.392386
 51
-121.006520
  0
ARC
  8
1
 62
7
  6
CONTINUOUS
 10
104.395893
 20
138.008805
 40
8.252722
 50
-135.498206
 51
-128.879634
  0
ARC
  8
1
 62
7
  6
CONTINUOUS
 10
113.583718
 20
147.053000
 40
21.145106
 50
-138.087755
 51
-135.469643
  0
ARC
  8
1
 62
7
  6
CONTINUOUS
 10
63.128822
 20
101.762409
 40
46.655589
 50
41.912733
 51
43.095266
  0
ARC
  8
1
 62
7
  6
CONTINUOUS
 10
89.531828
 20
126.465813
 40
10.497922
 50
43.095266
 51
48.231127
  0
ARC
  8
1
 62
7
  6
CONTINUOUS
 10
92.958800
 20
130.302866
 40
5.353302
 50
48.231127
 51
57.989795
  0
ARC
  8
1
 62
7
  6
CONTINUOUS
 10
93.535623
 20
131.225610
 40
4.265101
 50
57.989795
 51
71.380119
  0
ARC
  8
1
 62
7
  6
CONTINUOUS
 10
92.475394
 20
128.078816
 40
7.585703
 50
71.380119
 51
79.086727
  0
ARC
  8
1
 62
7
  6
CONTINUOUS
 10
92.291187
 20
127.123437
 40
8.558678
 50
79.086727
 51
86.185868
  0
ARC
  8
1
 62
7
  6
CONTINUOUS
 10
90.842067
 20
105.386956
 40
30.343411
 50
86.185868
 51
88.255034
  0
ARC
  8
1
 62
7
  6
CONTINUOUS
 10
90.911615
 20
107.669873
 40
28.059434
 50
88.255034
 51
90.534495
  0
ARC
  8
1
 62
7
  6
CONTINUOUS
 10
104.262109
 20
225.201949
 40
97.682942
 50
-86.686685
 51
-86.250598
  0
ARC
  8
1
 62
7
  6
CONTINUOUS
 10
108.043178
 20
159.877018
 40
32.248677
 50
-88.002018
 51
-86.685312
  0
ARC
  8
1
 62
7
  6
CONTINUOUS
 10
108.503687
 20
146.654949
 40
19.018591
 50
-90.219677
 51
-87.999761
  0
ARC
  8
1
 62
7
  6
CONTINUOUS
 10
108.481320
 20
140.944462
 40
13.308060
 50
-93.368546
 51
-90.217640
  0
ARC
  8
1
 62
7
  6
CONTINUOUS
 10
108.297195
 20
137.816121
 40
10.174305
 50
-97.466632
 51
-93.368599
  0
ARC
  8
1
 62
7
  6
CONTINUOUS
 10
108.349568
 20
137.971200
 40
10.334923
 50
-101.919057
 51
-97.642799
  0
ARC
  8
1
 62
7
  6
CONTINUOUS
 10
109.172134
 20
141.865691
 40
14.315335
 50
-105.022459
 51
-101.921074
  0
ARC
  8
1
 62
7
  6
CONTINUOUS
 10
111.470288
 20
150.431649
 40
23.184221
 50
-106.950231
 51
-105.020820
  0
ARC
  8
1
 62
7
  6
CONTINUOUS
 10
121.462578
 20
183.225351
 40
57.466473
 50
-107.732204
 51
-106.947741
  0
ARC
  8
1
 62
7
  6
CONTINUOUS
 10
62.499915
 20
-1.186242
 40
136.141976
 50
72.269725
 51
72.603048
  0
ARC
  8
1
 62
7
  6
CONTINUOUS
 10
75.027372
 20
38.796375
 40
94.242729
 50
72.603048
 51
73.139587
  0
ARC
  8
1
 62
7
  6
CONTINUOUS
 10
110.355416
 20
154.962532
 40
27.176765
 50
-108.961104
 51
-107.106000
  0
ARC
  8
1
 62
7
  6
CONTINUOUS
 10
105.760046
 20
141.593469
 40
13.039960
 50
-112.779879
 51
-108.952039
  0
ARC
  8
1
 62
7
  6
CONTINUOUS
 10
103.942472
 20
137.267773
 40
8.347923
 50
-118.681264
 51
-112.773512
  0
ARC
  8
1
 62
7
  6
CONTINUOUS
 10
102.918008
 20
135.387918
 40
6.207043
 50
-135.360097
 51
-118.713067
  0
ARC
  8
1
 62
7
  6
CONTINUOUS
 10
110.266732
 20
142.916240
 40
16.726812
 50
-137.996058
 51
-134.698619
  0
ARC
  8
1
 62
7
  6
CONTINUOUS
 10
34.186816
 20
74.387657
 40
85.666158
 50
42.012113
 51
42.656844
  0
ARC
  8
1
 62
7
  6
CONTINUOUS
 10
88.649385
 20
124.568368
 40
11.610265
 50
42.656844
 51
47.325403
  0
ARC
  8
1
 62
7
  6
CONTINUOUS
 10
92.682637
 20
128.943051
 40
5.660058
 50
47.325403
 51
56.623805
  0
ARC
  8
1
 62
7
  6
CONTINUOUS
 10
93.365642
 20
129.979819
 40
4.418533
 50
56.623805
 51
69.696939
  0
ARC
  8
1
 62
7
  6
CONTINUOUS
 10
92.185952
 20
126.791228
 40
7.818354
 50
69.696939
 51
77.235328
  0
ARC
  8
1
 62
7
  6
CONTINUOUS
 10
91.992127
 20
125.935662
 40
8.695601
 50
77.235328
 51
84.257876
  0
ARC
  8
1
 62
7
  6
CONTINUOUS
 10
89.778308
 20
103.919848
 40
30.822441
 50
84.257876
 51
86.300706
  0
ARC
  8
1
 62
7
  6
CONTINUOUS
 10
89.946690
 20
106.524183
 40
28.212668
 50
86.300706
 51
88.571816
  0
ARC
  8
1
 62
7
  6
CONTINUOUS
 10
110.765758
 20
267.441250
 40
141.213210
 50
-90.415491
 51
-90.047024
  0
ARC
  8
1
 62
7
  6
CONTINUOUS
 10
110.080878
 20
173.066016
 40
46.835492
 50
-91.524009
 51
-90.414895
  0
ARC
  8
1
 62
7
  6
CONTINUOUS
 10
109.575835
 20
154.099212
 40
27.861965
 50
-93.382250
 51
-91.523130
  0
ARC
  8
1
 62
7
  6
CONTINUOUS
 10
109.095416
 20
145.973225
 40
19.721789
 50
-96.000353
 51
-93.381750
  0
ARC
  8
1
 62
7
  6
CONTINUOUS
 10
108.629610
 20
141.539314
 40
15.263477
 50
-99.379262
 51
-96.001268
  0
ARC
  8
1
 62
7
  6
CONTINUOUS
 10
108.494180
 20
140.597345
 40
14.312044
 50
-101.961266
 51
-99.458896
  0
ARC
  8
1
 62
7
  6
CONTINUOUS
 10
108.760670
 20
141.855308
 40
15.597924
 50
-104.261541
 51
-101.961230
  0
ARC
  8
1
 62
7
  6
CONTINUOUS
 10
109.134418
 20
143.325999
 40
17.115362
 50
-106.362211
 51
-104.261298
  0
ARC
  8
1
 62
7
  6
CONTINUOUS
 10
109.638492
 20
145.043319
 40
18.905133
 50
-108.267842
 51
-106.361831
  0
ARC
  8
1
 62
7
  6
CONTINUOUS
 10
110.308476
 20
147.073108
 40
21.042637
 50
-112.963665
 51
-108.267738
  0
ARC
  8
1
 62
7
  6
CONTINUOUS
 10
108.728916
 20
143.300130
 40
16.952406
 50
-116.720706
 51
-113.023262
  0
ARC
  8
1
 62
7
  6
CONTINUOUS
 10
107.630125
 20
141.117967
 40
14.509216
 50
-121.034190
 51
-116.719687
  0
ARC
  8
1
 62
7
  6
CONTINUOUS
 10
106.690284
 20
139.555298
 40
12.685693
 50
-125.971900
 51
-121.035641
  0
ARC
  8
1
 62
7
  6
CONTINUOUS
 10
105.924033
 20
138.497763
 40
11.379738
 50
-131.504951
 51
-125.977201
  0
ARC
  8
1
 62
7
  6
CONTINUOUS
 10
108.693386
 20
141.491914
 40
15.457522
 50
-136.047542
 51
-131.837757
  0
ARC
  8
1
 62
7
  6
CONTINUOUS
 10
151.212432
 20
182.504270
 40
74.532750
 50
-136.912881
 51
-136.036297
  0
ARC
  8
1
 62
7
  6
CONTINUOUS
 10
77.479203
 20
113.543987
 40
26.423230
 50
43.076089
 51
45.524555
  0
ARC
  8
1
 62
7
  6
CONTINUOUS
 10
88.561026
 20
124.830603
 40
10.605692
 50
45.524555
 51
51.494793
  0
ARC
  8
1
 62
7
  6
CONTINUOUS
 10
91.267181
 20
128.232071
 40
6.259054
 50
51.494793
 51
61.412868
  0
ARC
  8
1
 62
7
  6
CONTINUOUS
 10
91.733939
 20
129.088625
 40
5.283580
 50
61.412868
 51
69.325349
  0
ARC
  8
1
 62
7
  6
CONTINUOUS
 10
90.204953
 20
125.036859
 40
9.614240
 50
69.325349
 51
73.740540
  0
ARC
  8
1
 62
7
  6
CONTINUOUS
 10
90.209228
 20
125.051518
 40
9.598970
 50
73.740540
 51
78.247314
  0
ARC
  8
1
 62
7
  6
CONTINUOUS
 10
84.923001
 20
99.642973
 40
35.551587
 50
78.247314
 51
79.483030
  0
ARC
  8
1
 62
7
  6
CONTINUOUS
 10
86.246391
 20
106.771567
 40
28.301194
 50
79.483030
 51
81.048806
  0
ARC
  8
1
 62
7
  6
CONTINUOUS
 10
110.765758
 20
266.441250
 40
141.213210
 50
-90.415491
 51
-90.047024
  0
ARC
  8
1
 62
7
  6
CONTINUOUS
 10
110.080878
 20
172.066016
 40
46.835492
 50
-91.524009
 51
-90.414895
  0
ARC
  8
1
 62
7
  6
CONTINUOUS
 10
109.575835
 20
153.099212
 40
27.861965
 50
-93.382250
 51
-91.523130
  0
ARC
  8
1
 62
7
  6
CONTINUOUS
 10
109.095416
 20
144.973225
 40
19.721789
 50
-96.000353
 51
-93.381750
  0
ARC
  8
1
 62
7
  6
CONTINUOUS
 10
108.629610
 20
140.539314
 40
15.263477
 50
-99.379262
 51
-96.001268
  0
ARC
  8
1
 62
7
  6
CONTINUOUS
 10
108.494180
 20
139.597345
 40
14.312044
 50
-101.961266
 51
-99.458896
  0
ARC
  8
1
 62
7
  6
CONTINUOUS
 10
108.760670
 20
140.855308
 40
15.597924
 50
-104.261541
 51
-101.961230
  0
ARC
  8
1
 62
7
  6
CONTINUOUS
 10
109.134418
 20
142.325999
 40
17.115362
 50
-106.362211
 51
-104.261298
  0
ARC
  8
1
 62
7
  6
CONTINUOUS
 10
109.638492
 20
144.043319
 40
18.905133
 50
-108.267842
 51
-106.361831
  0
ARC
  8
1
 62
7
  6
CONTINUOUS
 10
110.308476
 20
146.073108
 40
21.042637
 50
-112.963665
 51
-108.267738
  0
ARC
  8
1
 62
7
  6
CONTINUOUS
 10
108.728916
 20
142.300130
 40
16.952406
 50
-116.720706
 51
-113.023262
  0
ARC
  8
1
 62
7
  6
CONTINUOUS
 10
107.630125
 20
140.117967
 40
14.509216
 50
-121.034190
 51
-116.719687
  0
ARC
  8
1
 62
7
  6
CONTINUOUS
 10
106.690284
 20
138.555298
 40
12.685693
 50
-125.971900
 51
-121.035641
  0
ARC
  8
1
 62
7
  6
CONTINUOUS
 10
105.924033
 20
137.497763
 40
11.379738
 50
-131.504951
 51
-125.977201
  0
ARC
  8
1
 62
7
  6
CONTINUOUS
 10
108.693386
 20
140.491914
 40
15.457522
 50
-136.047542
 51
-131.837757
  0
ARC
  8
1
 62
7
  6
CONTINUOUS
 10
151.212432
 20
181.504270
 40
74.532750
 50
-136.912881
 51
-136.036297
  0
ARC
  8
1
 62
7
  6
CONTINUOUS
 10
77.479203
 20
112.543987
 40
26.423230
 50
43.076089
 51
45.524555
  0
ARC
  8
1
 62
7
  6
CONTINUOUS
 10
88.561026
 20
123.830603
 40
10.605692
 50
45.524555
 51
51.494793
  0
ARC
  8
1
 62
7
  6
CONTINUOUS
 10
91.267181
 20
127.232071
 40
6.259054
 50
51.494793
 51
61.412868
  0
ARC
  8
1
 62
7
  6
CONTINUOUS
 10
91.733939
 20
128.088625
 40
5.283580
 50
61.412868
 51
69.325349
  0
ARC
  8
1
 62
7
  6
CONTINUOUS
 10
90.204953
 20
124.036859
 40
9.614240
 50
69.325349
 51
73.740540
  0
ARC
  8
1
 62
7
  6
CONTINUOUS
 10
90.209228
 20
124.051518
 40
9.598970
 50
73.740540
 51
78.247314
  0
ARC
  8
1
 62
7
  6
CONTINUOUS
 10
84.923001
 20
98.642973
 40
35.551587
 50
78.247314
 51
79.483030
  0
ARC
  8
1
 62
7
  6
CONTINUOUS
 10
86.246391
 20
105.771567
 40
28.301194
 50
79.483030
 51
81.048806
  0
ARC
  8
1
 62
7
  6
CONTINUOUS
 10
11.605590
 20
-891.078963
 40
1033.123806
 50
85.391493
 51
85.407655
  0
ARC
  8
1
 62
7
  6
CONTINUOUS
 10
66.931323
 20
-204.719462
 40
344.538080
 50
85.343017
 51
85.391490
  0
ARC
  8
1
 62
7
  6
CONTINUOUS
 10
78.104571
 20
-67.555415
 40
206.919705
 50
85.262274
 51
85.343012
  0
ARC
  8
1
 62
7
  6
CONTINUOUS
 10
82.970022
 20
-8.848916
 40
148.011932
 50
85.149342
 51
85.262266
  0
ARC
  8
1
 62
7
  6
CONTINUOUS
 10
85.732519
 20
23.703839
 40
115.342172
 50
85.004329
 51
85.149331
  0
ARC
  8
1
 62
7
  6
CONTINUOUS
 10
90.647193
 20
79.408389
 40
59.421274
 50
84.399528
 51
85.047937
  0
ARC
  8
1
 62
7
  6
CONTINUOUS
 10
93.327682
 20
106.742030
 40
31.956515
 50
83.193849
 51
84.399840
  0
ARC
  8
1
 62
7
  6
CONTINUOUS
 10
94.535150
 20
116.857342
 40
21.769390
 50
81.425559
 51
83.194340
  0
ARC
  8
1
 62
7
  6
CONTINUOUS
 10
95.327603
 20
122.112479
 40
16.454840
 50
79.088749
 51
81.425856
  0
ARC
  8
1
 62
7
  6
CONTINUOUS
 10
95.922033
 20
125.202149
 40
13.308507
 50
74.121621
 51
79.083777
  0
ARC
  8
1
 62
7
  6
CONTINUOUS
 10
89.275688
 20
101.447131
 40
37.975708
 50
73.554789
 51
74.282353
  0
ARC
  8
1
 62
7
  6
CONTINUOUS
 10
125.461320
 20
224.038401
 40
89.844553
 50
-106.445163
 51
-106.137660
  0
ARC
  8
1
 62
7
  6
CONTINUOUS
 10
106.192314
 20
157.443682
 40
20.518144
 50
-106.137660
 51
-104.792916
  0
ARC
  8
1
 62
7
  6
CONTINUOUS
 10
103.893938
 20
148.740319
 40
11.516418
 50
-104.792916
 51
-102.401210
  0
ARC
  8
1
 62
7
  6
CONTINUOUS
 10
103.648019
 20
147.621928
 40
10.371309
 50
-102.401210
 51
-98.797199
  0
ARC
  8
1
 62
7
  6
CONTINUOUS
 10
107.121976
 20
170.069583
 40
33.086185
 50
-98.797199
 51
-97.665434
  0
ARC
  8
1
 62
7
  6
CONTINUOUS
 10
114.295161
 20
223.365745
 40
86.862904
 50
-97.665434
 51
-97.233648
  0
ARC
  8
1
 62
7
  6
CONTINUOUS
 10
100.284753
 20
113.703886
 40
23.690455
 50
80.963430
 51
82.546916
  0
ARC
  8
1
 62
7
  6
CONTINUOUS
 10
102.142125
 20
125.383053
 40
11.864518
 50
77.801427
 51
80.963105
  0
ARC
  8
1
 62
7
  6
CONTINUOUS
 10
101.921900
 20
124.659257
 40
12.618659
 50
74.712164
 51
77.518486
  0
ARC
  8
1
 62
7
  6
CONTINUOUS
 10
95.925171
 20
102.715779
 40
35.366780
 50
73.711185
 51
74.714228
  0
ARC
  8
1
 62
7
  6
CONTINUOUS
 10
118.431899
 20
179.736895
 40
44.875386
 50
-106.289424
 51
-105.500181
  0
ARC
  8
1
 62
7
  6
CONTINUOUS
 10
110.059222
 20
149.546371
 40
13.545377
 50
-105.500181
 51
-102.898891
  0
ARC
  8
1
 62
7
  6
CONTINUOUS
 10
108.783718
 20
143.976731
 40
7.831551
 50
-102.898891
 51
-98.426239
  0
ARC
  8
1
 62
7
  6
CONTINUOUS
 10
108.592552
 20
142.686250
 40
6.526988
 50
-98.426239
 51
-93.181031
  0
ARC
  8
1
 62
7
  6
CONTINUOUS
 10
108.831359
 20
146.983141
 40
10.830510
 50
-93.181031
 51
-90.005707
  0
ARC
  8
1
 62
7
  6
CONTINUOUS
 10
108.831406
 20
147.456877
 40
11.304246
 50
-90.005707
 51
-86.942028
  0
ARC
  8
1
 62
7
  6
CONTINUOUS
 10
107.646213
 20
169.642186
 40
33.521191
 50
-86.942028
 51
-85.902480
  0
ARC
  8
1
 62
7
  6
CONTINUOUS
 10
107.521310
 20
171.385734
 40
35.269206
 50
-85.902480
 51
-84.910895
  0
ARC
  8
1
 62
7
  6
CONTINUOUS
 10
78.686572
 20
-20.844491
 40
159.344970
 50
83.734386
 51
83.998960
  0
ARC
  8
1
 62
7
  6
CONTINUOUS
 10
90.294110
 20
84.875253
 40
52.989909
 50
82.939614
 51
83.734586
  0
ARC
  8
1
 62
7
  6
CONTINUOUS
 10
92.914976
 20
106.034829
 40
31.668638
 50
81.611441
 51
82.939896
  0
ARC
  8
1
 62
7
  6
CONTINUOUS
 10
94.248176
 20
115.075395
 40
22.530298
 50
79.746748
 51
81.611565
  0
ARC
  8
1
 62
7
  6
CONTINUOUS
 10
95.157654
 20
120.099832
 40
17.424212
 50
75.722763
 51
79.748744
  0
ARC
  8
1
 62
7
  6
CONTINUOUS
 10
89.863862
 20
99.048975
 40
39.130458
 50
75.092070
 51
75.812300
  0
ARC
  8
1
 62
7
  6
CONTINUOUS
 10
-469.326586
 20
-2001.394074
 40
2212.734599
 50
75.079467
 51
75.092209
  0
ARC
  8
1
 62
7
  6
CONTINUOUS
 10
110.855126
 20
175.948253
 40
40.580831
 50
-104.920645
 51
-104.226065
  0
ARC
  8
1
 62
7
  6
CONTINUOUS
 10
105.813168
 20
156.060677
 40
20.064082
 50
-104.226065
 51
-102.822334
  0
ARC
  8
1
 62
7
  6
CONTINUOUS
 10
105.189255
 20
153.319460
 40
17.252758
 50
-102.822334
 51
-100.623294
  0
ARC
  8
1
 62
7
  6
CONTINUOUS
 10
110.874856
 20
183.632035
 40
48.093937
 50
-100.623294
 51
-99.834123
  0
ARC
  8
1
 62
7
  6
CONTINUOUS
 10
117.393179
 20
221.235562
 40
86.258236
 50
-99.834123
 51
-99.393799
  0
ARC
  8
1
 62
7
  6
CONTINUOUS
 10
94.345763
 20
82.691328
 40
54.190022
 50
79.772499
 51
80.473753
  0
ARC
  8
1
 62
7
  6
CONTINUOUS
 10
99.686260
 20
112.291468
 40
24.111970
 50
78.195463
 51
79.772318
  0
ARC
  8
1
 62
7
  6
CONTINUOUS
 10
99.148426
 20
110.075414
 40
26.391285
 50
76.734083
 51
78.036734
  0
ARC
  8
1
 62
7
  6
CONTINUOUS
 10
76.490655
 20
13.967673
 40
125.133740
 50
76.459606
 51
76.734430
  0
ARC
  8
1
 62
7
  6
CONTINUOUS
 10
116.468833
 20
179.971781
 40
45.616424
 50
-103.540780
 51
-102.787748
  0
ARC
  8
1
 62
7
  6
CONTINUOUS
 10
110.615551
 20
154.182942
 40
19.171668
 50
-102.787748
 51
-101.000280
  0
ARC
  8
1
 62
7
  6
CONTINUOUS
 10
109.257210
 20
147.195063
 40
12.052992
 50
-101.000280
 51
-98.164012
  0
ARC
  8
1
 62
7
  6
CONTINUOUS
 10
109.015339
 20
145.509095
 40
10.349763
 50
-98.164012
 51
-94.737630
  0
ARC
  8
1
 62
7
  6
CONTINUOUS
 10
109.533259
 20
151.758412
 40
16.620505
 50
-94.737630
 51
-92.599677
  0
ARC
  8
1
 62
7
  6
CONTINUOUS
 10
109.582612
 20
152.845403
 40
17.708616
 50
-92.599677
 51
-90.586845
  0
ARC
  8
1
 62
7
  6
CONTINUOUS
 10
109.897475
 20
183.585552
 40
48.450378
 50
-90.586845
 51
-89.849128
  0
ARC
  8
1
 62
7
  6
CONTINUOUS
 10
109.875757
 20
191.833231
 40
56.698085
 50
-89.849128
 51
-89.217711
  0
ARC
  8
1
 62
7
  6
CONTINUOUS
 10
205.761366
 20
84.932834
 40
0.941176
 50
0.000000
 51
55.150095
  0
ARC
  8
1
 62
7
  6
CONTINUOUS
 10
213.290778
 20
84.932834
 40
0.941176
 50
124.849905
 51
180.000000
  0
ARC
  8
1
 62
7
  6
CONTINUOUS
 10
207.643719
 20
84.588206
 40
0.941176
 50
180.000000
 51
-90.000000
  0
ARC
  8
1
 62
7
  6
CONTINUOUS
 10
211.408425
 20
84.588206
 40
0.941176
 50
-90.000000
 51
0.000000
  0
ARC
  8
1
 62
7
  6
CONTINUOUS
 10
332.525854
 20
119.670559
 40
0.500000
 50
85.437026
 51
90.000000
  0
ARC
  8
1
 62
7
  6
CONTINUOUS
 10
332.525854
 20
59.670559
 40
0.500000
 50
-90.000000
 51
0.000000
  0
ARC
  8
1
 62
7
  6
CONTINUOUS
 10
332.525854
 20
119.670559
 40
0.500000
 50
0.000000
 51
85.437026
  0
ARC
  8
1
 62
7
  6
CONTINUOUS
 10
180.026072
 20
76.420559
 40
1.000000
 50
180.000000
 51
-90.000000
  0
ARC
  8
1
 62
7
  6
CONTINUOUS
 10
180.026072
 20
67.920559
 40
1.000000
 50
90.000000
 51
180.000000
  0
ARC
  8
1
 62
7
  6
CONTINUOUS
 10
239.026072
 20
111.420559
 40
1.000000
 50
-90.000000
 51
0.000000
  0
ARC
  8
1
 62
7
  6
CONTINUOUS
 10
239.026072
 20
102.920559
 40
1.000000
 50
0.000000
 51
90.000000
  0
LINE
  8
1
 62
7
  6
CONTINUOUS
 10
364.461426
 20
46.473824
 11
343.597924
 21
46.473824
  0
LINE
  8
1
 62
7
  6
CONTINUOUS
 10
343.597924
 20
46.473824
 11
329.940153
 21
59.170559
  0
LINE
  8
1
 62
7
  6
CONTINUOUS
 10
332.817305
 20
57.124997
 11
332.189838
 21
56.450036
  0
LINE
  8
1
 62
7
  6
CONTINUOUS
 10
332.189838
 20
56.450036
 11
329.940153
 21
59.170559
  0
LINE
  8
1
 62
7
  6
CONTINUOUS
 10
329.940153
 20
59.170559
 11
332.817305
 21
57.124997
  0
LINE
  8
1
 62
7
  6
CONTINUOUS
 10
394.577086
 20
139.431006
 11
367.982456
 21
139.431006
  0
LINE
  8
1
 62
7
  6
CONTINUOUS
 10
367.982456
 20
139.431006
 11
349.693667
 21
119.726486
  0
LINE
  8
1
 62
7
  6
CONTINUOUS
 10
351.736938
 20
122.605265
 11
352.412398
 21
121.978335
  0
LINE
  8
1
 62
7
  6
CONTINUOUS
 10
352.412398
 20
121.978335
 11
349.693667
 21
119.726486
  0
LINE
  8
1
 62
7
  6
CONTINUOUS
 10
349.693667
 20
119.726486
 11
351.736938
 21
122.605265
  0
LINE
  8
1
 62
7
  6
CONTINUOUS
 10
122.233498
 20
163.666503
 11
116.421882
 21
152.228087
  0
LINE
  8
1
 62
7
  6
CONTINUOUS
 10
117.596462
 20
155.557153
 11
118.418065
 21
155.139714
  0
LINE
  8
1
 62
7
  6
CONTINUOUS
 10
118.418065
 20
155.139714
 11
116.421882
 21
152.228087
  0
LINE
  8
1
 62
7
  6
CONTINUOUS
 10
116.421882
 20
152.228087
 11
117.596462
 21
155.557153
  0
LINE
  8
1
 62
7
  6
CONTINUOUS
 10
23.847617
 20
159.624519
 11
29.490504
 21
149.728087
  0
LINE
  8
1
 62
7
  6
CONTINUOUS
 10
27.356563
 20
152.540313
 11
28.157133
 21
152.996794
  0
LINE
  8
1
 62
7
  6
CONTINUOUS
 10
28.157133
 20
152.996794
 11
29.490504
 21
149.728087
  0
LINE
  8
1
 62
7
  6
CONTINUOUS
 10
29.490504
 20
149.728087
 11
27.356563
 21
152.540313
  0
LINE
  8
1
 62
7
  6
CONTINUOUS
 10
281.870736
 20
127.121105
 11
299.666818
 21
127.121105
  0
LINE
  8
1
 62
7
  6
CONTINUOUS
 10
299.666818
 20
127.121105
 11
329.310105
 21
139.237435
  0
LINE
  8
1
 62
7
  6
CONTINUOUS
 10
326.244628
 20
137.486671
 11
325.895951
 21
138.339730
  0
LINE
  8
1
 62
7
  6
CONTINUOUS
 10
325.895951
 20
138.339730
 11
329.310105
 21
139.237435
  0
LINE
  8
1
 62
7
  6
CONTINUOUS
 10
329.310105
 20
139.237435
 11
326.244628
 21
137.486671
  0
TEXT
  8
1
 62
7
  6
CONTINUOUS
 10
351.412998
 20
161.406874
 40
4.000000
 41
0.900000
  1
ＤＩＭＥＮＳＩＯＮ：ｍｍ
  7
KANJI
 50
0.000000
 51
0.000000
  0
TEXT
  8
1
 62
7
  6
CONTINUOUS
 10
344.399532
 20
47.653321
 40
4.000000
 41
0.900000
  1
ピンヘッダ
  7
KANJI
 50
0.000000
 51
0.000000
  0
TEXT
  8
1
 62
7
  6
CONTINUOUS
 10
342.245896
 20
41.570566
 40
4.000000
 41
0.630000
  1
ＰＩＮ　ＨＥＡＤＥＲ
  7
KANJI
 50
0.000000
 51
0.000000
  0
TEXT
  8
1
 62
7
  6
CONTINUOUS
 10
368.053917
 20
133.284769
 40
3.500000
 41
0.720000
  1
ＮＡＭＥ　ＰＬＡＴＥ
  7
KANJI
 50
0.000000
 51
0.000000
  0
TEXT
  8
1
 62
7
  6
CONTINUOUS
 10
369.420804
 20
140.806817
 40
3.500000
 41
0.900000
  1
ネームプレート
  7
KANJI
 50
0.000000
 51
0.000000
  0
TEXT
  8
1
 62
7
  6
CONTINUOUS
 10
21.883129
 20
160.953973
 40
3.200000
 41
0.900000
  1
4
  7
KANJI
 50
0.000000
 51
0.000000
  0
TEXT
  8
1
 62
7
  6
CONTINUOUS
 10
123.492595
 20
164.032972
 40
3.200000
 41
0.900000
  1
3
  7
KANJI
 50
0.000000
 51
0.000000
  0
TEXT
  8
1
 62
7
  6
CONTINUOUS
 10
21.799292
 20
151.803742
 40
3.200000
 41
0.900000
  1
1
  7
KANJI
 50
90.000000
 51
0.000000
  0
TEXT
  8
1
 62
7
  6
CONTINUOUS
 10
22.357851
 20
123.416872
 40
3.200000
 41
0.900000
  1
9
  7
KANJI
 50
90.000000
 51
0.000000
  0
TEXT
  8
1
 62
7
  6
CONTINUOUS
 10
124.388327
 20
121.182887
 40
3.200000
 41
0.900000
  1
11
  7
KANJI
 50
90.000000
 51
0.000000
  0
TEXT
  8
1
 62
7
  6
CONTINUOUS
 10
124.333232
 20
153.089805
 40
3.200000
 41
0.900000
  1
1
  7
KANJI
 50
90.000000
 51
0.000000
  0
TEXT
  8
1
 62
7
  6
CONTINUOUS
 10
281.747152
 20
128.233361
 40
3.500000
 41
0.900000
  1
取付部肉厚
  7
KANJI
 50
0.000000
 51
0.000000
  0
TEXT
  8
1
 62
7
  6
CONTINUOUS
 10
267.939567
 20
122.231378
 40
3.000000
 41
0.630000
  1
ＷＩＤＴＨ　ＯＦ　ＦＬＡＮＧＥ
  7
KANJI
 50
0.000000
 51
0.000000
  0
LINE
  8
1
 62
7
  6
CONTINUOUS
 10
301.025854
 20
102.220394
 11
317.025854
 21
102.220394
  0
LINE
  8
1
 62
7
  6
CONTINUOUS
 10
317.025854
 20
93.670558
 11
317.025854
 21
103.720394
  0
LINE
  8
1
 62
7
  6
CONTINUOUS
 10
301.025854
 20
93.670558
 11
301.025854
 21
103.720394
  0
LINE
  8
1
 62
7
  6
CONTINUOUS
 10
301.025854
 20
102.220394
 11
304.225854
 21
102.636394
  0
LINE
  8
1
 62
7
  6
CONTINUOUS
 10
304.225854
 20
102.636394
 11
304.225854
 21
101.804394
  0
LINE
  8
1
 62
7
  6
CONTINUOUS
 10
304.225854
 20
101.804394
 11
301.025854
 21
102.220394
  0
LINE
  8
1
 62
7
  6
CONTINUOUS
 10
317.025854
 20
102.220394
 11
313.825854
 21
101.804394
  0
LINE
  8
1
 62
7
  6
CONTINUOUS
 10
313.825854
 20
101.804394
 11
313.825854
 21
102.636394
  0
LINE
  8
1
 62
7
  6
CONTINUOUS
 10
313.825854
 20
102.636394
 11
317.025854
 21
102.220394
  0
TEXT
  8
1
 62
7
  6
CONTINUOUS
 10
306.967400
 20
104.220394
 40
3.200000
 41
0.900000
  1
16
  7
KANJI
 50
0.000000
 51
0.000000
  0
LINE
  8
1
 62
7
  6
CONTINUOUS
 10
294.701134
 20
93.670558
 11
294.701134
 21
100.070558
  0
LINE
  8
1
 62
7
  6
CONTINUOUS
 10
294.701134
 20
92.670558
 11
294.701134
 21
93.670558
  0
LINE
  8
1
 62
7
  6
CONTINUOUS
 10
294.701134
 20
86.270558
 11
294.701134
 21
92.670558
  0
LINE
  8
1
 62
7
  6
CONTINUOUS
 10
319.025854
 20
93.670558
 11
293.201134
 21
93.670558
  0
LINE
  8
1
 62
7
  6
CONTINUOUS
 10
300.025854
 20
92.670558
 11
293.201134
 21
92.670558
  0
LINE
  8
1
 62
7
  6
CONTINUOUS
 10
294.701134
 20
93.670558
 11
294.285134
 21
96.870558
  0
LINE
  8
1
 62
7
  6
CONTINUOUS
 10
294.285134
 20
96.870558
 11
295.117134
 21
96.870558
  0
LINE
  8
1
 62
7
  6
CONTINUOUS
 10
295.117134
 20
96.870558
 11
294.701134
 21
93.670558
  0
LINE
  8
1
 62
7
  6
CONTINUOUS
 10
294.701134
 20
92.670558
 11
295.117134
 21
89.470558
  0
LINE
  8
1
 62
7
  6
CONTINUOUS
 10
295.117134
 20
89.470558
 11
294.285134
 21
89.470558
  0
LINE
  8
1
 62
7
  6
CONTINUOUS
 10
294.285134
 20
89.470558
 11
294.701134
 21
92.670558
  0
TEXT
  8
1
 62
7
  6
CONTINUOUS
 10
292.701134
 20
98.614606
 40
3.200000
 41
0.900000
  1
1
  7
KANJI
 50
90.000000
 51
0.000000
  0
LINE
  8
1
 62
7
  6
CONTINUOUS
 10
287.247333
 20
93.670558
 11
287.247333
 21
100.070558
  0
LINE
  8
1
 62
7
  6
CONTINUOUS
 10
287.247333
 20
85.670558
 11
287.247333
 21
79.270558
  0
LINE
  8
1
 62
7
  6
CONTINUOUS
 10
287.247333
 20
85.670558
 11
287.247333
 21
93.670558
  0
LINE
  8
1
 62
7
  6
CONTINUOUS
 10
319.025854
 20
93.670558
 11
285.747333
 21
93.670558
  0
LINE
  8
1
 62
7
  6
CONTINUOUS
 10
300.025854
 20
85.670558
 11
285.747333
 21
85.670558
  0
LINE
  8
1
 62
7
  6
CONTINUOUS
 10
287.247333
 20
93.670558
 11
286.831333
 21
96.870558
  0
LINE
  8
1
 62
7
  6
CONTINUOUS
 10
286.831333
 20
96.870558
 11
287.663333
 21
96.870558
  0
LINE
  8
1
 62
7
  6
CONTINUOUS
 10
287.663333
 20
96.870558
 11
287.247333
 21
93.670558
  0
LINE
  8
1
 62
7
  6
CONTINUOUS
 10
287.247333
 20
85.670558
 11
287.663333
 21
82.470558
  0
LINE
  8
1
 62
7
  6
CONTINUOUS
 10
287.663333
 20
82.470558
 11
286.831333
 21
82.470558
  0
LINE
  8
1
 62
7
  6
CONTINUOUS
 10
286.831333
 20
82.470558
 11
287.247333
 21
85.670558
  0
TEXT
  8
1
 62
7
  6
CONTINUOUS
 10
284.447333
 20
86.034798
 40
3.200000
 41
0.900000
  1
8
  7
KANJI
 50
90.000000
 51
0.000000
  0
TEXT
  8
1
 62
7
  6
CONTINUOUS
 10
282.367333
 20
89.554798
 40
1.920000
 41
0.900000
  1
 0
  7
KANJI
 50
90.000000
 51
0.000000
  0
TEXT
  8
1
 62
7
  6
CONTINUOUS
 10
285.247333
 20
89.554798
 40
1.920000
 41
0.900000
  1
-0.03
  7
KANJI
 50
90.000000
 51
0.000000
  0
TEXT
  8
1
 62
7
  6
CONTINUOUS
 10
284.447333
 20
82.390354
 40
3.200000
 41
0.900000
  1
φ
  7
KANJI
 50
90.000000
 51
0.000000
  0
LINE
  8
1
 62
7
  6
CONTINUOUS
 10
325.025854
 20
149.742067
 11
362.025854
 21
149.742067
  0
LINE
  8
1
 62
7
  6
CONTINUOUS
 10
325.025854
 20
121.170558
 11
325.025854
 21
150.742067
  0
LINE
  8
1
 62
7
  6
CONTINUOUS
 10
362.025854
 20
117.420558
 11
362.025854
 21
150.742067
  0
LINE
  8
1
 62
7
  6
CONTINUOUS
 10
325.025854
 20
149.742067
 11
328.225854
 21
150.158067
  0
LINE
  8
1
 62
7
  6
CONTINUOUS
 10
328.225854
 20
150.158067
 11
328.225854
 21
149.326067
  0
LINE
  8
1
 62
7
  6
CONTINUOUS
 10
328.225854
 20
149.326067
 11
325.025854
 21
149.742067
  0
LINE
  8
1
 62
7
  6
CONTINUOUS
 10
362.025854
 20
149.742067
 11
358.825854
 21
149.326067
  0
LINE
  8
1
 62
7
  6
CONTINUOUS
 10
358.825854
 20
149.326067
 11
358.825854
 21
150.158067
  0
LINE
  8
1
 62
7
  6
CONTINUOUS
 10
358.825854
 20
150.158067
 11
362.025854
 21
149.742067
  0
TEXT
  8
1
 62
7
  6
CONTINUOUS
 10
341.125854
 20
151.742067
 40
3.200000
 41
0.900000
  1
37
  7
KANJI
 50
0.000000
 51
0.000000
  0
LINE
  8
1
 62
7
  6
CONTINUOUS
 10
301.025854
 20
149.742067
 11
325.025854
 21
149.742067
  0
LINE
  8
1
 62
7
  6
CONTINUOUS
 10
325.025854
 20
121.170558
 11
325.025854
 21
150.742067
  0
LINE
  8
1
 62
7
  6
CONTINUOUS
 10
301.025854
 20
93.670558
 11
301.025854
 21
150.742067
  0
LINE
  8
1
 62
7
  6
CONTINUOUS
 10
325.025854
 20
149.742067
 11
321.825854
 21
149.326067
  0
LINE
  8
1
 62
7
  6
CONTINUOUS
 10
321.825854
 20
149.326067
 11
321.825854
 21
150.158067
  0
LINE
  8
1
 62
7
  6
CONTINUOUS
 10
321.825854
 20
150.158067
 11
325.025854
 21
149.742067
  0
LINE
  8
1
 62
7
  6
CONTINUOUS
 10
301.025854
 20
149.742067
 11
304.225854
 21
150.158067
  0
LINE
  8
1
 62
7
  6
CONTINUOUS
 10
304.225854
 20
150.158067
 11
304.225854
 21
149.326067
  0
LINE
  8
1
 62
7
  6
CONTINUOUS
 10
304.225854
 20
149.326067
 11
301.025854
 21
149.742067
  0
TEXT
  8
1
 62
7
  6
CONTINUOUS
 10
310.625854
 20
151.742067
 40
3.200000
 41
0.900000
  1
24
  7
KANJI
 50
0.000000
 51
0.000000
  0
LINE
  8
1
 62
7
  6
CONTINUOUS
 10
325.025854
 20
139.237435
 11
333.025854
 21
139.237435
  0
LINE
  8
1
 62
7
  6
CONTINUOUS
 10
333.025854
 20
139.237435
 11
339.425854
 21
139.237435
  0
LINE
  8
1
 62
7
  6
CONTINUOUS
 10
325.025854
 20
121.170558
 11
325.025854
 21
140.237435
  0
LINE
  8
1
 62
7
  6
CONTINUOUS
 10
333.025854
 20
120.670558
 11
333.025854
 21
140.237435
  0
CIRCLE
  8
1
 62
7
  6
CONTINUOUS
 10
325.025854
 20
139.237435
 40
0.800000
  0
LINE
  8
1
 62
7
  6
CONTINUOUS
 10
333.025854
 20
139.237435
 11
336.225854
 21
139.653435
  0
LINE
  8
1
 62
7
  6
CONTINUOUS
 10
336.225854
 20
139.653435
 11
336.225854
 21
138.821435
  0
LINE
  8
1
 62
7
  6
CONTINUOUS
 10
336.225854
 20
138.821435
 11
333.025854
 21
139.237435
  0
TEXT
  8
1
 62
7
  6
CONTINUOUS
 10
328.065854
 20
141.237435
 40
3.200000
 41
0.900000
  1
8
  7
KANJI
 50
0.000000
 51
0.000000
  0
LINE
  8
1
 62
7
  6
CONTINUOUS
 10
322.025854
 20
139.251300
 11
325.025854
 21
139.251300
  0
LINE
  8
1
 62
7
  6
CONTINUOUS
 10
322.025854
 20
139.251300
 11
315.194946
 21
139.251300
  0
LINE
  8
1
 62
7
  6
CONTINUOUS
 10
322.025854
 20
117.170558
 11
322.025854
 21
140.251300
  0
LINE
  8
1
 62
7
  6
CONTINUOUS
 10
325.025854
 20
121.170558
 11
325.025854
 21
140.251300
  0
LINE
  8
1
 62
7
  6
CONTINUOUS
 10
322.025854
 20
139.251300
 11
318.825854
 21
138.835300
  0
LINE
  8
1
 62
7
  6
CONTINUOUS
 10
318.825854
 20
138.835300
 11
318.825854
 21
139.667300
  0
LINE
  8
1
 62
7
  6
CONTINUOUS
 10
318.825854
 20
139.667300
 11
322.025854
 21
139.251300
  0
CIRCLE
  8
1
 62
7
  6
CONTINUOUS
 10
325.025854
 20
139.251300
 40
0.800000
  0
TEXT
  8
1
 62
7
  6
CONTINUOUS
 10
315.194946
 20
141.251300
 40
3.200000
 41
0.900000
  1
3
  7
KANJI
 50
0.000000
 51
0.000000
  0
LINE
  8
1
 62
7
  6
CONTINUOUS
 10
257.614697
 20
59.170558
 11
257.614697
 21
120.170558
  0
LINE
  8
1
 62
7
  6
CONTINUOUS
 10
236.526072
 20
59.170558
 11
258.614697
 21
59.170558
  0
LINE
  8
1
 62
7
  6
CONTINUOUS
 10
236.526072
 20
120.170558
 11
258.614697
 21
120.170558
  0
LINE
  8
1
 62
7
  6
CONTINUOUS
 10
257.614697
 20
120.170558
 11
258.030697
 21
116.970558
  0
LINE
  8
1
 62
7
  6
CONTINUOUS
 10
258.030697
 20
116.970558
 11
257.198697
 21
116.970558
  0
LINE
  8
1
 62
7
  6
CONTINUOUS
 10
257.198697
 20
116.970558
 11
257.614697
 21
120.170558
  0
LINE
  8
1
 62
7
  6
CONTINUOUS
 10
257.614697
 20
59.170558
 11
257.198697
 21
62.370558
  0
LINE
  8
1
 62
7
  6
CONTINUOUS
 10
257.198697
 20
62.370558
 11
258.030697
 21
62.370558
  0
LINE
  8
1
 62
7
  6
CONTINUOUS
 10
258.030697
 20
62.370558
 11
257.614697
 21
59.170558
  0
TEXT
  8
1
 62
7
  6
CONTINUOUS
 10
255.614697
 20
87.750558
 40
3.200000
 41
0.900000
  1
61
  7
KANJI
 50
90.000000
 51
0.000000
  0
LINE
  8
1
 62
7
  6
CONTINUOUS
 10
278.414043
 20
62.670558
 11
278.414043
 21
116.670558
  0
LINE
  8
1
 62
7
  6
CONTINUOUS
 10
321.525854
 20
116.670558
 11
277.414043
 21
116.670558
  0
LINE
  8
1
 62
7
  6
CONTINUOUS
 10
321.525854
 20
62.670558
 11
277.414043
 21
62.670558
  0
LINE
  8
1
 62
7
  6
CONTINUOUS
 10
278.414043
 20
116.670558
 11
278.830043
 21
113.470558
  0
LINE
  8
1
 62
7
  6
CONTINUOUS
 10
278.830043
 20
113.470558
 11
277.998043
 21
113.470558
  0
LINE
  8
1
 62
7
  6
CONTINUOUS
 10
277.998043
 20
113.470558
 11
278.414043
 21
116.670558
  0
LINE
  8
1
 62
7
  6
CONTINUOUS
 10
278.414043
 20
62.670558
 11
277.998043
 21
65.870558
  0
LINE
  8
1
 62
7
  6
CONTINUOUS
 10
277.998043
 20
65.870558
 11
278.830043
 21
65.870558
  0
LINE
  8
1
 62
7
  6
CONTINUOUS
 10
278.830043
 20
65.870558
 11
278.414043
 21
62.670558
  0
TEXT
  8
1
 62
7
  6
CONTINUOUS
 10
275.214043
 20
78.991702
 40
3.200000
 41
0.900000
  1
54 h7
  7
KANJI
 50
90.000000
 51
0.000000
  0
TEXT
  8
1
 62
7
  6
CONTINUOUS
 10
273.054043
 20
93.711702
 40
2.240000
 41
0.900000
  1
 0
  7
KANJI
 50
90.000000
 51
0.000000
  0
TEXT
  8
1
 62
7
  6
CONTINUOUS
 10
276.414043
 20
93.711702
 40
2.240000
 41
0.900000
  1
-0.03
  7
KANJI
 50
90.000000
 51
0.000000
  0
TEXT
  8
1
 62
7
  6
CONTINUOUS
 10
275.214043
 20
75.151702
 40
3.200000
 41
0.900000
  1
φ
  7
KANJI
 50
90.000000
 51
0.000000
  0
LINE
  8
1
 62
7
  6
CONTINUOUS
 10
179.026072
 20
133.170558
 11
240.026072
 21
133.170558
  0
LINE
  8
1
 62
7
  6
CONTINUOUS
 10
179.026072
 20
116.670558
 11
179.026072
 21
134.170558
  0
LINE
  8
1
 62
7
  6
CONTINUOUS
 10
240.026072
 20
116.670558
 11
240.026072
 21
134.170558
  0
LINE
  8
1
 62
7
  6
CONTINUOUS
 10
179.026072
 20
133.170558
 11
182.226072
 21
133.586558
  0
LINE
  8
1
 62
7
  6
CONTINUOUS
 10
182.226072
 20
133.586558
 11
182.226072
 21
132.754558
  0
LINE
  8
1
 62
7
  6
CONTINUOUS
 10
182.226072
 20
132.754558
 11
179.026072
 21
133.170558
  0
LINE
  8
1
 62
7
  6
CONTINUOUS
 10
240.026072
 20
133.170558
 11
236.826072
 21
132.754558
  0
LINE
  8
1
 62
7
  6
CONTINUOUS
 10
236.826072
 20
132.754558
 11
236.826072
 21
133.586558
  0
LINE
  8
1
 62
7
  6
CONTINUOUS
 10
236.826072
 20
133.586558
 11
240.026072
 21
133.170558
  0
TEXT
  8
1
 62
7
  6
CONTINUOUS
 10
207.606072
 20
135.170558
 40
3.200000
 41
0.900000
  1
61
  7
KANJI
 50
0.000000
 51
0.000000
  0
LINE
  8
1
 62
7
  6
CONTINUOUS
 10
33.235582
 20
161.297163
 11
110.649861
 21
161.297163
  0
LINE
  8
1
 62
7
  6
CONTINUOUS
 10
110.649861
 20
153.228087
 11
110.649861
 21
162.297163
  0
LINE
  8
1
 62
7
  6
CONTINUOUS
 10
33.235582
 20
150.728087
 11
33.235582
 21
162.297163
  0
LINE
  8
1
 62
7
  6
CONTINUOUS
 10
33.235582
 20
161.297163
 11
36.435582
 21
161.713163
  0
LINE
  8
1
 62
7
  6
CONTINUOUS
 10
36.435582
 20
161.713163
 11
36.435582
 21
160.881163
  0
LINE
  8
1
 62
7
  6
CONTINUOUS
 10
36.435582
 20
160.881163
 11
33.235582
 21
161.297163
  0
LINE
  8
1
 62
7
  6
CONTINUOUS
 10
110.649861
 20
161.297163
 11
107.449861
 21
160.881163
  0
LINE
  8
1
 62
7
  6
CONTINUOUS
 10
107.449861
 20
160.881163
 11
107.449861
 21
161.713163
  0
LINE
  8
1
 62
7
  6
CONTINUOUS
 10
107.449861
 20
161.713163
 11
110.649861
 21
161.297163
  0
TEXT
  8
1
 62
7
  6
CONTINUOUS
 10
64.726722
 20
164.497163
 40
3.200000
 41
0.900000
  1
300
  7
KANJI
 50
0.000000
 51
0.000000
  0
TEXT
  8
1
 62
7
  6
CONTINUOUS
 10
74.006722
 20
166.657163
 40
2.240000
 41
0.900000
  1
+30
  7
KANJI
 50
0.000000
 51
0.000000
  0
TEXT
  8
1
 62
7
  6
CONTINUOUS
 10
76.022722
 20
163.297163
 40
2.240000
 41
0.900000
  1
 0
  7
KANJI
 50
0.000000
 51
0.000000
  0
LINE
  8
1
 62
7
  6
CONTINUOUS
 10
235.763932
 20
63.232728
 11
249.655789
 21
47.473789
  0
LINE
  8
1
 62
7
  6
CONTINUOUS
 10
249.655789
 20
47.473789
 11
267.100519
 21
47.473789
  0
LINE
  8
1
 62
7
  6
CONTINUOUS
 10
235.763932
 20
63.232728
 11
238.192061
 21
61.107347
  0
LINE
  8
1
 62
7
  6
CONTINUOUS
 10
238.192061
 20
61.107347
 11
237.567939
 21
60.557169
  0
LINE
  8
1
 62
7
  6
CONTINUOUS
 10
237.567939
 20
60.557169
 11
235.763932
 21
63.232728
  0
TEXT
  8
1
 62
7
  6
CONTINUOUS
 10
261.020519
 20
49.162129
 40
3.200000
 41
0.900000
  1
4.5
  7
KANJI
 50
0.000000
 51
0.000000
  0
TEXT
  8
1
 62
7
  6
CONTINUOUS
 10
251.740519
 20
49.162129
 40
3.200000
 41
0.900000
  1
4-φ
  7
KANJI
 50
0.000000
 51
0.000000
  0
LINE
  8
1
 62
7
  6
CONTINUOUS
 10
230.955202
 20
117.343512
 11
177.386205
 21
48.166071
  0
LINE
  8
1
 62
7
  6
CONTINUOUS
 10
177.386205
 20
48.166071
 11
163.546205
 21
48.166071
  0
LINE
  8
1
 62
7
  6
CONTINUOUS
 10
188.096942
 20
61.997604
 11
189.727263
 21
64.782404
  0
LINE
  8
1
 62
7
  6
CONTINUOUS
 10
189.727263
 20
64.782404
 11
190.385089
 21
64.273003
  0
LINE
  8
1
 62
7
  6
CONTINUOUS
 10
190.385089
 20
64.273003
 11
188.096942
 21
61.997604
  0
LINE
  8
1
 62
7
  6
CONTINUOUS
 10
230.955202
 20
117.343512
 11
229.324880
 21
114.558713
  0
LINE
  8
1
 62
7
  6
CONTINUOUS
 10
229.324880
 20
114.558713
 11
228.667054
 21
115.068114
  0
LINE
  8
1
 62
7
  6
CONTINUOUS
 10
228.667054
 20
115.068114
 11
230.955202
 21
117.343512
  0
TEXT
  8
1
 62
7
  6
CONTINUOUS
 10
167.386205
 20
50.166071
 40
3.200000
 41
0.900000
  1
70
  7
KANJI
 50
0.000000
 51
0.000000
  0
TEXT
  8
1
 62
7
  6
CONTINUOUS
 10
163.546205
 20
50.166071
 40
3.200000
 41
0.900000
  1
φ
  7
KANJI
 50
0.000000
 51
0.000000
  0
LINE
  8
1
 62
7
  6
CONTINUOUS
 10
341.397024
 20
121.518485
 11
341.397024
 21
147.518485
  0
LINE
  8
1
 62
7
  6
CONTINUOUS
 10
341.397024
 20
147.518485
 11
349.675703
 21
147.518485
  0
LINE
  8
1
 62
7
  6
CONTINUOUS
 10
349.675703
 20
147.518485
 11
349.675703
 21
121.518485
  0
LINE
  8
1
 62
7
  6
CONTINUOUS
 10
349.675703
 20
121.518485
 11
341.397024
 21
121.518485
  0
LINE
  8
1
 62
7
  6
CONTINUOUS
 10
341.397024
 20
127.518485
 11
349.675703
 21
127.518485
  0
LINE
  8
1
 62
7
  6
CONTINUOUS
 10
349.175703
 20
124.518485
 11
341.897024
 21
124.518485
  0
LINE
  8
1
 62
7
  6
CONTINUOUS
 10
341.897024
 20
124.518485
 11
344.397024
 21
123.018485
  0
LINE
  8
1
 62
7
  6
CONTINUOUS
 10
344.397024
 20
123.018485
 11
344.397024
 21
125.518485
  0
TEXT
  8
1
 62
7
  6
CONTINUOUS
 10
348.583508
 20
127.113212
 40
3.000000
 41
0.630000
  1
LETTER DIR.
  7
KANJI
 50
90.000000
 51
0.000000
  0
TEXT
  8
1
 62
7
  6
CONTINUOUS
 10
344.843875
 20
128.617816
 40
3.000000
 41
0.900000
  1
文字ノ向キ
  7
KANJI
 50
90.000000
 51
0.000000
  0
ENDSEC
  0
EOF
