  0
SECTION
  2
HEADER
  9
$ACADVER
  1
AC1003
  9
$INSBASE
 10
0.000000
 20
0.000000
  9
$EXTMIN
 10
0.000000
 20
0.000000
  9
$EXTMAX
 10
420.000000
 20
297.000000
  9
$LIMMIN
 10
0.000000
 20
0.000000
  9
$LIMMAX
 10
420.000000
 20
297.000000
  9
$VIEWCTR
 10
210.000000
 20
148.500000
  9
$VIEWSIZE
 40
297.000000
  9
$PEXTMIN
 10
0.000000
 20
0.000000
 30
0.000000
  9
$PEXTMAX
 10
420.000000
 20
297.000000
 30
0.000000
  9
$SNAPMODE
 70
     0
  9
$SNAPUNIT
 10
1.000000
 20
1.000000
  9
$SNAPBASE
 10
0.000000
 20
0.000000
  9
$SNAPANG
 50
0.000000
  9
$SNAPISOPAIR
 70
     0
  9
$SNAPSTYLE
 70
     0
  9
$GRIDMODE
 70
     0
  9
$GRIDUNIT
 10
0.000000
 20
0.000000
  9
$ORTHOMODE
 70
     0
  9
$REGENMODE
 70
     1
  9
$FILLMODE
 70
     1
  9
$QTEXTMODE
 70
     0
  9
$DRAGMODE
 70
     2
  9
$LTSCALE
 40
0.250000
  9
$OSMODE
 70
     0
  9
$ATTMODE
 70
     1
  9
$TEXTSIZE
 40
0.200000
  9
$TRACEWID
 40
0.050000
  9
$TEXTSTYLE
  7
STANDARD
  9
$CLAYER
  8
0
  9
$CELTYPE
  6
BYLAYER
  9
$CECOLOR
 62
   256
  9
$DIMSCALE
 40
1.000000
  9
$DIMASZ
 40
1.000000
  9
$DIMEXO
 40
0.000000
  9
$DIMDLI
 40
0.500000
  9
$DIMRND
 40
0.000000
  9
$DIMDLE
 40
0.000000
  9
$DIMEXE
 40
0.000000
  9
$DIMTP
 40
0.000000
  9
$DIMTM
 40
0.000000
  9
$DIMTXT
 40
0.180000
  9
$DIMCEN
 40
0.000000
  9
$DIMTSZ
 40
0.000000
  9
$DIMTOL
 70
     0
  9
$DIMLIM
 70
     0
  9
$DIMTIH
 70
     1
  9
$DIMTOH
 70
     1
  9
$DIMSE1
 70
     0
  9
$DIMSE2
 70
     0
  9
$DIMTAD
 70
     0
  9
$DIMZIN
 70
     0
  9
$DIMBLK
  1

  9
$DIMASO
 70
     0
  9
$DIMSHO
 70
     0
  9
$DIMPOST
  1

  9
$DIMAPOST
  1

  9
$DIMALT
 70
     0
  9
$DIMALTD
 70
     0
  9
$DIMALTF
 40
25.400000
  9
$DIMLFAC
 40
1.000000
  9
$DIMTOFL
 70
     0
  9
$DIMTVP
 40
0.000000
  9
$DIMTIX
 70
     0
  9
$DIMSOXD
 70
     0
  9
$DIMSAH
 70
     0
  9
$DIMBLKL
  1

  9
$DIMBLKR
  1

  9
$LUNITS
 70
     2
  9
$LUPREC
 70
     2
  9
$AXISMODE
 70
     0
  9
$AXISUNIT
 10
1.000000
 20
1.000000
  9
$SKETCHINC
 40
0.000000
  9
$FILLETRAD
 40
0.000000
  9
$AUNITS
 70
     1
  9
$AUPREC
 70
     2
  9
$MENU
  1
ACAD
  9
$ELEVATION
 40
0.000000
  9
$THICKNESS
 40
0.000000
  9
$VIEWDIR
 10
0.000000
 20
0.000000
 30
1.000000
  9
$LIMCHECK
 70
     1
  9
$BLIPMODE
 70
     1
  9
$CHAMFERA
 40
0.000000
  9
$CHAMFERB
 40
0.000000
  9
$FASTZOOM
 70
     1
  9
$SKPOLY
 70
     0
  9
$TDCREATE
 40
0.000000
  9
$TDUPDATE
 40
0.000000
  9
$TDINDWG
 40
0.000000
  9
$TDUSRTIMER
 40
0.000000
  9
$USRTIMER
 70
     1
  9
$ANGBASE
 50
0.000000
  9
$ANGDIR
 70
     0
  9
$PDMODE
 70
     0
  9
$PDSIZE
 40
0.000000
  9
$PLINEWID
 40
0.000000
  9
$COORDS
 70
     2
  9
$USERI1
 70
     0
  9
$USERI2
 70
     0
  9
$USERI3
 70
     0
  9
$USERI4
 70
     0
  9
$USERI5
 70
     0
  9
$USERR1
 40
0.000000
  9
$USERR2
 40
0.000000
  9
$USERR3
 40
0.000000
  9
$USERR4
 40
0.000000
  9
$USERR5
 40
0.000000
  0
ENDSEC
  0
SECTION
  2
TABLES
  0
TABLE
  2
LTYPE
 70
     5
  0
LTYPE
  2
CONTINUOUS
 70
    64
  3
Solid line
 72
    65
 73
     0
 40
0.0
  0
LTYPE
  2
HIDDEN
 70
    64
  3
------------------------
 72
    65
 73
     2
 40
12.6
 49
8.4
 49
-4.2
  0
LTYPE
  2
DOT
 70
    64
  3
････････････････････････
 72
    65
 73
     2
 40
8.0
 49
6.0
 49
-2.0
  0
LTYPE
  2
DASHDOT
 70
    64
  3
--･--･--･--･--･--･--･--
 72
    65
 73
     4
 40
50.5
 49
30.0
 49
-9.0
 49
2.5
 49
-9.0
  0
LTYPE
  2
DIVIDE
 70
    64
  3
--･･--･･--･･--･･--･･--
 72
    65
 73
     6
 40
58.0
 49
30.0
 49
-9.0
 49
2.5
 49
-5.0
 49
2.5
 49
-9.0
  0
ENDTAB
  0
TABLE
  2
LAYER
 70
1
  0
LAYER
  2
1
 70
64
 62
7
  6
CONTINUOUS
  0
ENDTAB
  0
TABLE
  2
STYLE
 70
     2
  0
STYLE
  2
STANDARD
 70
    64
 40
0.0
 41
1.0
 50
0.0
 71
     0
 42
0.2
  3
TXT
  4

  0
STYLE
  2
KANJI
 70
    64
 40
0.0
 41
1.0
 50
0.0
 71
     0
 42
0.2
  3
TXT
  4
BIGFONT
  0
ENDTAB
  0
TABLE
  2
VIEW
 70
     0
  0
ENDTAB
  0
ENDSEC
  0
SECTION
  2
BLOCKS
  0
ENDSEC
  0
SECTION
  2
ENTITIES
  0
CIRCLE
  8
1
 62
7
  6
DIVIDE
 10
149.502657
 20
95.251516
 40
0.500000
  0
CIRCLE
  8
1
 62
7
  6
DIVIDE
 10
149.502657
 20
95.251516
 40
0.250000
  0
LINE
  8
1
 62
7
  6
CONTINUOUS
 10
177.542789
 20
61.211385
 11
170.759944
 21
67.994230
  0
LINE
  8
1
 62
7
  6
CONTINUOUS
 10
170.751394
 20
66.523505
 11
170.751394
 21
64.502779
  0
LINE
  8
1
 62
7
  6
CONTINUOUS
 10
170.751394
 20
64.502779
 11
170.751394
 21
62.482053
  0
LINE
  8
1
 62
7
  6
CONTINUOUS
 10
170.751394
 20
62.482053
 11
174.251394
 21
60.461327
  0
LINE
  8
1
 62
7
  6
CONTINUOUS
 10
174.251394
 20
60.461327
 11
177.751394
 21
62.482053
  0
LINE
  8
1
 62
7
  6
CONTINUOUS
 10
177.751394
 20
62.482053
 11
177.751394
 21
66.523505
  0
LINE
  8
1
 62
7
  6
CONTINUOUS
 10
177.751394
 20
66.523505
 11
174.251394
 21
68.544231
  0
LINE
  8
1
 62
7
  6
CONTINUOUS
 10
174.251394
 20
68.544231
 11
170.751394
 21
66.523505
  0
LINE
  8
1
 62
7
  6
CONTINUOUS
 10
128.758550
 20
109.995624
 11
121.279216
 21
117.474957
  0
LINE
  8
1
 62
7
  6
CONTINUOUS
 10
121.253920
 20
116.020980
 11
121.253920
 21
114.000254
  0
LINE
  8
1
 62
7
  6
CONTINUOUS
 10
121.253920
 20
114.000254
 11
121.253920
 21
111.979528
  0
LINE
  8
1
 62
7
  6
CONTINUOUS
 10
121.253920
 20
111.979528
 11
124.753920
 21
109.958802
  0
LINE
  8
1
 62
7
  6
CONTINUOUS
 10
124.753920
 20
109.958802
 11
128.253920
 21
111.979528
  0
LINE
  8
1
 62
7
  6
CONTINUOUS
 10
128.253920
 20
111.979528
 11
128.253920
 21
116.020980
  0
LINE
  8
1
 62
7
  6
CONTINUOUS
 10
128.253920
 20
116.020980
 11
124.753920
 21
118.041706
  0
LINE
  8
1
 62
7
  6
CONTINUOUS
 10
124.753920
 20
118.041706
 11
121.253920
 21
116.020980
  0
LINE
  8
1
 62
7
  6
CONTINUOUS
 10
332.981269
 20
113.179863
 11
333.981269
 21
114.000254
  0
LINE
  8
1
 62
7
  6
CONTINUOUS
 10
332.981269
 20
114.000254
 11
333.981269
 21
114.820645
  0
LINE
  8
1
 62
7
  6
CONTINUOUS
 10
264.381269
 20
66.102779
 11
271.781269
 21
66.102779
  0
LINE
  8
1
 62
7
  6
CONTINUOUS
 10
264.381269
 20
66.502779
 11
271.781269
 21
66.502779
  0
LINE
  8
1
 62
7
  6
CONTINUOUS
 10
271.781269
 20
62.502779
 11
264.381269
 21
62.502779
  0
LINE
  8
1
 62
7
  6
CONTINUOUS
 10
271.781269
 20
62.902779
 11
264.381269
 21
62.902779
  0
LINE
  8
1
 62
7
  6
CONTINUOUS
 10
264.381269
 20
62.502779
 11
264.381269
 21
62.902779
  0
LINE
  8
1
 62
7
  6
CONTINUOUS
 10
264.381269
 20
62.902779
 11
263.981269
 21
62.902779
  0
LINE
  8
1
 62
7
  6
CONTINUOUS
 10
263.981269
 20
62.902779
 11
263.981269
 21
66.102779
  0
LINE
  8
1
 62
7
  6
CONTINUOUS
 10
263.981269
 20
66.102779
 11
264.381269
 21
66.102779
  0
LINE
  8
1
 62
7
  6
CONTINUOUS
 10
264.381269
 20
62.902779
 11
264.381269
 21
66.102779
  0
LINE
  8
1
 62
7
  6
CONTINUOUS
 10
264.381269
 20
62.502779
 11
263.981269
 21
62.902779
  0
LINE
  8
1
 62
7
  6
CONTINUOUS
 10
264.381269
 20
66.102779
 11
264.381269
 21
66.502779
  0
LINE
  8
1
 62
7
  6
CONTINUOUS
 10
263.981269
 20
66.102779
 11
264.381269
 21
66.502779
  0
LINE
  8
1
 62
7
  6
CONTINUOUS
 10
128.245371
 20
67.994230
 11
121.462526
 21
61.211385
  0
LINE
  8
1
 62
7
  6
CONTINUOUS
 10
181.640058
 20
89.251516
 11
117.365256
 21
89.251516
  0
LINE
  8
1
 62
7
  6
CONTINUOUS
 10
177.726098
 20
117.474957
 11
170.246765
 21
109.995624
  0
LINE
  8
1
 62
7
  6
CONTINUOUS
 10
119.002657
 20
115.751516
 11
119.002657
 21
113.840578
  0
LINE
  8
1
 62
7
  6
CONTINUOUS
 10
176.002657
 20
119.751516
 11
174.807403
 21
119.751516
  0
LINE
  8
1
 62
7
  6
CONTINUOUS
 10
152.148198
 20
102.251306
 11
146.856695
 21
102.251306
  0
LINE
  8
1
 62
7
  6
CONTINUOUS
 10
143.709135
 20
99.251516
 11
155.607734
 21
99.251516
  0
LINE
  8
1
 62
7
  6
CONTINUOUS
 10
149.502657
 20
57.114115
 11
149.502657
 21
121.388918
  0
LINE
  8
1
 62
7
  6
CONTINUOUS
 10
180.002657
 20
64.608128
 11
180.002657
 21
114.556263
  0
LINE
  8
1
 62
7
  6
CONTINUOUS
 10
174.356743
 20
58.751516
 11
176.002657
 21
58.751516
  0
LINE
  8
1
 62
7
  6
CONTINUOUS
 10
124.594244
 20
119.751516
 11
123.002657
 21
119.751516
  0
LINE
  8
1
 62
7
  6
CONTINUOUS
 10
119.002657
 20
113.840578
 11
119.002657
 21
64.688316
  0
LINE
  8
1
 62
7
  6
CONTINUOUS
 10
124.939456
 20
58.751516
 11
174.356743
 21
58.751516
  0
LINE
  8
1
 62
7
  6
CONTINUOUS
 10
174.807403
 20
119.751516
 11
173.695386
 21
119.751516
  0
LINE
  8
1
 62
7
  6
CONTINUOUS
 10
180.002657
 20
114.556263
 11
180.002657
 21
115.751516
  0
LINE
  8
1
 62
7
  6
CONTINUOUS
 10
173.695386
 20
119.751516
 11
124.594244
 21
119.751516
  0
LINE
  8
1
 62
7
  6
CONTINUOUS
 10
128.253920
 20
64.502779
 11
128.253920
 21
66.523505
  0
LINE
  8
1
 62
7
  6
CONTINUOUS
 10
128.253920
 20
62.482053
 11
128.253920
 21
64.502779
  0
LINE
  8
1
 62
7
  6
CONTINUOUS
 10
124.753920
 20
60.461327
 11
128.253920
 21
62.482053
  0
LINE
  8
1
 62
7
  6
CONTINUOUS
 10
121.253920
 20
62.482053
 11
124.753920
 21
60.461327
  0
LINE
  8
1
 62
7
  6
CONTINUOUS
 10
121.253920
 20
66.523505
 11
121.253920
 21
62.482053
  0
LINE
  8
1
 62
7
  6
CONTINUOUS
 10
124.753920
 20
68.544231
 11
121.253920
 21
66.523505
  0
LINE
  8
1
 62
7
  6
CONTINUOUS
 10
128.253920
 20
66.523505
 11
124.753920
 21
68.544231
  0
LINE
  8
1
 62
7
  6
CONTINUOUS
 10
177.751394
 20
114.000254
 11
177.751394
 21
116.020980
  0
LINE
  8
1
 62
7
  6
CONTINUOUS
 10
177.751394
 20
111.979528
 11
177.751394
 21
114.000254
  0
LINE
  8
1
 62
7
  6
CONTINUOUS
 10
174.251394
 20
109.958802
 11
177.751394
 21
111.979528
  0
LINE
  8
1
 62
7
  6
CONTINUOUS
 10
170.751394
 20
111.979528
 11
174.251394
 21
109.958802
  0
LINE
  8
1
 62
7
  6
CONTINUOUS
 10
170.751394
 20
116.020980
 11
170.751394
 21
111.979528
  0
LINE
  8
1
 62
7
  6
CONTINUOUS
 10
174.251394
 20
118.041706
 11
170.751394
 21
116.020980
  0
LINE
  8
1
 62
7
  6
CONTINUOUS
 10
177.751394
 20
116.020980
 11
174.251394
 21
118.041706
  0
LINE
  8
1
 62
7
  6
CONTINUOUS
 10
242.090055
 20
99.251516
 11
278.251662
 21
99.251516
  0
LINE
  8
1
 62
7
  6
CONTINUOUS
 10
274.622196
 20
62.482779
 11
272.140342
 21
62.482779
  0
LINE
  8
1
 62
7
  6
CONTINUOUS
 10
274.622196
 20
66.522779
 11
272.140342
 21
66.522779
  0
LINE
  8
1
 62
7
  6
CONTINUOUS
 10
271.781269
 20
67.532779
 11
271.781269
 21
61.472779
  0
LINE
  8
1
 62
7
  6
CONTINUOUS
 10
272.140342
 20
68.542779
 11
274.622196
 21
68.542779
  0
LINE
  8
1
 62
7
  6
CONTINUOUS
 10
272.140342
 20
60.462779
 11
274.622196
 21
60.462779
  0
LINE
  8
1
 62
7
  6
CONTINUOUS
 10
261.366434
 20
103.251516
 11
271.981269
 21
103.251516
  0
LINE
  8
1
 62
7
  6
CONTINUOUS
 10
333.981269
 20
74.751516
 11
333.981269
 21
67.962371
  0
LINE
  8
1
 62
7
  6
DASHDOT
 10
359.419354
 20
120.950415
 11
341.733849
 21
121.104573
  0
LINE
  8
1
 62
7
  6
DASHDOT
 10
295.071838
 20
121.007004
 11
313.219260
 21
121.007004
  0
LINE
  8
1
 62
7
  6
CONTINUOUS
 10
275.981269
 20
98.751516
 11
275.981269
 21
99.251516
  0
LINE
  8
1
 62
7
  6
CONTINUOUS
 10
275.981269
 20
108.248991
 11
275.981269
 21
113.000254
  0
LINE
  8
1
 62
7
  6
CONTINUOUS
 10
275.481269
 20
58.751516
 11
324.981269
 21
58.751516
  0
LINE
  8
1
 62
7
  6
CONTINUOUS
 10
275.981269
 20
65.502779
 11
275.981269
 21
70.254042
  0
LINE
  8
1
 62
7
  6
CONTINUOUS
 10
275.481269
 20
70.254042
 11
275.981269
 21
70.254042
  0
LINE
  8
1
 62
7
  6
CONTINUOUS
 10
275.981269
 20
98.251516
 11
275.981269
 21
99.251516
  0
LINE
  8
1
 62
7
  6
CONTINUOUS
 10
275.981269
 20
70.254042
 11
275.981269
 21
86.251516
  0
LINE
  8
1
 62
7
  6
CONTINUOUS
 10
243.481269
 20
102.251516
 11
242.981269
 21
102.251516
  0
LINE
  8
1
 62
7
  6
CONTINUOUS
 10
243.481269
 20
95.251516
 11
243.481269
 21
102.251516
  0
LINE
  8
1
 62
7
  6
CONTINUOUS
 10
255.981269
 20
102.251516
 11
243.481269
 21
102.251516
  0
LINE
  8
1
 62
7
  6
CONTINUOUS
 10
242.981269
 20
95.751516
 11
243.481269
 21
95.251516
  0
LINE
  8
1
 62
7
  6
CONTINUOUS
 10
242.981269
 20
95.751516
 11
242.981269
 21
102.251516
  0
LINE
  8
1
 62
7
  6
CONTINUOUS
 10
271.981269
 20
87.251516
 11
271.981269
 21
97.751516
  0
LINE
  8
1
 62
7
  6
CONTINUOUS
 10
271.981269
 20
97.751516
 11
271.981269
 21
105.751516
  0
LINE
  8
1
 62
7
  6
CONTINUOUS
 10
271.981269
 20
95.251516
 11
243.481269
 21
95.251516
  0
LINE
  8
1
 62
7
  6
CONTINUOUS
 10
275.981269
 20
99.251516
 11
275.981269
 21
98.751516
  0
LINE
  8
1
 62
7
  6
CONTINUOUS
 10
275.481269
 20
86.751516
 11
272.481269
 21
86.751516
  0
LINE
  8
1
 62
7
  6
CONTINUOUS
 10
271.981269
 20
105.751516
 11
271.981269
 21
110.195657
  0
LINE
  8
1
 62
7
  6
CONTINUOUS
 10
275.981269
 20
86.751516
 11
275.981269
 21
108.248991
  0
LINE
  8
1
 62
7
  6
CONTINUOUS
 10
275.981269
 20
108.248991
 11
275.481269
 21
108.248991
  0
LINE
  8
1
 62
7
  6
CONTINUOUS
 10
274.981269
 20
108.748991
 11
274.981269
 21
119.251516
  0
LINE
  8
1
 62
7
  6
CONTINUOUS
 10
324.981269
 20
119.751516
 11
275.481269
 21
119.751516
  0
LINE
  8
1
 62
7
  6
CONTINUOUS
 10
363.981269
 20
119.001516
 11
368.981269
 21
119.001516
  0
LINE
  8
1
 62
7
  6
CONTINUOUS
 10
371.981269
 20
116.001516
 11
371.981269
 21
62.501516
  0
LINE
  8
1
 62
7
  6
CONTINUOUS
 10
363.981269
 20
119.251516
 11
363.981269
 21
119.001516
  0
LINE
  8
1
 62
7
  6
CONTINUOUS
 10
363.981269
 20
119.001516
 11
363.981269
 21
59.501516
  0
LINE
  8
1
 62
7
  6
CONTINUOUS
 10
368.981269
 20
119.001516
 11
371.981269
 21
116.001516
  0
LINE
  8
1
 62
7
  6
CONTINUOUS
 10
363.981269
 20
119.251516
 11
333.981269
 21
119.509713
  0
LINE
  8
1
 62
7
  6
CONTINUOUS
 10
368.981269
 20
59.501516
 11
363.981269
 21
59.501516
  0
LINE
  8
1
 62
7
  6
CONTINUOUS
 10
363.981269
 20
59.501516
 11
363.981269
 21
59.251516
  0
LINE
  8
1
 62
7
  6
CONTINUOUS
 10
371.981269
 20
62.501516
 11
368.981269
 21
59.501516
  0
LINE
  8
1
 62
7
  6
CONTINUOUS
 10
368.981269
 20
59.501516
 11
368.981269
 21
119.001516
  0
LINE
  8
1
 62
7
  6
CONTINUOUS
 10
324.981269
 20
58.901516
 11
332.481269
 21
58.901516
  0
LINE
  8
1
 62
7
  6
CONTINUOUS
 10
332.481269
 20
119.601516
 11
324.981269
 21
119.601516
  0
LINE
  8
1
 62
7
  6
CONTINUOUS
 10
333.981269
 20
74.751516
 11
333.981269
 21
67.962371
  0
LINE
  8
1
 62
7
  6
CONTINUOUS
 10
333.981269
 20
119.442493
 11
333.981269
 21
117.500254
  0
LINE
  8
1
 62
7
  6
CONTINUOUS
 10
333.981269
 20
58.993320
 11
363.981269
 21
59.251516
  0
LINE
  8
1
 62
7
  6
CONTINUOUS
 10
332.521047
 20
58.903101
 11
333.981269
 21
58.903101
  0
LINE
  8
1
 62
7
  6
CONTINUOUS
 10
333.981269
 20
58.903101
 11
333.981269
 21
58.993320
  0
LINE
  8
1
 62
7
  6
CONTINUOUS
 10
332.481269
 20
119.601516
 11
333.981269
 21
119.601516
  0
LINE
  8
1
 62
7
  6
CONTINUOUS
 10
333.981269
 20
119.601516
 11
333.981269
 21
119.442493
  0
LINE
  8
1
 62
7
  6
CONTINUOUS
 10
333.981269
 20
119.442493
 11
333.981269
 21
119.509713
  0
LINE
  8
1
 62
7
  6
CONTINUOUS
 10
274.981269
 20
60.002779
 11
274.981269
 21
69.002779
  0
LINE
  8
1
 62
7
  6
CONTINUOUS
 10
274.981269
 20
69.754042
 11
274.981269
 21
59.251516
  0
LINE
  8
1
 62
7
  6
CONTINUOUS
 10
333.981269
 20
67.962371
 11
333.981269
 21
58.993320
  0
LINE
  8
1
 62
7
  6
CONTINUOUS
 10
272.481269
 20
111.751516
 11
274.981269
 21
111.751516
  0
LINE
  8
1
 62
7
  6
CONTINUOUS
 10
278.444728
 20
64.502779
 11
270.408475
 21
64.502779
  0
LINE
  8
1
 62
7
  6
CONTINUOUS
 10
332.481269
 20
119.601516
 11
324.981269
 21
119.601516
  0
LINE
  8
1
 62
7
  6
CONTINUOUS
 10
324.981269
 20
119.751516
 11
324.981269
 21
106.751516
  0
LINE
  8
1
 62
7
  6
CONTINUOUS
 10
333.981269
 20
110.500254
 11
333.981269
 21
74.751516
  0
LINE
  8
1
 62
7
  6
CONTINUOUS
 10
332.981269
 20
106.751516
 11
332.981269
 21
59.401516
  0
LINE
  8
1
 62
7
  6
CONTINUOUS
 10
274.981269
 20
110.500254
 11
274.981269
 21
117.500254
  0
LINE
  8
1
 62
7
  6
CONTINUOUS
 10
333.981269
 20
110.500254
 11
333.981269
 21
117.500254
  0
LINE
  8
1
 62
7
  6
CONTINUOUS
 10
332.981269
 20
110.500254
 11
333.981269
 21
110.500254
  0
LINE
  8
1
 62
7
  6
CONTINUOUS
 10
332.981269
 20
117.500254
 11
333.981269
 21
117.500254
  0
LINE
  8
1
 62
7
  6
CONTINUOUS
 10
333.981269
 20
110.500254
 11
334.581269
 21
110.500254
  0
LINE
  8
1
 62
7
  6
CONTINUOUS
 10
330.079454
 20
114.000254
 11
337.432915
 21
114.000254
  0
LINE
  8
1
 62
7
  6
CONTINUOUS
 10
336.581269
 20
112.500254
 11
336.581269
 21
115.500254
  0
LINE
  8
1
 62
7
  6
CONTINUOUS
 10
261.451277
 20
114.000254
 11
277.444728
 21
114.000254
  0
LINE
  8
1
 62
7
  6
CONTINUOUS
 10
271.781269
 20
112.000254
 11
264.381269
 21
112.000254
  0
LINE
  8
1
 62
7
  6
CONTINUOUS
 10
271.781269
 20
112.400254
 11
264.381269
 21
112.400254
  0
LINE
  8
1
 62
7
  6
CONTINUOUS
 10
264.381269
 20
115.600254
 11
271.781269
 21
115.600254
  0
LINE
  8
1
 62
7
  6
CONTINUOUS
 10
264.381269
 20
116.000254
 11
271.781269
 21
116.000254
  0
LINE
  8
1
 62
7
  6
CONTINUOUS
 10
264.381269
 20
112.000254
 11
264.381269
 21
112.400254
  0
LINE
  8
1
 62
7
  6
CONTINUOUS
 10
264.381269
 20
112.400254
 11
263.981269
 21
112.400254
  0
LINE
  8
1
 62
7
  6
CONTINUOUS
 10
263.981269
 20
112.400254
 11
263.981269
 21
115.600254
  0
LINE
  8
1
 62
7
  6
CONTINUOUS
 10
263.981269
 20
115.600254
 11
264.381269
 21
115.600254
  0
LINE
  8
1
 62
7
  6
CONTINUOUS
 10
264.381269
 20
112.400254
 11
264.381269
 21
115.600254
  0
LINE
  8
1
 62
7
  6
CONTINUOUS
 10
264.381269
 20
112.000254
 11
263.981269
 21
112.400254
  0
LINE
  8
1
 62
7
  6
CONTINUOUS
 10
264.381269
 20
115.600254
 11
264.381269
 21
116.000254
  0
LINE
  8
1
 62
7
  6
CONTINUOUS
 10
263.981269
 20
115.600254
 11
264.381269
 21
116.000254
  0
LINE
  8
1
 62
7
  6
CONTINUOUS
 10
271.781269
 20
117.030254
 11
271.781269
 21
110.970254
  0
LINE
  8
1
 62
7
  6
CONTINUOUS
 10
272.140342
 20
111.980254
 11
273.381269
 21
111.980254
  0
LINE
  8
1
 62
7
  6
CONTINUOUS
 10
272.140342
 20
116.020254
 11
273.381269
 21
116.020254
  0
LINE
  8
1
 62
7
  6
CONTINUOUS
 10
272.140342
 20
118.040254
 11
273.381269
 21
118.040254
  0
LINE
  8
1
 62
7
  6
CONTINUOUS
 10
272.140342
 20
109.960254
 11
273.381269
 21
109.960254
  0
LINE
  8
1
 62
7
  6
CONTINUOUS
 10
273.381269
 20
111.980254
 11
274.622196
 21
111.980254
  0
LINE
  8
1
 62
7
  6
CONTINUOUS
 10
273.381269
 20
116.020254
 11
274.622196
 21
116.020254
  0
LINE
  8
1
 62
7
  6
CONTINUOUS
 10
273.381269
 20
118.040254
 11
274.622196
 21
118.040254
  0
LINE
  8
1
 62
7
  6
CONTINUOUS
 10
273.381269
 20
109.960254
 11
274.622196
 21
109.960254
  0
LINE
  8
1
 62
7
  6
CONTINUOUS
 10
333.981269
 20
110.970254
 11
333.981269
 21
117.030254
  0
LINE
  8
1
 62
7
  6
CONTINUOUS
 10
332.981269
 20
72.751516
 11
311.981269
 21
72.751516
  0
LINE
  8
1
 62
7
  6
CONTINUOUS
 10
311.981269
 20
72.751516
 11
311.981269
 21
106.751516
  0
LINE
  8
1
 62
7
  6
CONTINUOUS
 10
311.981269
 20
106.751516
 11
332.981269
 21
106.751516
  0
LINE
  8
1
 62
7
  6
CONTINUOUS
 10
332.981269
 20
106.751516
 11
332.981269
 21
110.500254
  0
LINE
  8
1
 62
7
  6
CONTINUOUS
 10
324.981269
 20
72.751516
 11
324.981269
 21
58.751516
  0
LINE
  8
1
 62
7
  6
CONTINUOUS
 10
332.981269
 20
119.101516
 11
332.981269
 21
110.500254
  0
LINE
  8
1
 62
7
  6
CONTINUOUS
 10
333.981269
 20
117.500254
 11
334.581269
 21
117.500254
  0
LINE
  8
1
 62
7
  6
CONTINUOUS
 10
261.451277
 20
64.502779
 11
277.444728
 21
64.502779
  0
LINE
  8
1
 62
7
  6
CONTINUOUS
 10
271.981269
 20
110.195657
 11
271.981269
 21
111.251306
  0
LINE
  8
1
 62
7
  6
CONTINUOUS
 10
93.344288
 20
117.599745
 11
93.344288
 21
126.012089
  0
LINE
  8
1
 62
7
  6
CONTINUOUS
 10
93.344288
 20
115.099745
 11
93.344288
 21
126.012089
  0
LINE
  8
1
 62
7
  6
CONTINUOUS
 10
93.344288
 20
126.012089
 11
93.344288
 21
127.127218
  0
LINE
  8
1
 62
7
  6
CONTINUOUS
 10
93.344288
 20
126.012089
 11
93.344288
 21
127.127218
  0
LINE
  8
1
 62
7
  6
CONTINUOUS
 10
93.344288
 20
127.127218
 11
93.344288
 21
140.599745
  0
LINE
  8
1
 62
7
  6
CONTINUOUS
 10
93.344288
 20
127.127218
 11
93.344288
 21
138.099745
  0
LINE
  8
1
 62
7
  6
CONTINUOUS
 10
93.344288
 20
137.099745
 11
93.344288
 21
136.099745
  0
LINE
  8
1
 62
7
  6
CONTINUOUS
 10
93.344288
 20
142.099745
 11
93.344288
 21
141.099745
  0
LINE
  8
1
 62
7
  6
CONTINUOUS
 10
93.344288
 20
143.099745
 11
93.344288
 21
135.049745
  0
LINE
  8
1
 62
7
  6
CONTINUOUS
 10
22.648971
 20
128.484615
 11
22.648971
 21
117.599745
  0
LINE
  8
1
 62
7
  6
CONTINUOUS
 10
22.648971
 20
128.484615
 11
22.648971
 21
117.599745
  0
LINE
  8
1
 62
7
  6
CONTINUOUS
 10
22.648971
 20
129.599745
 11
22.648971
 21
128.484615
  0
LINE
  8
1
 62
7
  6
CONTINUOUS
 10
22.648971
 20
129.599745
 11
22.648971
 21
128.484615
  0
LINE
  8
1
 62
7
  6
CONTINUOUS
 10
93.344288
 20
117.599745
 11
93.344288
 21
140.599745
  0
LINE
  8
1
 62
7
  6
CONTINUOUS
 10
93.344288
 20
115.099745
 11
93.344288
 21
138.099745
  0
LINE
  8
1
 62
7
  6
CONTINUOUS
 10
93.344288
 20
142.099745
 11
93.344288
 21
141.099745
  0
LINE
  8
1
 62
7
  6
CONTINUOUS
 10
93.344288
 20
143.099745
 11
93.344288
 21
135.049745
  0
LINE
  8
1
 62
7
  6
CONTINUOUS
 10
73.344288
 20
128.599745
 11
57.389157
 21
128.553502
  0
LINE
  8
1
 62
7
  6
CONTINUOUS
 10
22.648971
 20
140.599745
 11
22.648971
 21
129.599745
  0
LINE
  8
1
 62
7
  6
CONTINUOUS
 10
73.344288
 20
129.599745
 11
56.686152
 21
129.599745
  0
LINE
  8
1
 62
7
  6
CONTINUOUS
 10
22.648971
 20
138.099745
 11
22.648971
 21
129.599745
  0
LINE
  8
1
 62
7
  6
CONTINUOUS
 10
22.648971
 20
136.099745
 11
22.648971
 21
137.099745
  0
LINE
  8
1
 62
7
  6
CONTINUOUS
 10
22.648971
 20
138.599745
 11
22.648971
 21
139.599745
  0
LINE
  8
1
 62
7
  6
CONTINUOUS
 10
22.648971
 20
135.049745
 11
22.648971
 21
140.599745
  0
LINE
  8
1
 62
7
  6
CONTINUOUS
 10
18.901801
 20
138.599745
 11
14.748971
 21
138.599745
  0
LINE
  8
1
 62
7
  6
CONTINUOUS
 10
18.901801
 20
139.599745
 11
18.901801
 21
138.599745
  0
LINE
  8
1
 62
7
  6
CONTINUOUS
 10
14.748971
 20
139.599745
 11
14.748971
 21
138.599745
  0
LINE
  8
1
 62
7
  6
CONTINUOUS
 10
14.748971
 20
139.599745
 11
18.901801
 21
139.599745
  0
LINE
  8
1
 62
7
  6
CONTINUOUS
 10
18.901801
 20
136.099745
 11
14.748971
 21
136.099745
  0
LINE
  8
1
 62
7
  6
CONTINUOUS
 10
18.901801
 20
137.099745
 11
18.901801
 21
136.099745
  0
LINE
  8
1
 62
7
  6
CONTINUOUS
 10
14.748971
 20
137.099745
 11
14.748971
 21
136.099745
  0
LINE
  8
1
 62
7
  6
CONTINUOUS
 10
14.748971
 20
137.099745
 11
18.901801
 21
137.099745
  0
LINE
  8
1
 62
7
  6
CONTINUOUS
 10
18.901801
 20
133.599745
 11
14.748971
 21
133.599745
  0
LINE
  8
1
 62
7
  6
CONTINUOUS
 10
18.901801
 20
134.599745
 11
18.901801
 21
133.599745
  0
LINE
  8
1
 62
7
  6
CONTINUOUS
 10
14.748971
 20
134.599745
 11
14.748971
 21
133.599745
  0
LINE
  8
1
 62
7
  6
CONTINUOUS
 10
14.748971
 20
134.599745
 11
18.901801
 21
134.599745
  0
LINE
  8
1
 62
7
  6
CONTINUOUS
 10
18.901801
 20
131.099745
 11
14.748971
 21
131.099745
  0
LINE
  8
1
 62
7
  6
CONTINUOUS
 10
18.901801
 20
132.099745
 11
18.901801
 21
131.099745
  0
LINE
  8
1
 62
7
  6
CONTINUOUS
 10
14.748971
 20
132.099745
 11
14.748971
 21
131.099745
  0
LINE
  8
1
 62
7
  6
CONTINUOUS
 10
14.748971
 20
132.099745
 11
18.901801
 21
132.099745
  0
LINE
  8
1
 62
7
  6
CONTINUOUS
 10
18.901801
 20
128.599745
 11
14.748971
 21
128.599745
  0
LINE
  8
1
 62
7
  6
CONTINUOUS
 10
18.901801
 20
129.599745
 11
18.901801
 21
128.599745
  0
LINE
  8
1
 62
7
  6
CONTINUOUS
 10
14.748971
 20
129.599745
 11
14.748971
 21
128.599745
  0
LINE
  8
1
 62
7
  6
CONTINUOUS
 10
14.748971
 20
129.599745
 11
18.901801
 21
129.599745
  0
LINE
  8
1
 62
7
  6
CONTINUOUS
 10
18.901801
 20
126.099745
 11
14.748971
 21
126.099745
  0
LINE
  8
1
 62
7
  6
CONTINUOUS
 10
18.901801
 20
127.099745
 11
18.901801
 21
126.099745
  0
LINE
  8
1
 62
7
  6
CONTINUOUS
 10
14.748971
 20
127.099745
 11
14.748971
 21
126.099745
  0
LINE
  8
1
 62
7
  6
CONTINUOUS
 10
14.748971
 20
127.099745
 11
18.901801
 21
127.099745
  0
LINE
  8
1
 62
7
  6
CONTINUOUS
 10
18.901801
 20
123.599745
 11
14.748971
 21
123.599745
  0
LINE
  8
1
 62
7
  6
CONTINUOUS
 10
18.901801
 20
124.599745
 11
18.901801
 21
123.599745
  0
LINE
  8
1
 62
7
  6
CONTINUOUS
 10
14.748971
 20
124.599745
 11
14.748971
 21
123.599745
  0
LINE
  8
1
 62
7
  6
CONTINUOUS
 10
14.748971
 20
124.599745
 11
18.901801
 21
124.599745
  0
LINE
  8
1
 62
7
  6
CONTINUOUS
 10
18.901801
 20
121.099745
 11
14.748971
 21
121.099745
  0
LINE
  8
1
 62
7
  6
CONTINUOUS
 10
18.901801
 20
122.099745
 11
18.901801
 21
121.099745
  0
LINE
  8
1
 62
7
  6
CONTINUOUS
 10
14.748971
 20
122.099745
 11
14.748971
 21
121.099745
  0
LINE
  8
1
 62
7
  6
CONTINUOUS
 10
14.748971
 20
122.099745
 11
18.901801
 21
122.099745
  0
LINE
  8
1
 62
7
  6
CONTINUOUS
 10
18.901801
 20
118.599745
 11
14.748971
 21
118.599745
  0
LINE
  8
1
 62
7
  6
CONTINUOUS
 10
18.901801
 20
119.599745
 11
18.901801
 21
118.599745
  0
LINE
  8
1
 62
7
  6
CONTINUOUS
 10
14.748971
 20
119.599745
 11
14.748971
 21
118.599745
  0
LINE
  8
1
 62
7
  6
CONTINUOUS
 10
14.748971
 20
119.599745
 11
18.901801
 21
119.599745
  0
LINE
  8
1
 62
7
  6
CONTINUOUS
 10
96.499623
 20
137.049745
 11
95.938905
 21
137.049745
  0
LINE
  8
1
 62
7
  6
CONTINUOUS
 10
96.499623
 20
135.049745
 11
101.244288
 21
135.049745
  0
LINE
  8
1
 62
7
  6
CONTINUOUS
 10
96.499623
 20
135.049745
 11
96.499623
 21
137.049745
  0
LINE
  8
1
 62
7
  6
CONTINUOUS
 10
96.499623
 20
123.149745
 11
95.938905
 21
123.149745
  0
LINE
  8
1
 62
7
  6
CONTINUOUS
 10
96.499623
 20
121.149745
 11
101.244288
 21
121.149745
  0
LINE
  8
1
 62
7
  6
CONTINUOUS
 10
96.499623
 20
121.149745
 11
96.499623
 21
123.149745
  0
LINE
  8
1
 62
7
  6
CONTINUOUS
 10
97.845347
 20
143.099745
 11
97.396772
 21
143.099745
  0
LINE
  8
1
 62
7
  6
CONTINUOUS
 10
97.845347
 20
140.099745
 11
97.396772
 21
140.099745
  0
LINE
  8
1
 62
7
  6
CONTINUOUS
 10
97.845347
 20
140.099745
 11
97.845347
 21
143.099745
  0
LINE
  8
1
 62
7
  6
CONTINUOUS
 10
99.116308
 20
140.099745
 11
97.845347
 21
140.099745
  0
LINE
  8
1
 62
7
  6
CONTINUOUS
 10
99.116308
 20
143.099745
 11
97.845347
 21
143.099745
  0
LINE
  8
1
 62
7
  6
CONTINUOUS
 10
99.116308
 20
143.099745
 11
99.116308
 21
140.099745
  0
LINE
  8
1
 62
7
  6
CONTINUOUS
 10
97.845347
 20
118.099745
 11
97.396772
 21
118.099745
  0
LINE
  8
1
 62
7
  6
CONTINUOUS
 10
97.845347
 20
115.099745
 11
99.116308
 21
115.099745
  0
LINE
  8
1
 62
7
  6
CONTINUOUS
 10
97.845347
 20
115.099745
 11
97.845347
 21
118.099745
  0
LINE
  8
1
 62
7
  6
CONTINUOUS
 10
99.116308
 20
115.099745
 11
100.125601
 21
115.099745
  0
LINE
  8
1
 62
7
  6
CONTINUOUS
 10
99.116308
 20
118.099745
 11
97.845347
 21
118.099745
  0
LINE
  8
1
 62
7
  6
CONTINUOUS
 10
99.116308
 20
118.099745
 11
99.116308
 21
115.099745
  0
LINE
  8
1
 62
7
  6
CONTINUOUS
 10
97.396772
 20
143.099745
 11
93.344288
 21
143.099745
  0
LINE
  8
1
 62
7
  6
CONTINUOUS
 10
97.396772
 20
140.099745
 11
97.396772
 21
143.099745
  0
LINE
  8
1
 62
7
  6
CONTINUOUS
 10
100.125601
 20
140.099745
 11
99.116308
 21
140.099745
  0
LINE
  8
1
 62
7
  6
CONTINUOUS
 10
100.125601
 20
143.099745
 11
99.116308
 21
143.099745
  0
LINE
  8
1
 62
7
  6
CONTINUOUS
 10
100.125601
 20
143.099745
 11
100.125601
 21
140.099745
  0
LINE
  8
1
 62
7
  6
CONTINUOUS
 10
97.396772
 20
115.099745
 11
97.845347
 21
115.099745
  0
LINE
  8
1
 62
7
  6
CONTINUOUS
 10
97.396772
 20
118.099745
 11
97.396772
 21
115.099745
  0
LINE
  8
1
 62
7
  6
CONTINUOUS
 10
100.125601
 20
118.099745
 11
99.116308
 21
118.099745
  0
LINE
  8
1
 62
7
  6
CONTINUOUS
 10
100.125601
 20
115.099745
 11
101.244288
 21
115.099745
  0
LINE
  8
1
 62
7
  6
CONTINUOUS
 10
100.125601
 20
115.099745
 11
100.125601
 21
118.099745
  0
LINE
  8
1
 62
7
  6
CONTINUOUS
 10
101.244288
 20
121.149745
 11
101.244288
 21
123.149745
  0
LINE
  8
1
 62
7
  6
CONTINUOUS
 10
95.938905
 20
121.149745
 11
96.499623
 21
121.149745
  0
LINE
  8
1
 62
7
  6
CONTINUOUS
 10
95.938905
 20
123.149745
 11
95.938905
 21
121.149745
  0
LINE
  8
1
 62
7
  6
CONTINUOUS
 10
101.244288
 20
123.149745
 11
96.499623
 21
123.149745
  0
LINE
  8
1
 62
7
  6
CONTINUOUS
 10
101.244288
 20
123.149745
 11
101.244288
 21
135.049745
  0
LINE
  8
1
 62
7
  6
CONTINUOUS
 10
101.244288
 20
135.049745
 11
101.244288
 21
123.149745
  0
LINE
  8
1
 62
7
  6
CONTINUOUS
 10
101.244288
 20
135.049745
 11
101.244288
 21
137.049745
  0
LINE
  8
1
 62
7
  6
CONTINUOUS
 10
95.938905
 20
135.049745
 11
96.499623
 21
135.049745
  0
LINE
  8
1
 62
7
  6
CONTINUOUS
 10
95.938905
 20
137.049745
 11
95.938905
 21
135.049745
  0
LINE
  8
1
 62
7
  6
CONTINUOUS
 10
101.244288
 20
137.049745
 11
101.244288
 21
143.099745
  0
LINE
  8
1
 62
7
  6
CONTINUOUS
 10
101.244288
 20
137.049745
 11
96.499623
 21
137.049745
  0
LINE
  8
1
 62
7
  6
CONTINUOUS
 10
101.244288
 20
143.099745
 11
100.125601
 21
143.099745
  0
LINE
  8
1
 62
7
  6
CONTINUOUS
 10
101.244288
 20
115.099745
 11
101.244288
 21
121.149745
  0
LINE
  8
1
 62
7
  6
CONTINUOUS
 10
93.344288
 20
115.099745
 11
97.396772
 21
115.099745
  0
LINE
  8
1
 62
7
  6
CONTINUOUS
 10
93.344288
 20
143.099745
 11
93.344288
 21
115.099745
  0
LINE
  8
1
 62
7
  6
CONTINUOUS
 10
22.648971
 20
140.599745
 11
14.748971
 21
140.599745
  0
LINE
  8
1
 62
7
  6
CONTINUOUS
 10
14.748971
 20
117.599745
 11
22.648971
 21
117.599745
  0
LINE
  8
1
 62
7
  6
CONTINUOUS
 10
14.748971
 20
140.599745
 11
14.748971
 21
117.599745
  0
LINE
  8
1
 62
7
  6
CONTINUOUS
 10
73.344288
 20
124.599745
 11
57.532609
 21
124.599745
  0
LINE
  8
1
 62
7
  6
CONTINUOUS
 10
73.344288
 20
125.599745
 11
58.057840
 21
125.599745
  0
LINE
  8
1
 62
7
  6
CONTINUOUS
 10
73.344288
 20
126.599745
 11
58.286212
 21
126.599745
  0
LINE
  8
1
 62
7
  6
CONTINUOUS
 10
73.344288
 20
127.599745
 11
57.993510
 21
127.599745
  0
LINE
  8
1
 62
7
  6
CONTINUOUS
 10
73.344288
 20
130.599745
 11
56.312490
 21
130.599745
  0
LINE
  8
1
 62
7
  6
CONTINUOUS
 10
73.344288
 20
131.599745
 11
56.473242
 21
131.599745
  0
LINE
  8
1
 62
7
  6
CONTINUOUS
 10
73.344288
 20
132.599745
 11
57.044697
 21
132.599745
  0
LINE
  8
1
 62
7
  6
CONTINUOUS
 10
73.344288
 20
133.599745
 11
57.819695
 21
133.599745
  0
LINE
  8
1
 62
7
  6
CONTINUOUS
 10
56.958435
 20
133.599745
 11
42.648971
 21
133.599745
  0
LINE
  8
1
 62
7
  6
CONTINUOUS
 10
56.707234
 20
124.599745
 11
42.648971
 21
124.599745
  0
LINE
  8
1
 62
7
  6
CONTINUOUS
 10
56.362609
 20
132.599745
 11
42.648971
 21
132.599745
  0
LINE
  8
1
 62
7
  6
CONTINUOUS
 10
55.871779
 20
131.599745
 11
42.648971
 21
131.599745
  0
LINE
  8
1
 62
7
  6
CONTINUOUS
 10
55.603116
 20
130.599745
 11
42.648971
 21
130.599745
  0
LINE
  8
1
 62
7
  6
CONTINUOUS
 10
55.702430
 20
129.599745
 11
38.975418
 21
129.599745
  0
LINE
  8
1
 62
7
  6
CONTINUOUS
 10
56.299467
 20
128.550894
 11
37.953298
 21
128.498927
  0
LINE
  8
1
 62
7
  6
CONTINUOUS
 10
56.967914
 20
127.599745
 11
42.648971
 21
127.599745
  0
LINE
  8
1
 62
7
  6
CONTINUOUS
 10
57.353179
 20
126.599745
 11
42.648971
 21
126.599745
  0
LINE
  8
1
 62
7
  6
CONTINUOUS
 10
57.180070
 20
125.599745
 11
42.648971
 21
125.599745
  0
LINE
  8
1
 62
7
  6
CONTINUOUS
 10
15.483760
 20
79.283489
 11
17.965614
 21
79.283489
  0
LINE
  8
1
 62
7
  6
CONTINUOUS
 10
15.483760
 20
87.363489
 11
17.965614
 21
87.363489
  0
LINE
  8
1
 62
7
  6
CONTINUOUS
 10
15.124687
 20
86.353489
 11
15.124687
 21
80.293489
  0
LINE
  8
1
 62
7
  6
CONTINUOUS
 10
17.965614
 20
85.343489
 11
15.483760
 21
85.343489
  0
LINE
  8
1
 62
7
  6
CONTINUOUS
 10
17.965614
 20
81.303489
 11
15.483760
 21
81.303489
  0
LINE
  8
1
 62
7
  6
CONTINUOUS
 10
18.324636
 20
86.353489
 11
18.324636
 21
80.293489
  0
LINE
  8
1
 62
7
  6
CONTINUOUS
 10
20.279710
 20
83.323489
 11
13.935025
 21
83.323489
  0
LINE
  8
1
 62
7
  6
CONTINUOUS
 10
95.378024
 20
83.823489
 11
95.378024
 21
79.523489
  0
LINE
  8
1
 62
7
  6
CONTINUOUS
 10
90.644691
 20
84.923489
 11
95.044691
 21
84.923489
  0
LINE
  8
1
 62
7
  6
CONTINUOUS
 10
90.705297
 20
85.323489
 11
95.105297
 21
85.323489
  0
LINE
  8
1
 62
7
  6
CONTINUOUS
 10
96.878024
 20
81.723489
 11
96.711357
 21
81.723489
  0
LINE
  8
1
 62
7
  6
CONTINUOUS
 10
96.878024
 20
81.323489
 11
96.650751
 21
81.323489
  0
LINE
  8
1
 62
7
  6
CONTINUOUS
 10
27.570844
 20
81.323489
 11
26.878024
 21
81.723489
  0
LINE
  8
1
 62
7
  6
CONTINUOUS
 10
27.570844
 20
81.323489
 11
27.570844
 21
81.723489
  0
LINE
  8
1
 62
7
  6
CONTINUOUS
 10
26.878024
 20
84.923489
 11
27.570844
 21
85.323489
  0
LINE
  8
1
 62
7
  6
CONTINUOUS
 10
27.570844
 20
85.323489
 11
90.705297
 21
85.323489
  0
LINE
  8
1
 62
7
  6
CONTINUOUS
 10
27.570844
 20
81.723489
 11
27.570844
 21
84.923489
  0
LINE
  8
1
 62
7
  6
CONTINUOUS
 10
27.570844
 20
81.723489
 11
26.878024
 21
81.723489
  0
LINE
  8
1
 62
7
  6
CONTINUOUS
 10
26.878024
 20
81.723489
 11
26.878024
 21
84.923489
  0
LINE
  8
1
 62
7
  6
CONTINUOUS
 10
26.878024
 20
84.923489
 11
27.570844
 21
84.923489
  0
LINE
  8
1
 62
7
  6
CONTINUOUS
 10
27.570844
 20
84.923489
 11
27.570844
 21
85.323489
  0
LINE
  8
1
 62
7
  6
CONTINUOUS
 10
27.570844
 20
84.923489
 11
90.644691
 21
84.923489
  0
LINE
  8
1
 62
7
  6
CONTINUOUS
 10
100.878024
 20
83.323489
 11
25.210773
 21
83.323489
  0
LINE
  8
1
 62
7
  6
CONTINUOUS
 10
96.878024
 20
79.823489
 11
97.478024
 21
79.823489
  0
LINE
  8
1
 62
7
  6
CONTINUOUS
 10
99.478024
 20
81.823489
 11
99.478024
 21
84.823489
  0
LINE
  8
1
 62
7
  6
CONTINUOUS
 10
97.478024
 20
86.823489
 11
96.878024
 21
86.823489
  0
LINE
  8
1
 62
7
  6
CONTINUOUS
 10
96.878024
 20
86.823489
 11
96.878024
 21
79.823489
  0
LINE
  8
1
 62
7
  6
CONTINUOUS
 10
95.378024
 20
79.523489
 11
95.878024
 21
82.823489
  0
LINE
  8
1
 62
7
  6
CONTINUOUS
 10
95.878024
 20
82.823489
 11
96.878024
 21
82.823489
  0
LINE
  8
1
 62
7
  6
CONTINUOUS
 10
96.878024
 20
82.823489
 11
96.378024
 21
79.523489
  0
LINE
  8
1
 62
7
  6
CONTINUOUS
 10
96.378024
 20
79.523489
 11
95.378024
 21
79.523489
  0
LINE
  8
1
 62
7
  6
CONTINUOUS
 10
94.878024
 20
83.823489
 11
95.378024
 21
87.123489
  0
LINE
  8
1
 62
7
  6
CONTINUOUS
 10
95.378024
 20
87.123489
 11
96.378024
 21
87.123489
  0
LINE
  8
1
 62
7
  6
CONTINUOUS
 10
96.378024
 20
87.123489
 11
95.878024
 21
83.823489
  0
LINE
  8
1
 62
7
  6
CONTINUOUS
 10
95.878024
 20
83.823489
 11
94.878024
 21
83.823489
  0
LINE
  8
1
 62
7
  6
CONTINUOUS
 10
96.378024
 20
87.123489
 11
96.378024
 21
82.823489
  0
LINE
  8
1
 62
7
  6
CONTINUOUS
 10
96.378024
 20
85.323489
 11
96.878024
 21
85.323489
  0
LINE
  8
1
 62
7
  6
CONTINUOUS
 10
96.378024
 20
84.923489
 11
96.878024
 21
84.923489
  0
LINE
  8
1
 62
7
  6
CONTINUOUS
 10
95.378024
 20
81.723489
 11
27.570844
 21
81.723489
  0
LINE
  8
1
 62
7
  6
CONTINUOUS
 10
95.378024
 20
81.323489
 11
27.570844
 21
81.323489
  0
ARC
  8
1
 62
7
  6
CONTINUOUS
 10
273.381269
 20
61.472779
 40
1.600000
 50
-39.142406
 51
-0.000000
  0
ARC
  8
1
 62
7
  6
CONTINUOUS
 10
273.381269
 20
67.532779
 40
1.600000
 50
-39.142406
 51
-0.000000
  0
ARC
  8
1
 62
7
  6
CONTINUOUS
 10
149.502657
 20
89.251516
 40
35.000000
 50
-52.886003
 51
-45.000000
  0
ARC
  8
1
 62
7
  6
CONTINUOUS
 10
149.502657
 20
89.251516
 40
35.000000
 50
36.208274
 51
68.568492
  0
ARC
  8
1
 62
7
  6
CONTINUOUS
 10
149.502657
 20
89.251516
 40
35.000000
 50
-142.878965
 51
-116.719613
  0
ARC
  8
1
 62
7
  6
CONTINUOUS
 10
149.502657
 20
89.251516
 40
35.000000
 50
-142.878965
 51
-116.719613
  0
ARC
  8
1
 62
7
  6
CONTINUOUS
 10
149.502657
 20
89.251516
 40
35.000000
 50
127.113997
 51
143.631553
  0
ARC
  8
1
 62
7
  6
CONTINUOUS
 10
149.502657
 20
89.251516
 40
35.000000
 50
-45.000000
 51
-36.368447
  0
ARC
  8
1
 62
7
  6
CONTINUOUS
 10
269.119879
 20
64.502779
 40
5.861391
 50
-20.159096
 51
20.159096
  0
ARC
  8
1
 62
7
  6
CONTINUOUS
 10
273.381269
 20
61.472779
 40
1.600000
 50
0.000000
 51
39.142406
  0
ARC
  8
1
 62
7
  6
CONTINUOUS
 10
273.381269
 20
67.532779
 40
1.600000
 50
0.000000
 51
39.142406
  0
ARC
  8
1
 62
7
  6
CONTINUOUS
 10
277.642660
 20
64.502779
 40
5.861391
 50
159.840904
 51
-159.840904
  0
ARC
  8
1
 62
7
  6
CONTINUOUS
 10
273.381269
 20
61.472779
 40
1.600000
 50
140.857594
 51
-140.857594
  0
ARC
  8
1
 62
7
  6
CONTINUOUS
 10
273.381269
 20
67.532779
 40
1.600000
 50
140.857594
 51
-140.857594
  0
ARC
  8
1
 62
7
  6
CONTINUOUS
 10
255.981269
 20
117.251516
 40
15.000000
 50
-90.000000
 51
-68.960530
  0
ARC
  8
1
 62
7
  6
CONTINUOUS
 10
277.642660
 20
114.000254
 40
5.861391
 50
159.840904
 51
-159.840904
  0
ARC
  8
1
 62
7
  6
CONTINUOUS
 10
273.381269
 20
110.970254
 40
1.600000
 50
140.857594
 51
-140.857594
  0
ARC
  8
1
 62
7
  6
CONTINUOUS
 10
273.381269
 20
117.030254
 40
1.600000
 50
140.857594
 51
-140.857594
  0
ARC
  8
1
 62
7
  6
CONTINUOUS
 10
269.119879
 20
114.000254
 40
5.861391
 50
-20.159096
 51
20.159096
  0
ARC
  8
1
 62
7
  6
CONTINUOUS
 10
273.381269
 20
110.970254
 40
1.600000
 50
-39.142406
 51
39.142406
  0
ARC
  8
1
 62
7
  6
CONTINUOUS
 10
273.381269
 20
117.030254
 40
1.600000
 50
-39.142406
 51
39.142406
  0
ARC
  8
1
 62
7
  6
CONTINUOUS
 10
16.724687
 20
86.353489
 40
1.600000
 50
140.857594
 51
-140.857594
  0
ARC
  8
1
 62
7
  6
CONTINUOUS
 10
16.724687
 20
80.293489
 40
1.600000
 50
140.857594
 51
-140.857594
  0
ARC
  8
1
 62
7
  6
CONTINUOUS
 10
20.986078
 20
83.323489
 40
5.861391
 50
159.840904
 51
-159.840904
  0
ARC
  8
1
 62
7
  6
CONTINUOUS
 10
16.724687
 20
86.353489
 40
1.600000
 50
0.000000
 51
39.142406
  0
ARC
  8
1
 62
7
  6
CONTINUOUS
 10
16.724687
 20
80.293489
 40
1.600000
 50
0.000000
 51
39.142406
  0
ARC
  8
1
 62
7
  6
CONTINUOUS
 10
12.463297
 20
83.323489
 40
5.861391
 50
-20.159096
 51
20.159096
  0
ARC
  8
1
 62
7
  6
CONTINUOUS
 10
16.724687
 20
86.353489
 40
1.600000
 50
-39.142406
 51
-0.000000
  0
ARC
  8
1
 62
7
  6
CONTINUOUS
 10
16.724687
 20
80.293489
 40
1.600000
 50
-39.142406
 51
-0.000000
  0
CIRCLE
  8
1
 62
7
  6
CONTINUOUS
 10
174.251394
 20
64.502779
 40
1.400000
  0
CIRCLE
  8
1
 62
7
  6
CONTINUOUS
 10
174.251394
 20
64.502779
 40
2.000000
  0
CIRCLE
  8
1
 62
7
  6
CONTINUOUS
 10
174.251394
 20
64.502779
 40
3.500000
  0
CIRCLE
  8
1
 62
7
  6
CONTINUOUS
 10
124.753920
 20
114.000254
 40
1.400000
  0
CIRCLE
  8
1
 62
7
  6
CONTINUOUS
 10
124.753920
 20
114.000254
 40
2.000000
  0
CIRCLE
  8
1
 62
7
  6
CONTINUOUS
 10
124.753920
 20
114.000254
 40
3.500000
  0
CIRCLE
  8
1
 62
7
  6
CONTINUOUS
 10
149.502657
 20
89.251727
 40
35.000149
  0
CIRCLE
  8
1
 62
7
  6
CONTINUOUS
 10
174.251394
 20
64.502779
 40
5.752227
  0
CIRCLE
  8
1
 62
7
  6
CONTINUOUS
 10
124.753920
 20
114.000254
 40
5.753479
  0
CIRCLE
  8
1
 62
7
  6
CONTINUOUS
 10
124.753920
 20
64.502779
 40
5.754255
  0
CIRCLE
  8
1
 62
7
  6
CONTINUOUS
 10
174.251394
 20
114.000254
 40
5.778077
  0
CIRCLE
  8
1
 62
7
  6
CONTINUOUS
 10
149.502657
 20
99.251516
 40
4.000000
  0
CIRCLE
  8
1
 62
7
  6
CONTINUOUS
 10
124.753920
 20
64.502779
 40
1.400000
  0
CIRCLE
  8
1
 62
7
  6
CONTINUOUS
 10
124.753920
 20
64.502779
 40
2.000000
  0
CIRCLE
  8
1
 62
7
  6
CONTINUOUS
 10
124.753920
 20
64.502779
 40
3.500000
  0
CIRCLE
  8
1
 62
7
  6
CONTINUOUS
 10
174.251394
 20
114.000254
 40
1.400000
  0
CIRCLE
  8
1
 62
7
  6
CONTINUOUS
 10
174.251394
 20
114.000254
 40
2.000000
  0
CIRCLE
  8
1
 62
7
  6
CONTINUOUS
 10
174.251394
 20
114.000254
 40
3.500000
  0
CIRCLE
  8
1
 62
7
  6
CONTINUOUS
 10
149.502657
 20
99.251516
 40
12.500000
  0
ARC
  8
1
 62
7
  6
CONTINUOUS
 10
61.380998
 20
-29.972833
 40
159.344970
 50
83.734386
 51
83.998960
  0
ARC
  8
1
 62
7
  6
CONTINUOUS
 10
72.988536
 20
75.746911
 40
52.989909
 50
82.939614
 51
83.734586
  0
ARC
  8
1
 62
7
  6
CONTINUOUS
 10
75.609403
 20
96.906487
 40
31.668638
 50
81.611441
 51
82.939896
  0
ARC
  8
1
 62
7
  6
CONTINUOUS
 10
76.942602
 20
105.947053
 40
22.530298
 50
79.746748
 51
81.611565
  0
ARC
  8
1
 62
7
  6
CONTINUOUS
 10
77.852080
 20
110.971490
 40
17.424212
 50
75.722763
 51
79.748744
  0
ARC
  8
1
 62
7
  6
CONTINUOUS
 10
72.558289
 20
89.920633
 40
39.130458
 50
75.092070
 51
75.812300
  0
ARC
  8
1
 62
7
  6
CONTINUOUS
 10
-486.632160
 20
-2010.522415
 40
2212.734598
 50
75.079467
 51
75.092209
  0
ARC
  8
1
 62
7
  6
CONTINUOUS
 10
93.549553
 20
166.819910
 40
40.580831
 50
-104.920645
 51
-104.226065
  0
ARC
  8
1
 62
7
  6
CONTINUOUS
 10
88.507595
 20
146.932335
 40
20.064082
 50
-104.226065
 51
-102.822334
  0
ARC
  8
1
 62
7
  6
CONTINUOUS
 10
87.883682
 20
144.191118
 40
17.252758
 50
-102.822334
 51
-100.623294
  0
ARC
  8
1
 62
7
  6
CONTINUOUS
 10
93.569282
 20
174.503693
 40
48.093937
 50
-100.623294
 51
-99.834123
  0
ARC
  8
1
 62
7
  6
CONTINUOUS
 10
100.087605
 20
212.107220
 40
86.258236
 50
-99.834123
 51
-99.393799
  0
ARC
  8
1
 62
7
  6
CONTINUOUS
 10
77.040189
 20
73.562986
 40
54.190022
 50
79.772499
 51
80.473753
  0
ARC
  8
1
 62
7
  6
CONTINUOUS
 10
82.380686
 20
103.163125
 40
24.111970
 50
78.195463
 51
79.772318
  0
ARC
  8
1
 62
7
  6
CONTINUOUS
 10
81.842852
 20
100.947071
 40
26.391285
 50
76.734083
 51
78.036734
  0
ARC
  8
1
 62
7
  6
CONTINUOUS
 10
59.185081
 20
4.839331
 40
125.133740
 50
76.459606
 51
76.734430
  0
ARC
  8
1
 62
7
  6
CONTINUOUS
 10
99.163259
 20
170.843439
 40
45.616424
 50
-103.540780
 51
-102.787748
  0
ARC
  8
1
 62
7
  6
CONTINUOUS
 10
93.309978
 20
145.054600
 40
19.171668
 50
-102.787748
 51
-101.000280
  0
ARC
  8
1
 62
7
  6
CONTINUOUS
 10
91.951636
 20
138.066721
 40
12.052992
 50
-101.000280
 51
-98.164012
  0
ARC
  8
1
 62
7
  6
CONTINUOUS
 10
91.709765
 20
136.380753
 40
10.349763
 50
-98.164012
 51
-94.737630
  0
ARC
  8
1
 62
7
  6
CONTINUOUS
 10
92.227685
 20
142.630070
 40
16.620505
 50
-94.737630
 51
-92.599677
  0
ARC
  8
1
 62
7
  6
CONTINUOUS
 10
92.277039
 20
143.717061
 40
17.708616
 50
-92.599677
 51
-90.586845
  0
ARC
  8
1
 62
7
  6
CONTINUOUS
 10
92.591902
 20
174.457210
 40
48.450378
 50
-90.586845
 51
-89.849128
  0
ARC
  8
1
 62
7
  6
CONTINUOUS
 10
92.570184
 20
182.704889
 40
56.698085
 50
-89.849128
 51
-89.217711
  0
ARC
  8
1
 62
7
  6
CONTINUOUS
 10
-5.699984
 20
-900.207313
 40
1033.123814
 50
85.391493
 51
85.407655
  0
ARC
  8
1
 62
7
  6
CONTINUOUS
 10
49.625749
 20
-213.847804
 40
344.538081
 50
85.343017
 51
85.391490
  0
ARC
  8
1
 62
7
  6
CONTINUOUS
 10
60.798998
 20
-76.683757
 40
206.919705
 50
85.262274
 51
85.343012
  0
ARC
  8
1
 62
7
  6
CONTINUOUS
 10
65.664449
 20
-17.977258
 40
148.011932
 50
85.149342
 51
85.262266
  0
ARC
  8
1
 62
7
  6
CONTINUOUS
 10
68.426946
 20
14.575497
 40
115.342172
 50
85.004329
 51
85.149331
  0
ARC
  8
1
 62
7
  6
CONTINUOUS
 10
73.341620
 20
70.280047
 40
59.421274
 50
84.399528
 51
85.047937
  0
ARC
  8
1
 62
7
  6
CONTINUOUS
 10
76.022109
 20
97.613688
 40
31.956515
 50
83.193849
 51
84.399840
  0
ARC
  8
1
 62
7
  6
CONTINUOUS
 10
77.229576
 20
107.729000
 40
21.769390
 50
81.425559
 51
83.194340
  0
ARC
  8
1
 62
7
  6
CONTINUOUS
 10
78.022029
 20
112.984137
 40
16.454840
 50
79.088749
 51
81.425856
  0
ARC
  8
1
 62
7
  6
CONTINUOUS
 10
78.616459
 20
116.073807
 40
13.308507
 50
74.121621
 51
79.083777
  0
ARC
  8
1
 62
7
  6
CONTINUOUS
 10
71.970114
 20
92.318789
 40
37.975708
 50
73.554789
 51
74.282353
  0
ARC
  8
1
 62
7
  6
CONTINUOUS
 10
108.155746
 20
214.910058
 40
89.844553
 50
-106.445163
 51
-106.137660
  0
ARC
  8
1
 62
7
  6
CONTINUOUS
 10
88.886741
 20
148.315340
 40
20.518144
 50
-106.137660
 51
-104.792916
  0
ARC
  8
1
 62
7
  6
CONTINUOUS
 10
86.588364
 20
139.611977
 40
11.516418
 50
-104.792916
 51
-102.401210
  0
ARC
  8
1
 62
7
  6
CONTINUOUS
 10
86.342445
 20
138.493586
 40
10.371309
 50
-102.401210
 51
-98.797199
  0
ARC
  8
1
 62
7
  6
CONTINUOUS
 10
89.816402
 20
160.941241
 40
33.086185
 50
-98.797199
 51
-97.665434
  0
ARC
  8
1
 62
7
  6
CONTINUOUS
 10
96.989587
 20
214.237403
 40
86.862904
 50
-97.665434
 51
-97.233648
  0
ARC
  8
1
 62
7
  6
CONTINUOUS
 10
82.979179
 20
104.575544
 40
23.690455
 50
80.963430
 51
82.546916
  0
ARC
  8
1
 62
7
  6
CONTINUOUS
 10
84.836552
 20
116.254711
 40
11.864518
 50
77.801427
 51
80.963105
  0
ARC
  8
1
 62
7
  6
CONTINUOUS
 10
84.616327
 20
115.530915
 40
12.618659
 50
74.712164
 51
77.518486
  0
ARC
  8
1
 62
7
  6
CONTINUOUS
 10
78.619598
 20
93.587436
 40
35.366780
 50
73.711185
 51
74.714228
  0
ARC
  8
1
 62
7
  6
CONTINUOUS
 10
101.126325
 20
170.608553
 40
44.875386
 50
-106.289424
 51
-105.500181
  0
ARC
  8
1
 62
7
  6
CONTINUOUS
 10
92.753649
 20
140.418029
 40
13.545377
 50
-105.500181
 51
-102.898891
  0
ARC
  8
1
 62
7
  6
CONTINUOUS
 10
91.478144
 20
134.848388
 40
7.831551
 50
-102.898891
 51
-98.426239
  0
ARC
  8
1
 62
7
  6
CONTINUOUS
 10
91.286979
 20
133.557907
 40
6.526988
 50
-98.426239
 51
-93.181031
  0
ARC
  8
1
 62
7
  6
CONTINUOUS
 10
91.525785
 20
137.854799
 40
10.830510
 50
-93.181031
 51
-90.005707
  0
ARC
  8
1
 62
7
  6
CONTINUOUS
 10
91.525832
 20
138.328535
 40
11.304246
 50
-90.005707
 51
-86.942028
  0
ARC
  8
1
 62
7
  6
CONTINUOUS
 10
90.340639
 20
160.513844
 40
33.521191
 50
-86.942028
 51
-85.902480
  0
ARC
  8
1
 62
7
  6
CONTINUOUS
 10
90.215736
 20
162.257392
 40
35.269206
 50
-85.902480
 51
-84.910895
  0
ARC
  8
1
 62
7
  6
CONTINUOUS
 10
93.460184
 20
257.312907
 40
141.213210
 50
-90.415491
 51
-90.047024
  0
ARC
  8
1
 62
7
  6
CONTINUOUS
 10
92.775305
 20
162.937674
 40
46.835492
 50
-91.524009
 51
-90.414895
  0
ARC
  8
1
 62
7
  6
CONTINUOUS
 10
92.270261
 20
143.970870
 40
27.861965
 50
-93.382250
 51
-91.523130
  0
ARC
  8
1
 62
7
  6
CONTINUOUS
 10
91.789842
 20
135.844883
 40
19.721789
 50
-96.000353
 51
-93.381750
  0
ARC
  8
1
 62
7
  6
CONTINUOUS
 10
91.324037
 20
131.410972
 40
15.263477
 50
-99.379262
 51
-96.001268
  0
ARC
  8
1
 62
7
  6
CONTINUOUS
 10
91.188607
 20
130.469003
 40
14.312044
 50
-101.961266
 51
-99.458896
  0
ARC
  8
1
 62
7
  6
CONTINUOUS
 10
91.455096
 20
131.726966
 40
15.597924
 50
-104.261541
 51
-101.961230
  0
ARC
  8
1
 62
7
  6
CONTINUOUS
 10
91.828844
 20
133.197656
 40
17.115362
 50
-106.362211
 51
-104.261298
  0
ARC
  8
1
 62
7
  6
CONTINUOUS
 10
92.332918
 20
134.914977
 40
18.905133
 50
-108.267842
 51
-106.361831
  0
ARC
  8
1
 62
7
  6
CONTINUOUS
 10
93.002903
 20
136.944766
 40
21.042637
 50
-112.963665
 51
-108.267738
  0
ARC
  8
1
 62
7
  6
CONTINUOUS
 10
91.423343
 20
133.171788
 40
16.952406
 50
-116.720706
 51
-113.023262
  0
ARC
  8
1
 62
7
  6
CONTINUOUS
 10
90.324552
 20
130.989625
 40
14.509216
 50
-121.034190
 51
-116.719687
  0
ARC
  8
1
 62
7
  6
CONTINUOUS
 10
89.384711
 20
129.426956
 40
12.685693
 50
-125.971900
 51
-121.035641
  0
ARC
  8
1
 62
7
  6
CONTINUOUS
 10
88.618460
 20
128.369421
 40
11.379738
 50
-131.504951
 51
-125.977201
  0
ARC
  8
1
 62
7
  6
CONTINUOUS
 10
91.387812
 20
131.363572
 40
15.457522
 50
-136.047542
 51
-131.837757
  0
ARC
  8
1
 62
7
  6
CONTINUOUS
 10
133.906858
 20
172.375928
 40
74.532750
 50
-136.912881
 51
-136.036297
  0
ARC
  8
1
 62
7
  6
CONTINUOUS
 10
60.173629
 20
103.415644
 40
26.423230
 50
43.076089
 51
45.524555
  0
ARC
  8
1
 62
7
  6
CONTINUOUS
 10
71.255452
 20
114.702261
 40
10.605692
 50
45.524555
 51
51.494793
  0
ARC
  8
1
 62
7
  6
CONTINUOUS
 10
73.961607
 20
118.103729
 40
6.259054
 50
51.494793
 51
61.412868
  0
ARC
  8
1
 62
7
  6
CONTINUOUS
 10
74.428366
 20
118.960283
 40
5.283580
 50
61.412868
 51
69.325349
  0
ARC
  8
1
 62
7
  6
CONTINUOUS
 10
72.899379
 20
114.908517
 40
9.614240
 50
69.325349
 51
73.740540
  0
ARC
  8
1
 62
7
  6
CONTINUOUS
 10
72.903655
 20
114.923176
 40
9.598970
 50
73.740540
 51
78.247314
  0
ARC
  8
1
 62
7
  6
CONTINUOUS
 10
67.617427
 20
89.514631
 40
35.551587
 50
78.247314
 51
79.483030
  0
ARC
  8
1
 62
7
  6
CONTINUOUS
 10
68.940818
 20
96.643225
 40
28.301194
 50
79.483030
 51
81.048806
  0
ARC
  8
1
 62
7
  6
CONTINUOUS
 10
93.460184
 20
258.312907
 40
141.213210
 50
-90.415491
 51
-90.047024
  0
ARC
  8
1
 62
7
  6
CONTINUOUS
 10
92.775305
 20
163.937674
 40
46.835492
 50
-91.524009
 51
-90.414895
  0
ARC
  8
1
 62
7
  6
CONTINUOUS
 10
92.270261
 20
144.970870
 40
27.861965
 50
-93.382250
 51
-91.523130
  0
ARC
  8
1
 62
7
  6
CONTINUOUS
 10
91.789842
 20
136.844883
 40
19.721789
 50
-96.000353
 51
-93.381750
  0
ARC
  8
1
 62
7
  6
CONTINUOUS
 10
91.324037
 20
132.410972
 40
15.263477
 50
-99.379262
 51
-96.001268
  0
ARC
  8
1
 62
7
  6
CONTINUOUS
 10
91.188607
 20
131.469003
 40
14.312044
 50
-101.961266
 51
-99.458896
  0
ARC
  8
1
 62
7
  6
CONTINUOUS
 10
91.455096
 20
132.726966
 40
15.597924
 50
-104.261541
 51
-101.961230
  0
ARC
  8
1
 62
7
  6
CONTINUOUS
 10
91.828844
 20
134.197656
 40
17.115362
 50
-106.362211
 51
-104.261298
  0
ARC
  8
1
 62
7
  6
CONTINUOUS
 10
92.332918
 20
135.914977
 40
18.905133
 50
-108.267842
 51
-106.361831
  0
ARC
  8
1
 62
7
  6
CONTINUOUS
 10
93.002903
 20
137.944766
 40
21.042637
 50
-112.963665
 51
-108.267738
  0
ARC
  8
1
 62
7
  6
CONTINUOUS
 10
91.423343
 20
134.171788
 40
16.952406
 50
-116.720706
 51
-113.023262
  0
ARC
  8
1
 62
7
  6
CONTINUOUS
 10
90.324552
 20
131.989625
 40
14.509216
 50
-121.034190
 51
-116.719687
  0
ARC
  8
1
 62
7
  6
CONTINUOUS
 10
89.384711
 20
130.426956
 40
12.685693
 50
-125.971900
 51
-121.035641
  0
ARC
  8
1
 62
7
  6
CONTINUOUS
 10
88.618460
 20
129.369421
 40
11.379738
 50
-131.504951
 51
-125.977201
  0
ARC
  8
1
 62
7
  6
CONTINUOUS
 10
91.387812
 20
132.363572
 40
15.457522
 50
-136.047542
 51
-131.837757
  0
ARC
  8
1
 62
7
  6
CONTINUOUS
 10
133.906858
 20
173.375928
 40
74.532750
 50
-136.912881
 51
-136.036297
  0
ARC
  8
1
 62
7
  6
CONTINUOUS
 10
60.173629
 20
104.415644
 40
26.423230
 50
43.076089
 51
45.524555
  0
ARC
  8
1
 62
7
  6
CONTINUOUS
 10
71.255452
 20
115.702261
 40
10.605692
 50
45.524555
 51
51.494793
  0
ARC
  8
1
 62
7
  6
CONTINUOUS
 10
73.961607
 20
119.103729
 40
6.259054
 50
51.494793
 51
61.412868
  0
ARC
  8
1
 62
7
  6
CONTINUOUS
 10
74.428366
 20
119.960283
 40
5.283580
 50
61.412868
 51
69.325349
  0
ARC
  8
1
 62
7
  6
CONTINUOUS
 10
72.899379
 20
115.908517
 40
9.614240
 50
69.325349
 51
73.740540
  0
ARC
  8
1
 62
7
  6
CONTINUOUS
 10
72.903655
 20
115.923176
 40
9.598970
 50
73.740540
 51
78.247314
  0
ARC
  8
1
 62
7
  6
CONTINUOUS
 10
67.617427
 20
90.514631
 40
35.551587
 50
78.247314
 51
79.483030
  0
ARC
  8
1
 62
7
  6
CONTINUOUS
 10
68.940818
 20
97.643225
 40
28.301194
 50
79.483030
 51
81.048806
  0
ARC
  8
1
 62
7
  6
CONTINUOUS
 10
86.956536
 20
216.073607
 40
97.682942
 50
-86.686685
 51
-86.250598
  0
ARC
  8
1
 62
7
  6
CONTINUOUS
 10
90.737605
 20
150.748676
 40
32.248677
 50
-88.002018
 51
-86.685312
  0
ARC
  8
1
 62
7
  6
CONTINUOUS
 10
91.198114
 20
137.526607
 40
19.018591
 50
-90.219677
 51
-87.999761
  0
ARC
  8
1
 62
7
  6
CONTINUOUS
 10
91.175746
 20
131.816120
 40
13.308060
 50
-93.368546
 51
-90.217640
  0
ARC
  8
1
 62
7
  6
CONTINUOUS
 10
90.991621
 20
128.687778
 40
10.174305
 50
-97.466632
 51
-93.368599
  0
ARC
  8
1
 62
7
  6
CONTINUOUS
 10
91.043994
 20
128.842858
 40
10.334923
 50
-101.919057
 51
-97.642799
  0
ARC
  8
1
 62
7
  6
CONTINUOUS
 10
91.866560
 20
132.737349
 40
14.315335
 50
-105.022459
 51
-101.921074
  0
ARC
  8
1
 62
7
  6
CONTINUOUS
 10
94.164714
 20
141.303307
 40
23.184221
 50
-106.950231
 51
-105.020820
  0
ARC
  8
1
 62
7
  6
CONTINUOUS
 10
104.157005
 20
174.097009
 40
57.466473
 50
-107.732204
 51
-106.947741
  0
ARC
  8
1
 62
7
  6
CONTINUOUS
 10
45.194341
 20
-10.314584
 40
136.141976
 50
72.269725
 51
72.603048
  0
ARC
  8
1
 62
7
  6
CONTINUOUS
 10
57.721798
 20
29.668033
 40
94.242729
 50
72.603048
 51
73.139587
  0
ARC
  8
1
 62
7
  6
CONTINUOUS
 10
93.049842
 20
145.834189
 40
27.176765
 50
-108.961104
 51
-107.106000
  0
ARC
  8
1
 62
7
  6
CONTINUOUS
 10
88.454473
 20
132.465126
 40
13.039960
 50
-112.779879
 51
-108.952039
  0
ARC
  8
1
 62
7
  6
CONTINUOUS
 10
86.636899
 20
128.139431
 40
8.347923
 50
-118.681264
 51
-112.773512
  0
ARC
  8
1
 62
7
  6
CONTINUOUS
 10
85.612434
 20
126.259576
 40
6.207043
 50
-135.360097
 51
-118.713067
  0
ARC
  8
1
 62
7
  6
CONTINUOUS
 10
92.961159
 20
133.787897
 40
16.726812
 50
-137.996058
 51
-134.698619
  0
ARC
  8
1
 62
7
  6
CONTINUOUS
 10
16.881243
 20
65.259315
 40
85.666158
 50
42.012113
 51
42.656844
  0
ARC
  8
1
 62
7
  6
CONTINUOUS
 10
71.343812
 20
115.440026
 40
11.610265
 50
42.656844
 51
47.325403
  0
ARC
  8
1
 62
7
  6
CONTINUOUS
 10
75.377063
 20
119.814709
 40
5.660058
 50
47.325403
 51
56.623805
  0
ARC
  8
1
 62
7
  6
CONTINUOUS
 10
76.060068
 20
120.851477
 40
4.418533
 50
56.623805
 51
69.696939
  0
ARC
  8
1
 62
7
  6
CONTINUOUS
 10
74.880379
 20
117.662886
 40
7.818354
 50
69.696939
 51
77.235328
  0
ARC
  8
1
 62
7
  6
CONTINUOUS
 10
74.686553
 20
116.807320
 40
8.695601
 50
77.235328
 51
84.257876
  0
ARC
  8
1
 62
7
  6
CONTINUOUS
 10
72.472734
 20
94.791505
 40
30.822441
 50
84.257876
 51
86.300706
  0
ARC
  8
1
 62
7
  6
CONTINUOUS
 10
72.641117
 20
97.395841
 40
28.212668
 50
86.300706
 51
88.571816
  0
ARC
  8
1
 62
7
  6
CONTINUOUS
 10
86.972519
 20
220.840660
 40
101.441226
 50
-86.818130
 51
-86.398743
  0
ARC
  8
1
 62
7
  6
CONTINUOUS
 10
90.741596
 20
153.028467
 40
33.524369
 50
-88.082355
 51
-86.816954
  0
ARC
  8
1
 62
7
  6
CONTINUOUS
 10
91.199883
 20
139.321073
 40
19.809316
 50
-90.211103
 51
-88.080446
  0
ARC
  8
1
 62
7
  6
CONTINUOUS
 10
91.177693
 20
133.408029
 40
13.896231
 50
-93.228585
 51
-90.209440
  0
ARC
  8
1
 62
7
  6
CONTINUOUS
 10
90.994958
 20
130.167852
 40
10.650905
 50
-97.148832
 51
-93.228801
  0
ARC
  8
1
 62
7
  6
CONTINUOUS
 10
91.021496
 20
130.148211
 40
10.634758
 50
-101.467155
 51
-97.303869
  0
ARC
  8
1
 62
7
  6
CONTINUOUS
 10
91.672410
 20
133.354897
 40
13.906841
 50
-104.665833
 51
-101.468850
  0
ARC
  8
1
 62
7
  6
CONTINUOUS
 10
93.227557
 20
139.298849
 40
20.050866
 50
-106.896803
 51
-104.664639
  0
ARC
  8
1
 62
7
  6
CONTINUOUS
 10
97.560129
 20
153.566156
 40
34.961508
 50
-108.183657
 51
-106.894768
  0
ARC
  8
1
 62
7
  6
CONTINUOUS
 10
125.013643
 20
237.158099
 40
122.946213
 50
-108.550526
 51
-108.182019
  0
ARC
  8
1
 62
7
  6
CONTINUOUS
 10
109.085576
 20
190.533685
 40
73.677359
 50
-109.038182
 51
-108.342603
  0
ARC
  8
1
 62
7
  6
CONTINUOUS
 10
92.298237
 20
141.889501
 40
22.217944
 50
-111.333674
 51
-109.034439
  0
ARC
  8
1
 62
7
  6
CONTINUOUS
 10
88.859972
 20
133.089967
 40
12.770538
 50
-115.295376
 51
-111.327360
  0
ARC
  8
1
 62
7
  6
CONTINUOUS
 10
87.170799
 20
129.516483
 40
8.817932
 50
-120.992770
 51
-115.293337
  0
ARC
  8
1
 62
7
  6
CONTINUOUS
 10
86.132176
 20
127.784261
 40
6.798198
 50
-128.392386
 51
-121.006520
  0
ARC
  8
1
 62
7
  6
CONTINUOUS
 10
87.090319
 20
128.880462
 40
8.252722
 50
-135.498206
 51
-128.879634
  0
ARC
  8
1
 62
7
  6
CONTINUOUS
 10
96.278145
 20
137.924658
 40
21.145106
 50
-138.087755
 51
-135.469643
  0
ARC
  8
1
 62
7
  6
CONTINUOUS
 10
45.823248
 20
92.634067
 40
46.655589
 50
41.912733
 51
43.095266
  0
ARC
  8
1
 62
7
  6
CONTINUOUS
 10
72.226254
 20
117.337471
 40
10.497922
 50
43.095266
 51
48.231127
  0
ARC
  8
1
 62
7
  6
CONTINUOUS
 10
75.653226
 20
121.174524
 40
5.353302
 50
48.231127
 51
57.989795
  0
ARC
  8
1
 62
7
  6
CONTINUOUS
 10
76.230049
 20
122.097268
 40
4.265101
 50
57.989795
 51
71.380119
  0
ARC
  8
1
 62
7
  6
CONTINUOUS
 10
75.169820
 20
118.950474
 40
7.585703
 50
71.380119
 51
79.086727
  0
ARC
  8
1
 62
7
  6
CONTINUOUS
 10
74.985614
 20
117.995095
 40
8.558678
 50
79.086727
 51
86.185868
  0
ARC
  8
1
 62
7
  6
CONTINUOUS
 10
73.536493
 20
96.258614
 40
30.343411
 50
86.185868
 51
88.255034
  0
ARC
  8
1
 62
7
  6
CONTINUOUS
 10
73.606042
 20
98.541531
 40
28.059434
 50
88.255034
 51
90.534495
  0
ARC
  8
1
 62
7
  6
CONTINUOUS
 10
89.428417
 20
234.034268
 40
113.002392
 50
-88.334830
 51
-88.014132
  0
ARC
  8
1
 62
7
  6
CONTINUOUS
 10
91.621389
 20
158.590187
 40
37.526445
 50
-89.298951
 51
-88.334443
  0
ARC
  8
1
 62
7
  6
CONTINUOUS
 10
91.806578
 20
143.437595
 40
22.372722
 50
-90.912765
 51
-89.298384
  0
ARC
  8
1
 62
7
  6
CONTINUOUS
 10
91.702957
 20
136.939131
 40
15.873432
 50
-93.182774
 51
-90.912451
  0
ARC
  8
1
 62
7
  6
CONTINUOUS
 10
91.504782
 20
133.372932
 40
12.301731
 50
-96.109432
 51
-93.183384
  0
ARC
  8
1
 62
7
  6
CONTINUOUS
 10
91.471969
 20
132.883028
 40
11.811133
 50
-99.881493
 51
-96.204090
  0
ARC
  8
1
 62
7
  6
CONTINUOUS
 10
91.777886
 20
134.640115
 40
13.594652
 50
-103.084285
 51
-99.880832
  0
ARC
  8
1
 62
7
  6
CONTINUOUS
 10
92.300487
 20
136.890382
 40
15.904807
 50
-105.827789
 51
-103.082874
  0
ARC
  8
1
 62
7
  6
CONTINUOUS
 10
93.129479
 20
139.816572
 40
18.946158
 50
-108.132847
 51
-105.826134
  0
ARC
  8
1
 62
7
  6
CONTINUOUS
 10
94.423600
 20
143.770253
 40
23.106246
 50
-110.020149
 51
-108.131316
  0
ARC
  8
1
 62
7
  6
CONTINUOUS
 10
97.609116
 20
152.506235
 40
32.404896
 50
-110.903860
 51
-110.024133
  0
ARC
  8
1
 62
7
  6
CONTINUOUS
 10
109.915032
 20
184.724470
 40
66.893304
 50
-111.329770
 51
-110.904246
  0
ARC
  8
1
 62
7
  6
CONTINUOUS
 10
-243.624079
 20
-720.662434
 40
905.071381
 50
68.670144
 51
68.701586
  0
ARC
  8
1
 62
7
  6
CONTINUOUS
 10
63.928686
 20
68.234148
 40
58.344436
 50
68.701586
 51
69.189789
  0
ARC
  8
1
 62
7
  6
CONTINUOUS
 10
73.878042
 20
94.411957
 40
30.339662
 50
69.189789
 51
70.130686
  0
ARC
  8
1
 62
7
  6
CONTINUOUS
 10
71.585476
 20
88.068198
 40
37.084967
 50
70.130686
 51
71.078679
  0
ARC
  8
1
 62
7
  6
CONTINUOUS
 10
94.502353
 20
154.607555
 40
33.290320
 50
-110.153295
 51
-109.096662
  0
ARC
  8
1
 62
7
  6
CONTINUOUS
 10
87.461897
 20
135.425576
 40
12.857103
 50
-112.878684
 51
-110.150746
  0
ARC
  8
1
 62
7
  6
CONTINUOUS
 10
85.532733
 20
130.854180
 40
7.895315
 50
-117.304543
 51
-112.877788
  0
ARC
  8
1
 62
7
  6
CONTINUOUS
 10
84.547056
 20
128.942884
 40
5.744824
 50
-123.405919
 51
-117.313475
  0
ARC
  8
1
 62
7
  6
CONTINUOUS
 10
85.324894
 20
130.014305
 40
7.067739
 50
-129.536096
 51
-123.887809
  0
ARC
  8
1
 62
7
  6
CONTINUOUS
 10
96.149763
 20
143.143581
 40
24.084074
 50
-131.187945
 51
-129.514134
  0
ARC
  8
1
 62
7
  6
CONTINUOUS
 10
68.277063
 20
111.294870
 40
18.238825
 50
48.804740
 51
51.001020
  0
ARC
  8
1
 62
7
  6
CONTINUOUS
 10
75.821697
 20
120.612055
 40
6.250021
 50
51.001020
 51
57.272292
  0
ARC
  8
1
 62
7
  6
CONTINUOUS
 10
77.297046
 20
122.907705
 40
3.521162
 50
57.272292
 51
68.167734
  0
ARC
  8
1
 62
7
  6
CONTINUOUS
 10
77.514370
 20
123.450168
 40
2.936787
 50
68.167734
 51
76.650875
  0
ARC
  8
1
 62
7
  6
CONTINUOUS
 10
76.904184
 20
120.878747
 40
5.579613
 50
76.650875
 51
81.189746
  0
ARC
  8
1
 62
7
  6
CONTINUOUS
 10
76.932403
 20
121.060814
 40
5.395372
 50
81.189746
 51
85.970403
  0
ARC
  8
1
 62
7
  6
CONTINUOUS
 10
75.702973
 20
103.608704
 40
22.890732
 50
85.970403
 51
87.110929
  0
ARC
  8
1
 62
7
  6
CONTINUOUS
 10
76.059002
 20
110.663443
 40
15.827016
 50
87.110929
 51
88.764438
  0
ARC
  8
1
 62
7
  6
CONTINUOUS
 10
85.041315
 20
391.445735
 40
265.099822
 50
-92.002213
 51
-91.867910
  0
ARC
  8
1
 62
7
  6
CONTINUOUS
 10
87.317336
 20
456.525306
 40
330.219181
 50
-92.109051
 51
-92.002365
  0
ARC
  8
1
 62
7
  6
CONTINUOUS
 10
91.776501
 20
577.585449
 40
451.361421
 50
-92.186602
 51
-92.109171
  0
ARC
  8
1
 62
7
  6
CONTINUOUS
 10
102.800705
 20
866.285716
 40
740.272094
 50
-92.233644
 51
-92.186685
  0
ARC
  8
1
 62
7
  6
CONTINUOUS
 10
159.810272
 20
2327.870440
 40
2202.968234
 50
-92.249424
 51
-92.233686
  0
ARC
  8
1
 62
7
  6
CONTINUOUS
 10
89.382862
 20
232.106309
 40
110.077868
 50
-88.267066
 51
-87.937624
  0
ARC
  8
1
 62
7
  6
CONTINUOUS
 10
91.606550
 20
158.597568
 40
36.535501
 50
-89.257775
 51
-88.266610
  0
ARC
  8
1
 62
7
  6
CONTINUOUS
 10
91.797692
 20
143.823014
 40
21.759710
 50
-90.917215
 51
-89.257086
  0
ARC
  8
1
 62
7
  6
CONTINUOUS
 10
91.696043
 20
137.481434
 40
15.417316
 50
-93.253564
 51
-90.916763
  0
ARC
  8
1
 62
7
  6
CONTINUOUS
 10
91.498236
 20
133.999872
 40
11.930139
 50
-96.268860
 51
-93.254082
  0
ARC
  8
1
 62
7
  6
CONTINUOUS
 10
91.481923
 20
133.655700
 40
11.586264
 50
-100.118876
 51
-96.374517
  0
ARC
  8
1
 62
7
  6
CONTINUOUS
 10
91.866400
 20
135.810408
 40
13.775004
 50
-103.276923
 51
-100.118598
  0
ARC
  8
1
 62
7
  6
CONTINUOUS
 10
92.579565
 20
138.834420
 40
16.881973
 50
-105.860536
 51
-103.275617
  0
ARC
  8
1
 62
7
  6
CONTINUOUS
 10
93.848765
 20
143.303826
 40
21.528097
 50
-107.889624
 51
-105.858961
  0
ARC
  8
1
 62
7
  6
CONTINUOUS
 10
96.213836
 20
150.632918
 40
29.229340
 50
-109.383004
 51
-107.888325
  0
ARC
  8
1
 62
7
  6
CONTINUOUS
 10
99.158031
 20
159.069444
 40
38.164824
 50
-110.097121
 51
-109.349070
  0
ARC
  8
1
 62
7
  6
CONTINUOUS
 10
101.621137
 20
165.800824
 40
45.332694
 50
-110.725999
 51
-110.097304
  0
ARC
  8
1
 62
7
  6
CONTINUOUS
 10
105.434114
 20
175.877386
 40
56.106546
 50
-111.233618
 51
-110.726128
  0
ARC
  8
1
 62
7
  6
CONTINUOUS
 10
111.890238
 20
192.493055
 40
73.932426
 50
-111.618735
 51
-111.233699
  0
ARC
  8
1
 62
7
  6
CONTINUOUS
 10
124.717351
 20
224.859523
 40
108.747984
 50
-111.880649
 51
-111.618773
  0
ARC
  8
1
 62
7
  6
CONTINUOUS
 10
103.384506
 20
171.943591
 40
51.693851
 50
-112.490131
 51
-111.796789
  0
ARC
  8
1
 62
7
  6
CONTINUOUS
 10
92.301220
 20
145.173370
 40
22.720001
 50
-114.067691
 51
-112.489901
  0
ARC
  8
1
 62
7
  6
CONTINUOUS
 10
88.967212
 20
137.708780
 40
14.544691
 50
-116.532205
 51
-114.067740
  0
ARC
  8
1
 62
7
  6
CONTINUOUS
 10
87.265372
 20
134.299548
 40
10.734293
 50
-119.877531
 51
-116.533797
  0
ARC
  8
1
 62
7
  6
CONTINUOUS
 10
86.208840
 20
132.459054
 40
8.612106
 50
-124.071177
 51
-119.882369
  0
ARC
  8
1
 62
7
  6
CONTINUOUS
 10
87.959364
 20
134.929632
 40
11.639460
 50
-127.736486
 51
-124.395871
  0
ARC
  8
1
 62
7
  6
CONTINUOUS
 10
152.175077
 20
217.932749
 40
116.583137
 50
-128.063096
 51
-127.728379
  0
ARC
  8
1
 62
7
  6
CONTINUOUS
 10
71.406407
 20
114.792131
 40
14.419021
 50
51.926527
 51
54.608950
  0
ARC
  8
1
 62
7
  6
CONTINUOUS
 10
76.007325
 20
121.268394
 40
6.474813
 50
54.608950
 51
60.474341
  0
ARC
  8
1
 62
7
  6
CONTINUOUS
 10
77.229034
 20
123.425503
 40
3.995763
 50
60.474341
 51
69.834067
  0
ARC
  8
1
 62
7
  6
CONTINUOUS
 10
77.421757
 20
123.950271
 40
3.436725
 50
69.834067
 51
77.120936
  0
ARC
  8
1
 62
7
  6
CONTINUOUS
 10
76.820495
 20
121.320607
 40
6.134251
 50
77.120936
 51
81.257210
  0
ARC
  8
1
 62
7
  6
CONTINUOUS
 10
76.819973
 20
121.317211
 40
6.137686
 50
81.257210
 51
85.451042
  0
ARC
  8
1
 62
7
  6
CONTINUOUS
 10
75.661057
 20
106.750940
 40
20.749988
 50
85.451042
 51
86.703465
  0
ARC
  8
1
 62
7
  6
CONTINUOUS
 10
75.856794
 20
110.149200
 40
17.346095
 50
86.703465
 51
88.204524
  0
ARC
  8
1
 62
7
  6
CONTINUOUS
 10
61.282137
 20
-250.471236
 40
378.260254
 50
87.709417
 51
87.803235
  0
ARC
  8
1
 62
7
  6
CONTINUOUS
 10
57.644259
 20
-345.307456
 40
473.166221
 50
87.803235
 51
87.877609
  0
ARC
  8
1
 62
7
  6
CONTINUOUS
 10
51.024953
 20
-523.919613
 40
651.900991
 50
87.877609
 51
87.931250
  0
ARC
  8
1
 62
7
  6
CONTINUOUS
 10
36.011919
 20
-939.537634
 40
1067.790075
 50
87.931250
 51
87.963860
  0
ARC
  8
1
 62
7
  6
CONTINUOUS
 10
-40.449095
 20
-3090.200189
 40
3219.811383
 50
87.963860
 51
87.974652
  0
ARC
  8
1
 62
7
  6
CONTINUOUS
 10
88.386783
 20
239.906046
 40
116.411909
 50
-87.870535
 51
-87.559270
  0
ARC
  8
1
 62
7
  6
CONTINUOUS
 10
91.275558
 20
162.209192
 40
38.661371
 50
-88.806261
 51
-87.870166
  0
ARC
  8
1
 62
7
  6
CONTINUOUS
 10
91.600550
 20
146.602230
 40
23.051026
 50
-90.372458
 51
-88.805712
  0
ARC
  8
1
 62
7
  6
CONTINUOUS
 10
91.556918
 20
139.905102
 40
16.353756
 50
-92.575540
 51
-90.372124
  0
ARC
  8
1
 62
7
  6
CONTINUOUS
 10
91.391449
 20
136.224110
 40
12.669046
 50
-95.416585
 51
-92.576035
  0
ARC
  8
1
 62
7
  6
CONTINUOUS
 10
91.360557
 20
135.686181
 40
12.130619
 50
-99.453778
 51
-95.511162
  0
ARC
  8
1
 62
7
  6
CONTINUOUS
 10
91.650136
 20
137.426011
 40
13.894384
 50
-102.905118
 51
-99.453267
  0
ARC
  8
1
 62
7
  6
CONTINUOUS
 10
92.155487
 20
139.633461
 40
16.158940
 50
-105.880391
 51
-102.903632
  0
ARC
  8
1
 62
7
  6
CONTINUOUS
 10
92.956126
 20
142.450057
 40
19.087120
 50
-108.402758
 51
-105.878522
  0
ARC
  8
1
 62
7
  6
CONTINUOUS
 10
94.183254
 20
146.140659
 40
22.976385
 50
-110.496324
 51
-108.400938
  0
ARC
  8
1
 62
7
  6
CONTINUOUS
 10
97.020591
 20
153.734663
 40
31.083134
 50
-111.353704
 51
-110.493925
  0
ARC
  8
1
 62
7
  6
CONTINUOUS
 10
106.152999
 20
177.092737
 40
56.163016
 50
-111.829001
 51
-111.353936
  0
ARC
  8
1
 62
7
  6
CONTINUOUS
 10
197.657990
 20
405.534113
 40
302.249639
 50
-111.917309
 51
-111.829143
  0
ARC
  8
1
 62
7
  6
CONTINUOUS
 10
51.721713
 20
42.823224
 40
88.719140
 50
68.082607
 51
68.382688
  0
ARC
  8
1
 62
7
  6
CONTINUOUS
 10
70.178246
 20
89.397985
 40
38.620717
 50
68.382688
 51
69.071607
  0
ARC
  8
1
 62
7
  6
CONTINUOUS
 10
72.781003
 20
96.203810
 40
31.334182
 50
69.071607
 51
69.977298
  0
ARC
  8
1
 62
7
  6
CONTINUOUS
 10
57.191539
 20
53.424857
 40
76.865162
 50
69.977298
 51
70.346697
  0
ARC
  8
1
 62
7
  6
CONTINUOUS
 10
50.672348
 20
35.170597
 40
96.248605
 50
70.346697
 51
70.642007
  0
ARC
  8
1
 62
7
  6
CONTINUOUS
 10
158.676853
 20
341.888029
 40
228.929159
 50
-109.540168
 51
-109.415831
  0
ARC
  8
1
 62
7
  6
CONTINUOUS
 10
104.451621
 20
189.100598
 40
66.804593
 50
-109.967209
 51
-109.540337
  0
ARC
  8
1
 62
7
  6
CONTINUOUS
 10
122.742447
 20
238.808730
 40
119.770870
 50
-110.403850
 51
-110.070962
  0
ARC
  8
1
 62
7
  6
CONTINUOUS
 10
58.147963
 20
65.155302
 40
65.507192
 50
69.596092
 51
70.204855
  0
ARC
  8
1
 62
7
  6
CONTINUOUS
 10
71.678770
 20
102.748558
 40
25.553023
 50
70.204855
 51
71.761348
  0
ARC
  8
1
 62
7
  6
CONTINUOUS
 10
74.776690
 20
112.149558
 40
15.654745
 50
71.761348
 51
74.290414
  0
ARC
  8
1
 62
7
  6
CONTINUOUS
 10
75.984173
 20
116.442558
 40
11.195164
 50
74.290414
 51
77.810346
  0
ARC
  8
1
 62
7
  6
CONTINUOUS
 10
76.201690
 20
117.449496
 40
10.165000
 50
77.810346
 51
83.408466
  0
ARC
  8
1
 62
7
  6
CONTINUOUS
 10
75.586618
 20
112.126691
 40
15.523224
 50
83.408466
 51
87.089302
  0
ARC
  8
1
 62
7
  6
CONTINUOUS
 10
75.459543
 20
109.627433
 40
18.025711
 50
87.089302
 51
90.282748
  0
ARC
  8
1
 62
7
  6
CONTINUOUS
 10
75.586857
 20
83.828917
 40
43.824541
 50
90.282748
 51
91.605223
  0
ARC
  8
1
 62
7
  6
CONTINUOUS
 10
76.149405
 20
63.754915
 40
63.906424
 50
91.605223
 51
92.515757
  0
ARC
  8
1
 62
7
  6
CONTINUOUS
 10
88.384892
 20
240.542320
 40
116.048595
 50
-87.862945
 51
-87.550690
  0
ARC
  8
1
 62
7
  6
CONTINUOUS
 10
91.274967
 20
163.086778
 40
38.539154
 50
-88.801668
 51
-87.862570
  0
ARC
  8
1
 62
7
  6
CONTINUOUS
 10
91.600211
 20
147.527476
 40
22.976452
 50
-90.372960
 51
-88.801110
  0
ARC
  8
1
 62
7
  6
CONTINUOUS
 10
91.556649
 20
140.850480
 40
16.299314
 50
-92.583349
 51
-90.372617
  0
ARC
  8
1
 62
7
  6
CONTINUOUS
 10
91.391179
 20
137.180602
 40
12.625708
 50
-95.433999
 51
-92.583841
  0
ARC
  8
1
 62
7
  6
CONTINUOUS
 10
91.362059
 20
136.660678
 40
12.105380
 50
-99.480406
 51
-95.529831
  0
ARC
  8
1
 62
7
  6
CONTINUOUS
 10
91.659774
 20
138.444231
 40
13.913610
 50
-102.926841
 51
-99.479910
  0
ARC
  8
1
 62
7
  6
CONTINUOUS
 10
92.183367
 20
140.727347
 40
16.255995
 50
-105.884295
 51
-102.925343
  0
ARC
  8
1
 62
7
  6
CONTINUOUS
 10
93.021690
 20
143.675680
 40
19.321195
 50
-108.376067
 51
-105.882417
  0
ARC
  8
1
 62
7
  6
CONTINUOUS
 10
94.326320
 20
147.605367
 40
23.461787
 50
-110.426219
 51
-108.374261
  0
ARC
  8
1
 62
7
  6
CONTINUOUS
 10
97.121710
 20
155.121340
 40
31.480767
 50
-111.268764
 51
-110.419924
  0
ARC
  8
1
 62
7
  6
CONTINUOUS
 10
105.139030
 20
175.717284
 40
53.582132
 50
-111.766890
 51
-111.268992
  0
ARC
  8
1
 62
7
  6
CONTINUOUS
 10
153.498616
 20
296.826637
 40
183.989665
 50
-111.911852
 51
-111.767024
  0
ARC
  8
1
 62
7
  6
CONTINUOUS
 10
37.404290
 20
8.205884
 40
127.104904
 50
68.088077
 51
68.297544
  0
ARC
  8
1
 62
7
  6
CONTINUOUS
 10
66.965245
 20
82.480018
 40
47.164319
 50
68.297544
 51
68.861777
  0
ARC
  8
1
 62
7
  6
CONTINUOUS
 10
71.112857
 20
93.207492
 40
35.662956
 50
68.861777
 51
69.657761
  0
ARC
  8
1
 62
7
  6
CONTINUOUS
 10
62.063209
 20
68.798432
 40
61.695595
 50
69.657761
 51
70.118098
  0
ARC
  8
1
 62
7
  6
CONTINUOUS
 10
62.443918
 20
69.851168
 40
60.576134
 50
70.118098
 51
70.587365
  0
ARC
  8
1
 62
7
  6
CONTINUOUS
 10
11.714601
 20
-74.101204
 40
213.205584
 50
70.587365
 51
70.720859
  0
ARC
  8
1
 62
7
  6
CONTINUOUS
 10
16.323961
 20
-60.923561
 40
199.245052
 50
70.720859
 51
70.863926
  0
ARC
  8
1
 62
7
  6
CONTINUOUS
 10
-86.284434
 20
-356.636664
 40
512.254193
 50
70.863926
 51
70.941016
  0
ARC
  8
1
 62
7
  6
CONTINUOUS
 10
70.230756
 20
96.400848
 40
32.942193
 50
70.941016
 51
72.139807
  0
ARC
  8
1
 62
7
  6
CONTINUOUS
 10
71.877545
 20
101.511542
 40
27.572733
 50
72.139807
 51
73.569068
  0
ARC
  8
1
 62
7
  6
CONTINUOUS
 10
75.360083
 20
113.320649
 40
15.260825
 50
73.569068
 51
76.142823
  0
ARC
  8
1
 62
7
  6
CONTINUOUS
 10
75.702734
 20
114.709686
 40
13.830149
 50
76.142823
 51
78.973147
  0
ARC
  8
1
 62
7
  6
CONTINUOUS
 10
76.161772
 20
117.065341
 40
11.430185
 50
78.973147
 51
83.964434
  0
ARC
  8
1
 62
7
  6
CONTINUOUS
 10
75.330277
 20
109.201149
 40
19.338213
 50
83.964434
 51
86.923009
  0
ARC
  8
1
 62
7
  6
CONTINUOUS
 10
75.322177
 20
109.050474
 40
19.489105
 50
86.923009
 51
89.874572
  0
ARC
  8
1
 62
7
  6
CONTINUOUS
 10
75.231156
 20
67.471866
 40
61.067813
 50
89.874572
 51
90.821196
  0
ARC
  8
1
 62
7
  6
CONTINUOUS
 10
75.198087
 20
69.778928
 40
58.760514
 50
90.821196
 51
91.807889
  0
ARC
  8
1
 62
7
  6
CONTINUOUS
 10
87.905943
 20
212.458716
 40
84.035128
 50
-86.722415
 51
-86.289503
  0
ARC
  8
1
 62
7
  6
CONTINUOUS
 10
91.119931
 20
156.327468
 40
27.811941
 50
-88.026374
 51
-86.721413
  0
ARC
  8
1
 62
7
  6
CONTINUOUS
 10
91.509643
 20
145.005808
 40
16.483576
 50
-90.217723
 51
-88.024873
  0
ARC
  8
1
 62
7
  6
CONTINUOUS
 10
91.490974
 20
140.141904
 40
11.619636
 50
-93.314020
 51
-90.216809
  0
ARC
  8
1
 62
7
  6
CONTINUOUS
 10
91.344278
 20
137.579293
 40
9.052830
 50
-102.520640
 51
-93.324713
  0
ARC
  8
1
 62
7
  6
CONTINUOUS
 10
94.188580
 20
150.998348
 40
22.769758
 50
-104.278365
 51
-102.187287
  0
ARC
  8
1
 62
7
  6
CONTINUOUS
 10
55.109473
 20
-2.581668
 40
135.704208
 50
75.724170
 51
76.075794
  0
ARC
  8
1
 62
7
  6
CONTINUOUS
 10
83.671698
 20
112.624184
 40
17.010531
 50
76.075794
 51
78.871930
  0
ARC
  8
1
 62
7
  6
CONTINUOUS
 10
85.235436
 20
120.574008
 40
8.908372
 50
78.871930
 51
84.184149
  0
ARC
  8
1
 62
7
  6
CONTINUOUS
 10
85.423498
 20
122.420358
 40
7.052469
 50
84.184149
 51
87.689798
  0
ARC
  8
1
 62
7
  6
CONTINUOUS
 10
84.937161
 20
110.365170
 40
19.117463
 50
87.689798
 51
88.986204
  0
ARC
  8
1
 62
7
  6
CONTINUOUS
 10
84.974184
 20
112.457314
 40
17.024992
 50
88.986204
 51
90.445654
  0
ARC
  8
1
 62
7
  6
CONTINUOUS
 10
84.368738
 20
309.519914
 40
180.038745
 50
-89.987639
 51
-89.849464
  0
ARC
  8
1
 62
7
  6
CONTINUOUS
 10
84.402765
 20
151.181069
 40
21.699896
 50
-91.133227
 51
-89.987288
  0
ARC
  8
1
 62
7
  6
CONTINUOUS
 10
84.365917
 20
147.270753
 40
17.789662
 50
-92.771542
 51
-91.263647
  0
ARC
  8
1
 62
7
  6
CONTINUOUS
 10
84.868203
 20
157.643589
 40
28.174653
 50
-93.723218
 51
-92.771814
  0
ARC
  8
1
 62
7
  6
CONTINUOUS
 10
87.465019
 20
197.547896
 40
68.163365
 50
-94.116418
 51
-93.723287
  0
ARC
  8
1
 62
7
  6
CONTINUOUS
 10
70.963143
 20
-31.742516
 40
161.720094
 50
85.883549
 51
86.049211
  0
ARC
  8
1
 62
7
  6
CONTINUOUS
 10
79.559365
 20
92.725377
 40
36.955711
 50
86.049211
 51
86.773996
  0
ARC
  8
1
 62
7
  6
CONTINUOUS
 10
80.142981
 20
103.079788
 40
26.584865
 50
86.773996
 51
88.191986
  0
ARC
  8
1
 62
7
  6
CONTINUOUS
 10
79.622224
 20
86.582533
 40
43.090337
 50
88.191986
 51
89.067107
  0
ARC
  8
1
 62
7
  6
CONTINUOUS
 10
79.628657
 20
86.977605
 40
42.695213
 50
89.067107
 51
89.950724
  0
ARC
  8
1
 62
7
  6
CONTINUOUS
 10
79.570424
 20
19.266972
 40
110.405870
 50
89.950724
 51
90.292543
  0
ARC
  8
1
 62
7
  6
CONTINUOUS
 10
79.554751
 20
22.336523
 40
107.336279
 50
90.292543
 51
90.644167
  0
ARC
  8
1
 62
7
  6
CONTINUOUS
 10
83.354963
 20
-387.012518
 40
516.702797
 50
90.555216
 51
90.666246
  0
ARC
  8
1
 62
7
  6
CONTINUOUS
 10
85.063882
 20
-533.969361
 40
663.669576
 50
90.666246
 51
90.752663
  0
ARC
  8
1
 62
7
  6
CONTINUOUS
 10
88.544286
 20
-798.896808
 40
928.619883
 50
90.752663
 51
90.814409
  0
ARC
  8
1
 62
7
  6
CONTINUOUS
 10
97.329732
 20
-1416.933770
 40
1546.719285
 50
90.814409
 51
90.851475
  0
ARC
  8
1
 62
7
  6
CONTINUOUS
 10
143.316354
 20
-4511.146030
 40
4641.273255
 50
90.851475
 51
90.863827
  0
ARC
  8
1
 62
7
  6
CONTINUOUS
 10
87.905943
 20
213.458716
 40
84.035128
 50
-86.722415
 51
-86.289503
  0
ARC
  8
1
 62
7
  6
CONTINUOUS
 10
91.119931
 20
157.327468
 40
27.811941
 50
-88.026374
 51
-86.721413
  0
ARC
  8
1
 62
7
  6
CONTINUOUS
 10
91.509643
 20
146.005808
 40
16.483576
 50
-90.217723
 51
-88.024873
  0
ARC
  8
1
 62
7
  6
CONTINUOUS
 10
91.490974
 20
141.141904
 40
11.619636
 50
-93.314020
 51
-90.216809
  0
ARC
  8
1
 62
7
  6
CONTINUOUS
 10
91.344278
 20
138.579293
 40
9.052830
 50
-102.520640
 51
-93.324713
  0
ARC
  8
1
 62
7
  6
CONTINUOUS
 10
94.188580
 20
151.998348
 40
22.769758
 50
-104.278365
 51
-102.187287
  0
ARC
  8
1
 62
7
  6
CONTINUOUS
 10
55.109473
 20
-1.581668
 40
135.704208
 50
75.724170
 51
76.075794
  0
ARC
  8
1
 62
7
  6
CONTINUOUS
 10
83.671698
 20
113.624184
 40
17.010531
 50
76.075794
 51
78.871930
  0
ARC
  8
1
 62
7
  6
CONTINUOUS
 10
85.235436
 20
121.574008
 40
8.908372
 50
78.871930
 51
84.184149
  0
ARC
  8
1
 62
7
  6
CONTINUOUS
 10
85.423498
 20
123.420358
 40
7.052469
 50
84.184149
 51
87.689798
  0
ARC
  8
1
 62
7
  6
CONTINUOUS
 10
84.937161
 20
111.365170
 40
19.117463
 50
87.689798
 51
88.986204
  0
ARC
  8
1
 62
7
  6
CONTINUOUS
 10
84.974184
 20
113.457314
 40
17.024992
 50
88.986204
 51
90.445654
  0
ARC
  8
1
 62
7
  6
CONTINUOUS
 10
84.368738
 20
310.519914
 40
180.038745
 50
-89.987639
 51
-89.849464
  0
ARC
  8
1
 62
7
  6
CONTINUOUS
 10
84.402765
 20
152.181069
 40
21.699896
 50
-91.133227
 51
-89.987288
  0
ARC
  8
1
 62
7
  6
CONTINUOUS
 10
84.365917
 20
148.270753
 40
17.789662
 50
-92.771542
 51
-91.263647
  0
ARC
  8
1
 62
7
  6
CONTINUOUS
 10
84.868203
 20
158.643589
 40
28.174653
 50
-93.723218
 51
-92.771814
  0
ARC
  8
1
 62
7
  6
CONTINUOUS
 10
87.465019
 20
198.547896
 40
68.163365
 50
-94.116418
 51
-93.723287
  0
ARC
  8
1
 62
7
  6
CONTINUOUS
 10
70.963143
 20
-30.742516
 40
161.720094
 50
85.883549
 51
86.049211
  0
ARC
  8
1
 62
7
  6
CONTINUOUS
 10
79.559365
 20
93.725377
 40
36.955711
 50
86.049211
 51
86.773996
  0
ARC
  8
1
 62
7
  6
CONTINUOUS
 10
80.142981
 20
104.079788
 40
26.584865
 50
86.773996
 51
88.191986
  0
ARC
  8
1
 62
7
  6
CONTINUOUS
 10
79.622224
 20
87.582533
 40
43.090337
 50
88.191986
 51
89.067107
  0
ARC
  8
1
 62
7
  6
CONTINUOUS
 10
79.628657
 20
87.977605
 40
42.695213
 50
89.067107
 51
89.950724
  0
ARC
  8
1
 62
7
  6
CONTINUOUS
 10
79.570424
 20
20.266972
 40
110.405870
 50
89.950724
 51
90.292543
  0
ARC
  8
1
 62
7
  6
CONTINUOUS
 10
79.554751
 20
23.336523
 40
107.336279
 50
90.292543
 51
90.644167
  0
ARC
  8
1
 62
7
  6
CONTINUOUS
 10
83.354963
 20
-386.012518
 40
516.702797
 50
90.555216
 51
90.666246
  0
ARC
  8
1
 62
7
  6
CONTINUOUS
 10
85.063882
 20
-532.969361
 40
663.669576
 50
90.666246
 51
90.752663
  0
ARC
  8
1
 62
7
  6
CONTINUOUS
 10
88.544286
 20
-797.896808
 40
928.619884
 50
90.752663
 51
90.814409
  0
ARC
  8
1
 62
7
  6
CONTINUOUS
 10
97.329732
 20
-1415.933770
 40
1546.719285
 50
90.814409
 51
90.851475
  0
ARC
  8
1
 62
7
  6
CONTINUOUS
 10
143.316354
 20
-4510.146029
 40
4641.273255
 50
90.851475
 51
90.863827
  0
ARC
  8
1
 62
7
  6
CONTINUOUS
 10
88.257153
 20
286.997176
 40
155.980409
 50
-88.363008
 51
-88.131028
  0
ARC
  8
1
 62
7
  6
CONTINUOUS
 10
91.231158
 20
182.927694
 40
51.868442
 50
-89.059887
 51
-88.362827
  0
ARC
  8
1
 62
7
  6
CONTINUOUS
 10
91.573568
 20
162.051841
 40
30.989781
 50
-90.224655
 51
-89.059604
  0
ARC
  8
1
 62
7
  6
CONTINUOUS
 10
91.538344
 20
153.090371
 40
22.028241
 50
-91.860811
 51
-90.224432
  0
ARC
  8
1
 62
7
  6
CONTINUOUS
 10
91.373669
 20
148.046064
 40
16.981247
 50
-96.475793
 51
-91.858140
  0
ARC
  8
1
 62
7
  6
CONTINUOUS
 10
93.056112
 20
163.407394
 40
32.434374
 50
-97.677750
 51
-96.368398
  0
ARC
  8
1
 62
7
  6
CONTINUOUS
 10
105.198714
 20
253.486719
 40
123.328420
 50
-98.022149
 51
-97.677298
  0
ARC
  8
1
 62
7
  6
CONTINUOUS
 10
78.339382
 20
62.905748
 40
69.135941
 50
81.978024
 51
82.593699
  0
ARC
  8
1
 62
7
  6
CONTINUOUS
 10
83.767776
 20
104.666102
 40
27.024248
 50
82.593699
 51
84.169275
  0
ARC
  8
1
 62
7
  6
CONTINUOUS
 10
84.704163
 20
113.835753
 40
17.806910
 50
84.169275
 51
85.668293
  0
ARC
  8
1
 62
7
  6
CONTINUOUS
 10
84.594653
 20
112.390017
 40
19.256788
 50
85.668293
 51
87.054098
  0
ARC
  8
1
 62
7
  6
CONTINUOUS
 10
84.828780
 20
116.939617
 40
14.701168
 50
87.054098
 51
88.868117
  0
ARC
  8
1
 62
7
  6
CONTINUOUS
 10
84.810865
 20
116.032858
 40
15.608104
 50
88.868117
 51
90.575180
  0
ARC
  8
1
 62
7
  6
CONTINUOUS
 10
84.784012
 20
118.707706
 40
12.933121
 50
90.575180
 51
95.135553
  0
ARC
  8
1
 62
7
  6
CONTINUOUS
 10
85.512316
 20
110.604013
 40
21.069475
 50
95.135553
 51
96.672261
  0
ARC
  8
1
 62
7
  6
CONTINUOUS
 10
85.428233
 20
111.322784
 40
20.345803
 50
96.672261
 51
98.265469
  0
ARC
  8
1
 62
7
  6
CONTINUOUS
 10
90.762414
 20
74.603386
 40
57.450624
 50
98.265469
 51
98.830208
  0
ARC
  8
1
 62
7
  6
CONTINUOUS
 10
89.883199
 20
80.263036
 40
51.723088
 50
98.830208
 51
99.457639
  0
ARC
  8
1
 62
7
  6
CONTINUOUS
 10
-88.256452
 20
1166.564358
 40
1049.087831
 50
-80.724952
 51
-80.694245
  0
ARC
  8
1
 62
7
  6
CONTINUOUS
 10
64.672892
 20
230.122922
 40
100.241190
 50
-81.046044
 51
-80.724899
  0
ARC
  8
1
 62
7
  6
CONTINUOUS
 10
72.095731
 20
183.011706
 40
52.548788
 50
-81.658185
 51
-81.046000
  0
ARC
  8
1
 62
7
  6
CONTINUOUS
 10
74.557003
 20
166.226051
 40
35.583645
 50
-82.561744
 51
-81.658182
  0
ARC
  8
1
 62
7
  6
CONTINUOUS
 10
75.679822
 20
157.626111
 40
26.910716
 50
-83.756369
 51
-82.561833
  0
ARC
  8
1
 62
7
  6
CONTINUOUS
 10
75.811417
 20
156.575811
 40
25.852340
 50
-84.773211
 51
-83.793132
  0
ARC
  8
1
 62
7
  6
CONTINUOUS
 10
75.382424
 20
161.265230
 40
30.561340
 50
-85.602589
 51
-84.773188
  0
ARC
  8
1
 62
7
  6
CONTINUOUS
 10
74.862886
 20
168.020886
 40
37.336944
 50
-86.281695
 51
-85.602551
  0
ARC
  8
1
 62
7
  6
CONTINUOUS
 10
74.177146
 20
178.572177
 40
47.910495
 50
-86.811046
 51
-86.281655
  0
ARC
  8
1
 62
7
  6
CONTINUOUS
 10
73.130044
 20
197.365319
 40
66.732785
 50
-87.191100
 51
-86.811015
  0
ARC
  8
1
 62
7
  6
CONTINUOUS
 10
71.873973
 20
222.788507
 40
92.186983
 50
-87.565948
 51
-87.185692
  0
ARC
  8
1
 62
7
  6
CONTINUOUS
 10
70.758858
 20
249.022279
 40
118.444444
 50
-87.861851
 51
-87.565960
  0
ARC
  8
1
 62
7
  6
CONTINUOUS
 10
68.994032
 20
296.292764
 40
165.747862
 50
-88.073272
 51
-87.861858
  0
ARC
  8
1
 62
7
  6
CONTINUOUS
 10
65.281407
 20
406.655333
 40
276.172860
 50
-88.200146
 51
-88.073276
  0
ARC
  8
1
 62
7
  6
CONTINUOUS
 10
47.936456
 20
958.626372
 40
828.416352
 50
-88.242442
 51
-88.200148
  0
ARC
  8
1
 62
7
  6
CONTINUOUS
 10
88.257153
 20
287.997176
 40
155.980409
 50
-88.363008
 51
-88.131028
  0
ARC
  8
1
 62
7
  6
CONTINUOUS
 10
91.231158
 20
183.927694
 40
51.868442
 50
-89.059887
 51
-88.362827
  0
ARC
  8
1
 62
7
  6
CONTINUOUS
 10
91.573568
 20
163.051841
 40
30.989781
 50
-90.224655
 51
-89.059604
  0
ARC
  8
1
 62
7
  6
CONTINUOUS
 10
91.538344
 20
154.090371
 40
22.028241
 50
-91.860811
 51
-90.224432
  0
ARC
  8
1
 62
7
  6
CONTINUOUS
 10
91.373669
 20
149.046064
 40
16.981247
 50
-96.475793
 51
-91.858140
  0
ARC
  8
1
 62
7
  6
CONTINUOUS
 10
93.056112
 20
164.407394
 40
32.434374
 50
-97.677750
 51
-96.368398
  0
ARC
  8
1
 62
7
  6
CONTINUOUS
 10
105.198714
 20
254.486719
 40
123.328420
 50
-98.022149
 51
-97.677298
  0
ARC
  8
1
 62
7
  6
CONTINUOUS
 10
78.339382
 20
63.905748
 40
69.135941
 50
81.978024
 51
82.593699
  0
ARC
  8
1
 62
7
  6
CONTINUOUS
 10
83.767776
 20
105.666102
 40
27.024248
 50
82.593699
 51
84.169275
  0
ARC
  8
1
 62
7
  6
CONTINUOUS
 10
84.704163
 20
114.835753
 40
17.806910
 50
84.169275
 51
85.668293
  0
ARC
  8
1
 62
7
  6
CONTINUOUS
 10
84.594653
 20
113.390017
 40
19.256788
 50
85.668293
 51
87.054098
  0
ARC
  8
1
 62
7
  6
CONTINUOUS
 10
84.828780
 20
117.939617
 40
14.701168
 50
87.054098
 51
88.868117
  0
ARC
  8
1
 62
7
  6
CONTINUOUS
 10
84.810865
 20
117.032858
 40
15.608104
 50
88.868117
 51
90.575180
  0
ARC
  8
1
 62
7
  6
CONTINUOUS
 10
84.784012
 20
119.707706
 40
12.933121
 50
90.575180
 51
95.135553
  0
ARC
  8
1
 62
7
  6
CONTINUOUS
 10
85.512316
 20
111.604013
 40
21.069475
 50
95.135553
 51
96.672261
  0
ARC
  8
1
 62
7
  6
CONTINUOUS
 10
85.428233
 20
112.322784
 40
20.345803
 50
96.672261
 51
98.265469
  0
ARC
  8
1
 62
7
  6
CONTINUOUS
 10
90.762414
 20
75.603386
 40
57.450624
 50
98.265469
 51
98.830208
  0
ARC
  8
1
 62
7
  6
CONTINUOUS
 10
89.883199
 20
81.263036
 40
51.723088
 50
98.830208
 51
99.457639
  0
ARC
  8
1
 62
7
  6
CONTINUOUS
 10
-88.256452
 20
1167.564359
 40
1049.087832
 50
-80.724952
 51
-80.694245
  0
ARC
  8
1
 62
7
  6
CONTINUOUS
 10
64.672892
 20
231.122922
 40
100.241190
 50
-81.046044
 51
-80.724899
  0
ARC
  8
1
 62
7
  6
CONTINUOUS
 10
72.095731
 20
184.011706
 40
52.548788
 50
-81.658185
 51
-81.046000
  0
ARC
  8
1
 62
7
  6
CONTINUOUS
 10
74.557003
 20
167.226051
 40
35.583645
 50
-82.561744
 51
-81.658182
  0
ARC
  8
1
 62
7
  6
CONTINUOUS
 10
75.679822
 20
158.626111
 40
26.910716
 50
-83.756369
 51
-82.561833
  0
ARC
  8
1
 62
7
  6
CONTINUOUS
 10
75.811417
 20
157.575811
 40
25.852340
 50
-84.773211
 51
-83.793132
  0
ARC
  8
1
 62
7
  6
CONTINUOUS
 10
75.382424
 20
162.265230
 40
30.561340
 50
-85.602589
 51
-84.773188
  0
ARC
  8
1
 62
7
  6
CONTINUOUS
 10
74.862886
 20
169.020886
 40
37.336944
 50
-86.281695
 51
-85.602551
  0
ARC
  8
1
 62
7
  6
CONTINUOUS
 10
74.177146
 20
179.572177
 40
47.910495
 50
-86.811046
 51
-86.281655
  0
ARC
  8
1
 62
7
  6
CONTINUOUS
 10
73.130044
 20
198.365319
 40
66.732785
 50
-87.191100
 51
-86.811015
  0
ARC
  8
1
 62
7
  6
CONTINUOUS
 10
71.873973
 20
223.788507
 40
92.186983
 50
-87.565948
 51
-87.185692
  0
ARC
  8
1
 62
7
  6
CONTINUOUS
 10
70.758858
 20
250.022279
 40
118.444444
 50
-87.861851
 51
-87.565960
  0
ARC
  8
1
 62
7
  6
CONTINUOUS
 10
68.994032
 20
297.292764
 40
165.747862
 50
-88.073272
 51
-87.861858
  0
ARC
  8
1
 62
7
  6
CONTINUOUS
 10
65.281407
 20
407.655333
 40
276.172860
 50
-88.200146
 51
-88.073276
  0
ARC
  8
1
 62
7
  6
CONTINUOUS
 10
47.936456
 20
959.626371
 40
828.416351
 50
-88.242442
 51
-88.200148
  0
ARC
  8
1
 62
7
  6
CONTINUOUS
 10
86.902148
 20
58.628592
 40
77.738541
 50
85.246487
 51
85.796873
  0
ARC
  8
1
 62
7
  6
CONTINUOUS
 10
90.720630
 20
110.587583
 40
25.639427
 50
85.796873
 51
87.458156
  0
ARC
  8
1
 62
7
  6
CONTINUOUS
 10
91.192777
 20
121.223290
 40
14.993246
 50
87.458156
 51
90.276690
  0
ARC
  8
1
 62
7
  6
CONTINUOUS
 10
91.170689
 20
125.797083
 40
10.419399
 50
90.276690
 51
94.296065
  0
ARC
  8
1
 62
7
  6
CONTINUOUS
 10
90.984226
 20
128.279246
 40
7.930243
 50
94.296065
 51
99.543045
  0
ARC
  8
1
 62
7
  6
CONTINUOUS
 10
90.915922
 20
128.685539
 40
7.518248
 50
99.543045
 51
105.554956
  0
ARC
  8
1
 62
7
  6
CONTINUOUS
 10
92.375200
 20
123.443085
 40
12.960014
 50
105.554956
 51
109.069091
  0
ARC
  8
1
 62
7
  6
CONTINUOUS
 10
93.328023
 20
120.686688
 40
15.876449
 50
109.069091
 51
111.962877
  0
ARC
  8
1
 62
7
  6
CONTINUOUS
 10
120.979428
 20
52.119186
 40
89.809544
 50
111.962877
 51
112.477105
  0
ARC
  8
1
 62
7
  6
CONTINUOUS
 10
48.761233
 20
225.640365
 40
98.140470
 50
-67.764224
 51
-67.293844
  0
ARC
  8
1
 62
7
  6
CONTINUOUS
 10
68.842958
 20
176.840588
 40
45.370574
 50
-68.999222
 51
-67.917764
  0
ARC
  8
1
 62
7
  6
CONTINUOUS
 10
59.231238
 20
201.882361
 40
72.193616
 50
-69.676790
 51
-69.000190
  0
ARC
  8
1
 62
7
  6
CONTINUOUS
 10
19.974271
 20
307.880245
 40
185.227508
 50
-69.940390
 51
-69.677272
  0
ARC
  8
1
 62
7
  6
CONTINUOUS
 10
192.394216
 20
-164.311266
 40
317.458736
 50
110.059565
 51
110.213063
  0
ARC
  8
1
 62
7
  6
CONTINUOUS
 10
112.363049
 20
53.054132
 40
85.828203
 50
110.213063
 51
110.781905
  0
ARC
  8
1
 62
7
  6
CONTINUOUS
 10
114.434103
 20
47.596854
 40
91.665253
 50
110.781905
 51
111.235431
  0
ARC
  8
1
 62
7
  6
CONTINUOUS
 10
54.235822
 20
202.878600
 40
74.876860
 50
-69.421614
 51
-68.865875
  0
ARC
  8
1
 62
7
  6
CONTINUOUS
 10
69.870633
 20
161.233938
 40
30.393995
 50
-70.787953
 51
-69.420800
  0
ARC
  8
1
 62
7
  6
CONTINUOUS
 10
73.651977
 20
150.381506
 40
18.901657
 50
-72.978377
 51
-70.786718
  0
ARC
  8
1
 62
7
  6
CONTINUOUS
 10
75.195761
 20
145.338255
 40
13.627413
 50
-76.007272
 51
-72.977678
  0
ARC
  8
1
 62
7
  6
CONTINUOUS
 10
75.318226
 20
144.993174
 40
13.263007
 50
-80.602952
 51
-76.160157
  0
ARC
  8
1
 62
7
  6
CONTINUOUS
 10
74.676274
 20
148.875937
 40
17.198480
 50
-84.040770
 51
-80.605023
  0
ARC
  8
1
 62
7
  6
CONTINUOUS
 10
73.922266
 20
156.094562
 40
24.456378
 50
-86.468247
 51
-84.039620
  0
ARC
  8
1
 62
7
  6
CONTINUOUS
 10
72.879395
 20
172.968493
 40
41.362505
 50
-87.909240
 51
-86.466270
  0
ARC
  8
1
 62
7
  6
CONTINUOUS
 10
69.819510
 20
256.705862
 40
125.155761
 50
-88.386158
 51
-87.907915
  0
ARC
  8
1
 62
7
  6
CONTINUOUS
 10
86.902148
 20
59.628592
 40
77.738541
 50
85.246487
 51
85.796873
  0
ARC
  8
1
 62
7
  6
CONTINUOUS
 10
90.720630
 20
111.587583
 40
25.639427
 50
85.796873
 51
87.458156
  0
ARC
  8
1
 62
7
  6
CONTINUOUS
 10
91.192777
 20
122.223290
 40
14.993246
 50
87.458156
 51
90.276690
  0
ARC
  8
1
 62
7
  6
CONTINUOUS
 10
91.170689
 20
126.797083
 40
10.419399
 50
90.276690
 51
94.296065
  0
ARC
  8
1
 62
7
  6
CONTINUOUS
 10
90.984226
 20
129.279246
 40
7.930243
 50
94.296065
 51
99.543045
  0
ARC
  8
1
 62
7
  6
CONTINUOUS
 10
90.915922
 20
129.685539
 40
7.518248
 50
99.543045
 51
105.554956
  0
ARC
  8
1
 62
7
  6
CONTINUOUS
 10
92.375200
 20
124.443085
 40
12.960014
 50
105.554956
 51
109.069091
  0
ARC
  8
1
 62
7
  6
CONTINUOUS
 10
93.328023
 20
121.686688
 40
15.876449
 50
109.069091
 51
111.962877
  0
ARC
  8
1
 62
7
  6
CONTINUOUS
 10
120.979428
 20
53.119186
 40
89.809544
 50
111.962877
 51
112.477105
  0
ARC
  8
1
 62
7
  6
CONTINUOUS
 10
48.761233
 20
226.640365
 40
98.140470
 50
-67.764224
 51
-67.293844
  0
ARC
  8
1
 62
7
  6
CONTINUOUS
 10
68.842958
 20
177.840588
 40
45.370574
 50
-68.999222
 51
-67.917764
  0
ARC
  8
1
 62
7
  6
CONTINUOUS
 10
59.231238
 20
202.882361
 40
72.193616
 50
-69.676790
 51
-69.000190
  0
ARC
  8
1
 62
7
  6
CONTINUOUS
 10
19.974271
 20
308.880245
 40
185.227508
 50
-69.940390
 51
-69.677272
  0
ARC
  8
1
 62
7
  6
CONTINUOUS
 10
192.394216
 20
-163.311266
 40
317.458736
 50
110.059565
 51
110.213063
  0
ARC
  8
1
 62
7
  6
CONTINUOUS
 10
112.363049
 20
54.054132
 40
85.828203
 50
110.213063
 51
110.781905
  0
ARC
  8
1
 62
7
  6
CONTINUOUS
 10
114.434103
 20
48.596854
 40
91.665253
 50
110.781905
 51
111.235431
  0
ARC
  8
1
 62
7
  6
CONTINUOUS
 10
54.235822
 20
203.878600
 40
74.876860
 50
-69.421614
 51
-68.865875
  0
ARC
  8
1
 62
7
  6
CONTINUOUS
 10
69.870633
 20
162.233938
 40
30.393995
 50
-70.787953
 51
-69.420800
  0
ARC
  8
1
 62
7
  6
CONTINUOUS
 10
73.651977
 20
151.381506
 40
18.901657
 50
-72.978377
 51
-70.786718
  0
ARC
  8
1
 62
7
  6
CONTINUOUS
 10
75.195761
 20
146.338255
 40
13.627413
 50
-76.007272
 51
-72.977678
  0
ARC
  8
1
 62
7
  6
CONTINUOUS
 10
75.318226
 20
145.993174
 40
13.263007
 50
-80.602952
 51
-76.160157
  0
ARC
  8
1
 62
7
  6
CONTINUOUS
 10
74.676274
 20
149.875937
 40
17.198480
 50
-84.040770
 51
-80.605023
  0
ARC
  8
1
 62
7
  6
CONTINUOUS
 10
73.922266
 20
157.094562
 40
24.456378
 50
-86.468247
 51
-84.039620
  0
ARC
  8
1
 62
7
  6
CONTINUOUS
 10
72.879395
 20
173.968493
 40
41.362505
 50
-87.909240
 51
-86.466270
  0
ARC
  8
1
 62
7
  6
CONTINUOUS
 10
69.819510
 20
257.705862
 40
125.155761
 50
-88.386158
 51
-87.907915
  0
ARC
  8
1
 62
7
  6
CONTINUOUS
 10
93.119388
 20
85.513872
 40
55.586327
 50
89.768183
 51
90.767124
  0
ARC
  8
1
 62
7
  6
CONTINUOUS
 10
92.613688
 20
123.281869
 40
17.814945
 50
90.767124
 51
93.832459
  0
ARC
  8
1
 62
7
  6
CONTINUOUS
 10
92.071431
 20
131.376592
 40
9.702080
 50
93.832459
 51
99.294151
  0
ARC
  8
1
 62
7
  6
CONTINUOUS
 10
91.509315
 20
134.811426
 40
6.221554
 50
99.294151
 51
107.516439
  0
ARC
  8
1
 62
7
  6
CONTINUOUS
 10
90.977260
 20
136.497203
 40
4.453808
 50
107.516439
 51
118.727452
  0
ARC
  8
1
 62
7
  6
CONTINUOUS
 10
90.923455
 20
136.595369
 40
4.341863
 50
118.727452
 51
129.208308
  0
ARC
  8
1
 62
7
  6
CONTINUOUS
 10
94.290604
 20
132.468058
 40
9.668437
 50
129.208308
 51
134.045468
  0
ARC
  8
1
 62
7
  6
CONTINUOUS
 10
96.686738
 20
129.990726
 40
13.114977
 50
134.045468
 51
137.707871
  0
ARC
  8
1
 62
7
  6
CONTINUOUS
 10
-55.689770
 20
270.940361
 40
194.455737
 50
-43.051570
 51
-42.801271
  0
ARC
  8
1
 62
7
  6
CONTINUOUS
 10
75.104841
 20
148.749039
 40
15.464258
 50
-46.182350
 51
-43.043186
  0
ARC
  8
1
 62
7
  6
CONTINUOUS
 10
78.217786
 20
145.592436
 40
11.031492
 50
-52.352536
 51
-46.497170
  0
ARC
  8
1
 62
7
  6
CONTINUOUS
 10
76.995947
 20
147.180855
 40
13.035477
 50
-57.276528
 51
-52.364736
  0
ARC
  8
1
 62
7
  6
CONTINUOUS
 10
75.134465
 20
150.080185
 40
16.480943
 50
-61.160635
 51
-57.281009
  0
ARC
  8
1
 62
7
  6
CONTINUOUS
 10
72.155235
 20
155.490614
 40
22.657394
 50
-63.988251
 51
-61.160682
  0
ARC
  8
1
 62
7
  6
CONTINUOUS
 10
66.342256
 20
167.400717
 40
35.910367
 50
-65.774567
 51
-63.986803
  0
ARC
  8
1
 62
7
  6
CONTINUOUS
 10
64.133709
 20
172.092798
 40
41.095578
 50
-66.879719
 51
-65.650807
  0
ARC
  8
1
 62
7
  6
CONTINUOUS
 10
68.541500
 20
161.768036
 40
29.869299
 50
-68.567267
 51
-66.878991
  0
ARC
  8
1
 62
7
  6
CONTINUOUS
 10
70.934797
 20
155.670486
 40
23.318881
 50
-70.723611
 51
-68.566521
  0
ARC
  8
1
 62
7
  6
CONTINUOUS
 10
72.345768
 20
151.635624
 40
19.044427
 50
-73.357223
 51
-70.723181
  0
ARC
  8
1
 62
7
  6
CONTINUOUS
 10
73.237900
 20
148.643946
 40
15.922564
 50
-79.117316
 51
-73.349781
  0
ARC
  8
1
 62
7
  6
CONTINUOUS
 10
72.175209
 20
154.082303
 40
21.463757
 50
-81.021471
 51
-79.072403
  0
ARC
  8
1
 62
7
  6
CONTINUOUS
 10
70.803654
 20
162.761791
 40
30.250946
 50
-82.407090
 51
-81.021110
  0
ARC
  8
1
 62
7
  6
CONTINUOUS
 10
68.099348
 20
183.045661
 40
50.714295
 50
-83.234967
 51
-82.406625
  0
ARC
  8
1
 62
7
  6
CONTINUOUS
 10
56.090496
 20
284.273626
 40
152.652087
 50
-83.510167
 51
-83.234669
  0
ARC
  8
1
 62
7
  6
CONTINUOUS
 10
93.119388
 20
86.513872
 40
55.586327
 50
89.768183
 51
90.767124
  0
ARC
  8
1
 62
7
  6
CONTINUOUS
 10
92.613688
 20
124.281869
 40
17.814945
 50
90.767124
 51
93.832459
  0
ARC
  8
1
 62
7
  6
CONTINUOUS
 10
92.071431
 20
132.376592
 40
9.702080
 50
93.832459
 51
99.294151
  0
ARC
  8
1
 62
7
  6
CONTINUOUS
 10
91.509315
 20
135.811426
 40
6.221554
 50
99.294151
 51
107.516439
  0
ARC
  8
1
 62
7
  6
CONTINUOUS
 10
90.977260
 20
137.497203
 40
4.453808
 50
107.516439
 51
118.727452
  0
ARC
  8
1
 62
7
  6
CONTINUOUS
 10
90.923455
 20
137.595369
 40
4.341863
 50
118.727452
 51
129.208308
  0
ARC
  8
1
 62
7
  6
CONTINUOUS
 10
94.290604
 20
133.468058
 40
9.668437
 50
129.208308
 51
134.045468
  0
ARC
  8
1
 62
7
  6
CONTINUOUS
 10
96.686738
 20
130.990726
 40
13.114977
 50
134.045468
 51
137.707871
  0
ARC
  8
1
 62
7
  6
CONTINUOUS
 10
-55.689770
 20
271.940361
 40
194.455737
 50
-43.051570
 51
-42.801271
  0
ARC
  8
1
 62
7
  6
CONTINUOUS
 10
75.104841
 20
149.749039
 40
15.464258
 50
-46.182350
 51
-43.043186
  0
ARC
  8
1
 62
7
  6
CONTINUOUS
 10
78.217786
 20
146.592436
 40
11.031492
 50
-52.352536
 51
-46.497170
  0
ARC
  8
1
 62
7
  6
CONTINUOUS
 10
76.995947
 20
148.180855
 40
13.035477
 50
-57.276528
 51
-52.364736
  0
ARC
  8
1
 62
7
  6
CONTINUOUS
 10
75.134465
 20
151.080185
 40
16.480943
 50
-61.160635
 51
-57.281009
  0
ARC
  8
1
 62
7
  6
CONTINUOUS
 10
72.155235
 20
156.490614
 40
22.657394
 50
-63.988251
 51
-61.160682
  0
ARC
  8
1
 62
7
  6
CONTINUOUS
 10
66.342256
 20
168.400717
 40
35.910367
 50
-65.774567
 51
-63.986803
  0
ARC
  8
1
 62
7
  6
CONTINUOUS
 10
64.133709
 20
173.092798
 40
41.095578
 50
-66.879719
 51
-65.650807
  0
ARC
  8
1
 62
7
  6
CONTINUOUS
 10
68.541500
 20
162.768036
 40
29.869299
 50
-68.567267
 51
-66.878991
  0
ARC
  8
1
 62
7
  6
CONTINUOUS
 10
70.934797
 20
156.670486
 40
23.318881
 50
-70.723611
 51
-68.566521
  0
ARC
  8
1
 62
7
  6
CONTINUOUS
 10
72.345768
 20
152.635624
 40
19.044427
 50
-73.357223
 51
-70.723181
  0
ARC
  8
1
 62
7
  6
CONTINUOUS
 10
73.237900
 20
149.643946
 40
15.922564
 50
-79.117316
 51
-73.349781
  0
ARC
  8
1
 62
7
  6
CONTINUOUS
 10
72.175209
 20
155.082303
 40
21.463757
 50
-81.021471
 51
-79.072403
  0
ARC
  8
1
 62
7
  6
CONTINUOUS
 10
70.803654
 20
163.761791
 40
30.250946
 50
-82.407090
 51
-81.021110
  0
ARC
  8
1
 62
7
  6
CONTINUOUS
 10
68.099348
 20
184.045661
 40
50.714295
 50
-83.234967
 51
-82.406625
  0
ARC
  8
1
 62
7
  6
CONTINUOUS
 10
56.090496
 20
285.273626
 40
152.652087
 50
-83.510167
 51
-83.234669
  0
ARC
  8
1
 62
7
  6
CONTINUOUS
 10
-57.398674
 20
742.466104
 40
621.327364
 50
-81.239684
 51
-81.172221
  0
ARC
  8
1
 62
7
  6
CONTINUOUS
 10
5.614586
 20
333.553316
 40
207.587906
 50
-81.441813
 51
-81.239736
  0
ARC
  8
1
 62
7
  6
CONTINUOUS
 10
17.884964
 20
252.018361
 40
125.134822
 50
-81.777669
 51
-81.441918
  0
ARC
  8
1
 62
7
  6
CONTINUOUS
 10
22.907266
 20
217.263731
 40
90.019187
 50
-82.245661
 51
-81.777830
  0
ARC
  8
1
 62
7
  6
CONTINUOUS
 10
25.514811
 20
198.116720
 40
70.695437
 50
-82.843512
 51
-82.245881
  0
ARC
  8
1
 62
7
  6
CONTINUOUS
 10
30.090565
 20
161.418389
 40
33.712969
 50
-83.606747
 51
-82.789531
  0
ARC
  8
1
 62
7
  6
CONTINUOUS
 10
31.926418
 20
145.030800
 40
17.222868
 50
-85.203882
 51
-83.605571
  0
ARC
  8
1
 62
7
  6
CONTINUOUS
 10
32.409991
 20
139.262849
 40
11.434682
 50
-87.600825
 51
-85.201974
  0
ARC
  8
1
 62
7
  6
CONTINUOUS
 10
32.533839
 20
136.301062
 40
8.470307
 50
-90.822018
 51
-87.599171
  0
ARC
  8
1
 62
7
  6
CONTINUOUS
 10
32.508588
 20
134.533313
 40
6.702377
 50
-100.531523
 51
-90.822978
  0
ARC
  8
1
 62
7
  6
CONTINUOUS
 10
33.606106
 20
140.761261
 40
13.026148
 50
-103.194154
 51
-100.270725
  0
ARC
  8
1
 62
7
  6
CONTINUOUS
 10
42.135137
 20
177.157781
 40
50.408644
 50
-103.948931
 51
-103.189973
  0
ARC
  8
1
 62
7
  6
CONTINUOUS
 10
23.295792
 20
101.309778
 40
27.744030
 50
76.050857
 51
77.430249
  0
ARC
  8
1
 62
7
  6
CONTINUOUS
 10
26.987157
 20
117.865047
 40
10.782217
 50
77.430249
 51
80.967537
  0
ARC
  8
1
 62
7
  6
CONTINUOUS
 10
27.428912
 20
120.643983
 40
7.968388
 50
80.967537
 51
85.172986
  0
ARC
  8
1
 62
7
  6
CONTINUOUS
 10
26.934286
 20
114.786759
 40
13.846459
 50
85.172986
 51
87.595044
  0
ARC
  8
1
 62
7
  6
CONTINUOUS
 10
26.980418
 20
115.885177
 40
12.747073
 50
87.595044
 51
90.232202
  0
ARC
  8
1
 62
7
  6
CONTINUOUS
 10
27.086469
 20
89.717246
 40
38.915219
 50
90.232202
 51
91.097650
  0
ARC
  8
1
 62
7
  6
CONTINUOUS
 10
26.926388
 20
98.072246
 40
30.558685
 50
91.097650
 51
92.200136
  0
ARC
  8
1
 62
7
  6
CONTINUOUS
 10
31.263975
 20
-38.295594
 40
166.994949
 50
91.891072
 51
92.104785
  0
ARC
  8
1
 62
7
  6
CONTINUOUS
 10
32.973517
 20
-84.811243
 40
213.542002
 50
92.104785
 51
92.271637
  0
ARC
  8
1
 62
7
  6
CONTINUOUS
 10
36.322858
 20
-169.244853
 40
298.042017
 50
92.271637
 51
92.391036
  0
ARC
  8
1
 62
7
  6
CONTINUOUS
 10
44.540724
 20
-366.053131
 40
495.021792
 50
92.391036
 51
92.462865
  0
ARC
  8
1
 62
7
  6
CONTINUOUS
 10
87.164506
 20
-1357.036790
 40
1486.921686
 50
92.462865
 51
92.486768
  0
ARC
  8
1
 62
7
  6
CONTINUOUS
 10
55.611812
 20
-101.607106
 40
231.804611
 50
94.115601
 51
94.187764
  0
ARC
  8
1
 62
7
  6
CONTINUOUS
 10
44.322918
 20
52.569143
 40
77.215623
 50
94.187764
 51
94.404337
  0
ARC
  8
1
 62
7
  6
CONTINUOUS
 10
41.944696
 20
83.446336
 40
46.246978
 50
94.404337
 51
94.765732
  0
ARC
  8
1
 62
7
  6
CONTINUOUS
 10
40.840434
 20
96.691645
 40
32.955718
 50
94.765732
 51
95.272476
  0
ARC
  8
1
 62
7
  6
CONTINUOUS
 10
40.160441
 20
104.060235
 40
25.555818
 50
95.272476
 51
95.925315
  0
ARC
  8
1
 62
7
  6
CONTINUOUS
 10
40.078572
 20
104.849053
 40
24.762763
 50
95.925315
 51
97.473747
  0
ARC
  8
1
 62
7
  6
CONTINUOUS
 10
42.366316
 20
87.410171
 40
42.351066
 50
97.473747
 51
98.378926
  0
ARC
  8
1
 62
7
  6
CONTINUOUS
 10
44.853495
 20
70.524053
 40
59.419371
 50
98.378926
 51
99.025148
  0
ARC
  8
1
 62
7
  6
CONTINUOUS
 10
97.321244
 20
-261.953771
 40
396.011633
 50
98.976398
 51
99.073666
  0
ARC
  8
1
 62
7
  6
CONTINUOUS
 10
17.430674
 20
238.298595
 40
110.579852
 50
-81.276794
 51
-80.926882
  0
ARC
  8
1
 62
7
  6
CONTINUOUS
 10
29.521015
 20
159.347699
 40
30.708591
 50
-82.110795
 51
-81.233323
  0
ARC
  8
1
 62
7
  6
CONTINUOUS
 10
31.739486
 20
143.334434
 40
14.542383
 50
-83.960069
 51
-82.108929
  0
ARC
  8
1
 62
7
  6
CONTINUOUS
 10
32.282458
 20
138.197793
 40
9.377124
 50
-86.813809
 51
-83.956844
  0
ARC
  8
1
 62
7
  6
CONTINUOUS
 10
32.424270
 20
135.644348
 40
6.819745
 50
-90.713526
 51
-86.811038
  0
ARC
  8
1
 62
7
  6
CONTINUOUS
 10
32.406561
 20
134.177031
 40
5.352321
 50
-102.717895
 51
-90.719575
  0
ARC
  8
1
 62
7
  6
CONTINUOUS
 10
33.658472
 20
140.058580
 40
11.365419
 50
-105.695107
 51
-102.346699
  0
ARC
  8
1
 62
7
  6
CONTINUOUS
 10
52.573946
 20
207.413270
 40
81.325760
 50
-106.158252
 51
-105.687735
  0
ARC
  8
1
 62
7
  6
CONTINUOUS
 10
25.482469
 20
113.913249
 40
16.020026
 50
73.838063
 51
76.220874
  0
ARC
  8
1
 62
7
  6
CONTINUOUS
 10
27.598313
 20
122.540989
 40
7.136631
 50
76.220874
 51
81.527964
  0
ARC
  8
1
 62
7
  6
CONTINUOUS
 10
27.834419
 20
124.126101
 40
5.534032
 50
81.527964
 51
87.673778
  0
ARC
  8
1
 62
7
  6
CONTINUOUS
 10
27.588438
 20
118.070834
 40
11.594293
 50
87.673778
 51
90.618317
  0
ARC
  8
1
 62
7
  6
CONTINUOUS
 10
27.591287
 20
117.806875
 40
11.858267
 50
90.618317
 51
93.515080
  0
ARC
  8
1
 62
7
  6
CONTINUOUS
 10
30.288698
 20
66.884412
 40
62.851781
 50
93.123286
 51
93.671905
  0
ARC
  8
1
 62
7
  6
CONTINUOUS
 10
24.068758
 20
163.803323
 40
34.266513
 50
-87.333833
 51
-86.327765
  0
ARC
  8
1
 62
7
  6
CONTINUOUS
 10
24.732756
 20
150.814543
 40
21.260988
 50
-89.123660
 51
-87.493063
  0
ARC
  8
1
 62
7
  6
CONTINUOUS
 10
24.643513
 20
156.669235
 40
27.116360
 50
-90.399376
 51
-89.124317
  0
ARC
  8
1
 62
7
  6
CONTINUOUS
 10
24.718095
 20
167.334564
 40
37.781950
 50
-91.313397
 51
-90.399739
  0
ARC
  8
1
 62
7
  6
CONTINUOUS
 10
25.291910
 20
192.353751
 40
62.807716
 50
-91.862712
 51
-91.313576
  0
ARC
  8
1
 62
7
  6
CONTINUOUS
 10
29.368461
 20
317.694489
 40
188.214730
 50
-92.045962
 51
-91.862782
  0
ARC
  8
1
 62
7
  6
CONTINUOUS
 10
-52.384888
 20
1599.045373
 40
1482.345891
 50
-87.098544
 51
-87.063695
  0
ARC
  8
1
 62
7
  6
CONTINUOUS
 10
-1.783999
 20
612.540573
 40
494.544205
 50
-87.063695
 51
-86.959201
  0
ARC
  8
1
 62
7
  6
CONTINUOUS
 10
8.672756
 20
415.695835
 40
297.421921
 50
-86.959201
 51
-86.785320
  0
ARC
  8
1
 62
7
  6
CONTINUOUS
 10
13.398351
 20
331.559146
 40
213.152629
 50
-86.785320
 51
-86.542422
  0
ARC
  8
1
 62
7
  6
CONTINUOUS
 10
16.208681
 20
285.045512
 40
166.554173
 50
-86.542422
 51
-86.231091
  0
ARC
  8
1
 62
7
  6
CONTINUOUS
 10
21.802516
 20
200.129499
 40
81.454112
 50
-86.231091
 51
-85.801116
  0
ARC
  8
1
 62
7
  6
CONTINUOUS
 10
25.542179
 20
149.191397
 40
30.378920
 50
-85.801116
 51
-84.648687
  0
ARC
  8
1
 62
7
  6
CONTINUOUS
 10
26.279696
 20
141.317877
 40
22.470933
 50
-84.648687
 51
-83.093348
  0
ARC
  8
1
 62
7
  6
CONTINUOUS
 10
27.152898
 20
134.109139
 40
15.209502
 50
-83.093348
 51
-80.800737
  0
ARC
  8
1
 62
7
  6
CONTINUOUS
 10
27.530373
 20
131.778347
 40
12.848341
 50
-80.800737
 51
-78.092049
  0
ARC
  8
1
 62
7
  6
CONTINUOUS
 10
27.845583
 20
130.283597
 40
11.320717
 50
-78.092049
 51
-72.912714
  0
ARC
  8
1
 62
7
  6
CONTINUOUS
 10
26.927863
 20
133.269048
 40
14.444037
 50
-72.912714
 51
-68.840949
  0
ARC
  8
1
 62
7
  6
CONTINUOUS
 10
26.881074
 20
133.389934
 40
14.573662
 50
-68.840949
 51
-64.786188
  0
ARC
  8
1
 62
7
  6
CONTINUOUS
 10
24.630088
 20
138.170532
 40
19.857700
 50
-64.786188
 51
-61.797754
  0
ARC
  8
1
 62
7
  6
CONTINUOUS
 10
24.759057
 20
137.930028
 40
19.584798
 50
-61.797754
 51
-58.760774
  0
ARC
  8
1
 62
7
  6
CONTINUOUS
 10
15.675008
 20
152.906427
 40
37.100862
 50
-58.760774
 51
-57.269449
  0
ARC
  8
1
 62
7
  6
CONTINUOUS
 10
-336.960245
 20
701.548564
 40
689.297011
 50
-57.269449
 51
-57.189411
  0
ARC
  8
1
 62
7
  6
CONTINUOUS
 10
55.079204
 20
93.426112
 40
34.241417
 50
121.169392
 51
122.771471
  0
ARC
  8
1
 62
7
  6
CONTINUOUS
 10
46.054087
 20
108.348296
 40
16.802257
 50
117.931795
 51
121.172856
  0
ARC
  8
1
 62
7
  6
CONTINUOUS
 10
43.358355
 20
113.432368
 40
11.047715
 50
113.027839
 51
117.930690
  0
ARC
  8
1
 62
7
  6
CONTINUOUS
 10
43.133874
 20
113.858909
 40
10.567425
 50
108.786075
 51
112.812376
  0
ARC
  8
1
 62
7
  6
CONTINUOUS
 10
44.177951
 20
110.789431
 40
13.809616
 50
105.688324
 51
108.785971
  0
ARC
  8
1
 62
7
  6
CONTINUOUS
 10
45.775922
 20
105.102431
 40
19.716855
 50
103.506457
 51
105.690219
  0
ARC
  8
1
 62
7
  6
CONTINUOUS
 10
48.974790
 20
91.790095
 40
33.408131
 50
102.212681
 51
103.508578
  0
ARC
  8
1
 62
7
  6
CONTINUOUS
 10
63.308227
 20
25.577097
 40
101.154780
 50
101.784668
 51
102.213977
  0
ARC
  8
1
 62
7
  6
CONTINUOUS
 10
-52.384888
 20
1600.045373
 40
1482.345891
 50
-87.098544
 51
-87.063695
  0
ARC
  8
1
 62
7
  6
CONTINUOUS
 10
-1.783999
 20
613.540573
 40
494.544205
 50
-87.063695
 51
-86.959201
  0
ARC
  8
1
 62
7
  6
CONTINUOUS
 10
8.672756
 20
416.695835
 40
297.421921
 50
-86.959201
 51
-86.785320
  0
ARC
  8
1
 62
7
  6
CONTINUOUS
 10
13.398351
 20
332.559146
 40
213.152629
 50
-86.785320
 51
-86.542422
  0
ARC
  8
1
 62
7
  6
CONTINUOUS
 10
16.208681
 20
286.045512
 40
166.554173
 50
-86.542422
 51
-86.231091
  0
ARC
  8
1
 62
7
  6
CONTINUOUS
 10
21.802516
 20
201.129499
 40
81.454112
 50
-86.231091
 51
-85.801116
  0
ARC
  8
1
 62
7
  6
CONTINUOUS
 10
25.542179
 20
150.191397
 40
30.378920
 50
-85.801116
 51
-84.648687
  0
ARC
  8
1
 62
7
  6
CONTINUOUS
 10
26.279696
 20
142.317877
 40
22.470933
 50
-84.648687
 51
-83.093348
  0
ARC
  8
1
 62
7
  6
CONTINUOUS
 10
27.152898
 20
135.109139
 40
15.209502
 50
-83.093348
 51
-80.800737
  0
ARC
  8
1
 62
7
  6
CONTINUOUS
 10
27.530373
 20
132.778347
 40
12.848341
 50
-80.800737
 51
-78.092049
  0
ARC
  8
1
 62
7
  6
CONTINUOUS
 10
27.845583
 20
131.283597
 40
11.320717
 50
-78.092049
 51
-72.912714
  0
ARC
  8
1
 62
7
  6
CONTINUOUS
 10
26.927863
 20
134.269048
 40
14.444037
 50
-72.912714
 51
-68.840949
  0
ARC
  8
1
 62
7
  6
CONTINUOUS
 10
26.881074
 20
134.389934
 40
14.573662
 50
-68.840949
 51
-64.786188
  0
ARC
  8
1
 62
7
  6
CONTINUOUS
 10
24.630088
 20
139.170532
 40
19.857700
 50
-64.786188
 51
-61.797754
  0
ARC
  8
1
 62
7
  6
CONTINUOUS
 10
24.759057
 20
138.930028
 40
19.584798
 50
-61.797754
 51
-58.760774
  0
ARC
  8
1
 62
7
  6
CONTINUOUS
 10
15.675008
 20
153.906427
 40
37.100862
 50
-58.760774
 51
-57.269449
  0
ARC
  8
1
 62
7
  6
CONTINUOUS
 10
-336.960245
 20
702.548564
 40
689.297011
 50
-57.269449
 51
-57.189411
  0
ARC
  8
1
 62
7
  6
CONTINUOUS
 10
55.079204
 20
94.426112
 40
34.241417
 50
121.169392
 51
122.771471
  0
ARC
  8
1
 62
7
  6
CONTINUOUS
 10
46.054087
 20
109.348296
 40
16.802257
 50
117.931795
 51
121.172856
  0
ARC
  8
1
 62
7
  6
CONTINUOUS
 10
43.358355
 20
114.432368
 40
11.047715
 50
113.027839
 51
117.930690
  0
ARC
  8
1
 62
7
  6
CONTINUOUS
 10
43.133874
 20
114.858909
 40
10.567425
 50
108.786075
 51
112.812376
  0
ARC
  8
1
 62
7
  6
CONTINUOUS
 10
44.177951
 20
111.789431
 40
13.809616
 50
105.688324
 51
108.785971
  0
ARC
  8
1
 62
7
  6
CONTINUOUS
 10
45.775922
 20
106.102431
 40
19.716855
 50
103.506457
 51
105.690219
  0
ARC
  8
1
 62
7
  6
CONTINUOUS
 10
48.974790
 20
92.790095
 40
33.408131
 50
102.212681
 51
103.508578
  0
ARC
  8
1
 62
7
  6
CONTINUOUS
 10
63.308227
 20
26.577097
 40
101.154780
 50
101.784668
 51
102.213977
  0
ARC
  8
1
 62
7
  6
CONTINUOUS
 10
28.957347
 20
268.684118
 40
147.719135
 50
-92.447572
 51
-92.161060
  0
ARC
  8
1
 62
7
  6
CONTINUOUS
 10
25.237690
 20
170.112340
 40
49.077200
 50
-92.161060
 51
-91.299887
  0
ARC
  8
1
 62
7
  6
CONTINUOUS
 10
24.786956
 20
150.248488
 40
29.208235
 50
-91.299887
 51
-89.856522
  0
ARC
  8
1
 62
7
  6
CONTINUOUS
 10
24.808325
 20
141.714847
 40
20.674567
 50
-89.856522
 51
-87.823515
  0
ARC
  8
1
 62
7
  6
CONTINUOUS
 10
24.987881
 20
136.990343
 40
15.946652
 50
-87.823515
 51
-85.194541
  0
ARC
  8
1
 62
7
  6
CONTINUOUS
 10
25.055667
 20
136.184021
 40
15.137486
 50
-85.194541
 51
-82.318920
  0
ARC
  8
1
 62
7
  6
CONTINUOUS
 10
23.467579
 20
147.959057
 40
27.019132
 50
-82.318920
 51
-80.704916
  0
ARC
  8
1
 62
7
  6
CONTINUOUS
 10
22.282908
 20
155.197301
 40
34.353681
 50
-80.704916
 51
-79.431288
  0
ARC
  8
1
 62
7
  6
CONTINUOUS
 10
-354.628881
 20
2175.307972
 40
2089.325608
 50
-79.431288
 51
-79.410269
  0
ARC
  8
1
 62
7
  6
CONTINUOUS
 10
44.727060
 20
40.153677
 40
82.855260
 50
100.172482
 51
100.704428
  0
ARC
  8
1
 62
7
  6
CONTINUOUS
 10
60.027833
 20
-48.252424
 40
172.574853
 50
99.713454
 51
99.988774
  0
ARC
  8
1
 62
7
  6
CONTINUOUS
 10
23.960948
 20
162.453494
 40
41.195594
 50
-80.287453
 51
-79.135296
  0
ARC
  8
1
 62
7
  6
CONTINUOUS
 10
28.304663
 20
139.821827
 40
18.150850
 50
-79.135296
 51
-76.534077
  0
ARC
  8
1
 62
7
  6
CONTINUOUS
 10
29.876404
 20
133.257856
 40
11.401326
 50
-76.534077
 51
-72.421994
  0
ARC
  8
1
 62
7
  6
CONTINUOUS
 10
30.829492
 20
130.249337
 40
8.245448
 50
-72.421994
 51
-61.366018
  0
ARC
  8
1
 62
7
  6
CONTINUOUS
 10
23.749438
 20
143.216769
 40
23.019799
 50
-61.366018
 51
-59.420249
  0
ARC
  8
1
 62
7
  6
CONTINUOUS
 10
3.812873
 20
176.954866
 40
62.208138
 50
-59.420249
 51
-58.697858
  0
ARC
  8
1
 62
7
  6
CONTINUOUS
 10
47.184400
 20
105.439682
 40
21.431199
 50
118.951852
 51
121.041615
  0
ARC
  8
1
 62
7
  6
CONTINUOUS
 10
41.647773
 20
115.450455
 40
9.991363
 50
114.512702
 51
118.959095
  0
ARC
  8
1
 62
7
  6
CONTINUOUS
 10
41.044173
 20
116.655488
 40
8.644651
 50
107.297553
 51
114.186376
  0
ARC
  8
1
 62
7
  6
CONTINUOUS
 10
41.824892
 20
114.142411
 40
11.276205
 50
101.982335
 51
107.288337
  0
ARC
  8
1
 62
7
  6
CONTINUOUS
 10
42.871145
 20
109.217189
 40
16.311327
 50
98.277649
 51
101.985605
  0
ARC
  8
1
 62
7
  6
CONTINUOUS
 10
44.565553
 20
97.592681
 40
28.058675
 50
96.105879
 51
98.284129
  0
ARC
  8
1
 62
7
  6
CONTINUOUS
 10
50.708885
 20
40.224827
 40
85.754526
 50
95.393087
 51
96.110213
  0
ARC
  8
1
 62
7
  6
CONTINUOUS
 10
28.945343
 20
282.010708
 40
160.034873
 50
-92.254813
 51
-91.990610
  0
ARC
  8
1
 62
7
  6
CONTINUOUS
 10
25.234437
 20
175.242596
 40
53.202291
 50
-91.990610
 51
-91.196779
  0
ARC
  8
1
 62
7
  6
CONTINUOUS
 10
24.785610
 20
153.758134
 40
31.713141
 50
-91.196779
 51
-89.867723
  0
ARC
  8
1
 62
7
  6
CONTINUOUS
 10
24.806905
 20
144.534560
 40
22.489543
 50
-89.867723
 51
-87.998049
  0
ARC
  8
1
 62
7
  6
CONTINUOUS
 10
24.985395
 20
139.428251
 40
17.380115
 50
-87.998049
 51
-85.583482
  0
ARC
  8
1
 62
7
  6
CONTINUOUS
 10
25.079882
 20
138.204889
 40
16.153110
 50
-85.583482
 51
-82.885122
  0
ARC
  8
1
 62
7
  6
CONTINUOUS
 10
24.043496
 20
146.507914
 40
24.520566
 50
-82.885122
 51
-81.104853
  0
ARC
  8
1
 62
7
  6
CONTINUOUS
 10
23.569657
 20
149.535463
 40
27.584970
 50
-81.104853
 51
-79.518071
  0
ARC
  8
1
 62
7
  6
CONTINUOUS
 10
16.718488
 20
186.566243
 40
65.244195
 50
-79.518071
 51
-78.845189
  0
ARC
  8
1
 62
7
  6
CONTINUOUS
 10
11.953279
 20
210.732323
 40
89.875610
 50
-78.845189
 51
-78.355388
  0
ARC
  8
1
 62
7
  6
CONTINUOUS
 10
-51.825928
 20
520.216814
 40
405.863644
 50
-78.355388
 51
-78.237306
  0
ARC
  8
1
 62
7
  6
CONTINUOUS
 10
26.171439
 20
145.646272
 40
23.258521
 50
-78.237306
 51
-76.179257
  0
ARC
  8
1
 62
7
  6
CONTINUOUS
 10
26.644061
 20
143.725104
 40
21.280072
 50
-76.179257
 51
-73.938483
  0
ARC
  8
1
 62
7
  6
CONTINUOUS
 10
29.425120
 20
134.065553
 40
11.228147
 50
-73.938483
 51
-69.709376
  0
ARC
  8
1
 62
7
  6
CONTINUOUS
 10
29.765106
 20
133.145990
 40
10.247746
 50
-69.709376
 51
-60.725091
  0
ARC
  8
1
 62
7
  6
CONTINUOUS
 10
20.615227
 20
149.467626
 40
28.959135
 50
-60.725091
 51
-59.175314
  0
ARC
  8
1
 62
7
  6
CONTINUOUS
 10
95.920904
 20
23.688868
 40
117.639816
 50
120.548955
 51
120.930510
  0
ARC
  8
1
 62
7
  6
CONTINUOUS
 10
45.012276
 20
109.949150
 40
17.477325
 50
118.001355
 51
120.554285
  0
ARC
  8
1
 62
7
  6
CONTINUOUS
 10
41.127337
 20
117.257477
 40
9.200588
 50
113.202936
 51
118.007889
  0
ARC
  8
1
 62
7
  6
CONTINUOUS
 10
40.685668
 20
118.169715
 40
8.188256
 50
105.673280
 51
112.877328
  0
ARC
  8
1
 62
7
  6
CONTINUOUS
 10
41.375188
 20
115.705940
 40
10.746697
 50
100.138109
 51
105.664161
  0
ARC
  8
1
 62
7
  6
CONTINUOUS
 10
42.238675
 20
110.884336
 40
15.645010
 50
96.297578
 51
100.142866
  0
ARC
  8
1
 62
7
  6
CONTINUOUS
 10
43.492919
 20
99.553182
 40
27.045368
 50
94.053982
 51
96.305491
  0
ARC
  8
1
 62
7
  6
CONTINUOUS
 10
47.447227
 20
43.864275
 40
82.874490
 50
93.319159
 51
94.059108
  0
ARC
  8
1
 62
7
  6
CONTINUOUS
 10
31.322256
 20
-130.069792
 40
253.817769
 50
91.816216
 51
91.958253
  0
ARC
  8
1
 62
7
  6
CONTINUOUS
 10
25.960860
 20
39.007049
 40
84.655945
 50
91.390242
 51
91.816186
  0
ARC
  8
1
 62
7
  6
CONTINUOUS
 10
25.140955
 20
72.788181
 40
50.864864
 50
90.680920
 51
91.390165
  0
ARC
  8
1
 62
7
  6
CONTINUOUS
 10
24.969293
 20
87.223435
 40
36.428590
 50
89.689569
 51
90.680760
  0
ARC
  8
1
 62
7
  6
CONTINUOUS
 10
25.012304
 20
95.189100
 40
28.462808
 50
88.418747
 51
89.689274
  0
ARC
  8
1
 62
7
  6
CONTINUOUS
 10
24.579938
 20
82.755479
 40
40.903723
 50
87.257855
 51
88.293939
  0
ARC
  8
1
 62
7
  6
CONTINUOUS
 10
37.873462
 20
360.341945
 40
237.000873
 50
-92.741718
 51
-92.562826
  0
ARC
  8
1
 62
7
  6
CONTINUOUS
 10
28.630609
 20
153.842034
 40
30.294212
 50
-92.562826
 51
-91.166498
  0
ARC
  8
1
 62
7
  6
CONTINUOUS
 10
28.339011
 20
139.521369
 40
15.970578
 50
-91.166498
 51
-88.528797
  0
ARC
  8
1
 62
7
  6
CONTINUOUS
 10
28.472599
 20
134.319954
 40
10.767448
 50
-88.528797
 51
-84.631052
  0
ARC
  8
1
 62
7
  6
CONTINUOUS
 10
28.597000
 20
132.996267
 40
9.437929
 50
-84.631052
 51
-81.787729
  0
ARC
  8
1
 62
7
  6
CONTINUOUS
 10
27.168086
 20
142.897227
 40
19.441468
 50
-81.787729
 51
-80.404127
  0
ARC
  8
1
 62
7
  6
CONTINUOUS
 10
26.896004
 20
144.506573
 40
21.073652
 50
-80.404127
 51
-79.123155
  0
ARC
  8
1
 62
7
  6
CONTINUOUS
 10
1.715643
 20
278.012200
 40
156.933042
 50
-79.292679
 51
-79.120035
  0
ARC
  8
1
 62
7
  6
CONTINUOUS
 10
40.036671
 20
78.635781
 40
46.092714
 50
100.289507
 51
100.879328
  0
ARC
  8
1
 62
7
  6
CONTINUOUS
 10
45.973344
 20
44.419186
 40
80.819904
 50
99.684021
 51
100.097642
  0
ARC
  8
1
 62
7
  6
CONTINUOUS
 10
27.410070
 20
153.203972
 40
29.537357
 50
-80.316795
 51
-79.186127
  0
ARC
  8
1
 62
7
  6
CONTINUOUS
 10
30.640830
 20
136.289990
 40
12.317583
 50
-79.186127
 51
-76.489063
  0
ARC
  8
1
 62
7
  6
CONTINUOUS
 10
31.737705
 20
131.725013
 40
7.622676
 50
-76.489063
 51
-72.160704
  0
ARC
  8
1
 62
7
  6
CONTINUOUS
 10
32.376827
 20
129.739062
 40
5.536417
 50
-72.160704
 51
-59.683609
  0
ARC
  8
1
 62
7
  6
CONTINUOUS
 10
21.593196
 20
148.180921
 40
26.899676
 50
-59.683609
 51
-58.325727
  0
ARC
  8
1
 62
7
  6
CONTINUOUS
 10
-1376.700744
 20
2414.487275
 40
2689.862394
 50
-58.325727
 51
-58.312134
  0
ARC
  8
1
 62
7
  6
CONTINUOUS
 10
40.709583
 20
118.287059
 40
8.579550
 50
117.010934
 51
121.232482
  0
ARC
  8
1
 62
7
  6
CONTINUOUS
 10
38.927341
 20
121.784717
 40
4.653994
 50
109.331365
 51
117.019098
  0
ARC
  8
1
 62
7
  6
CONTINUOUS
 10
38.758448
 20
122.174752
 40
4.230149
 50
102.960588
 51
108.921537
  0
ARC
  8
1
 62
7
  6
CONTINUOUS
 10
39.054442
 20
120.888398
 40
5.550117
 50
98.378579
 51
102.960056
  0
ARC
  8
1
 62
7
  6
CONTINUOUS
 10
39.400259
 20
118.545531
 40
7.918369
 50
95.139967
 51
98.383935
  0
ARC
  8
1
 62
7
  6
CONTINUOUS
 10
39.863815
 20
113.406448
 40
13.078317
 50
93.167173
 51
95.145602
  0
ARC
  8
1
 62
7
  6
CONTINUOUS
 10
41.011883
 20
92.688706
 40
33.827844
 50
92.403966
 51
93.170002
  0
ARC
  8
1
 62
7
  6
CONTINUOUS
 10
47.027495
 20
-43.774623
 40
170.423639
 50
92.292652
 51
92.500249
  0
ARC
  8
1
 62
7
  6
CONTINUOUS
 10
48.809115
 20
-88.288902
 40
214.973558
 50
92.128976
 51
92.292508
  0
ARC
  8
1
 62
7
  6
CONTINUOUS
 10
51.843410
 20
-169.926812
 40
296.667837
 50
92.010932
 51
92.128865
  0
ARC
  8
1
 62
7
  6
CONTINUOUS
 10
58.616897
 20
-362.857148
 40
489.717040
 50
91.939642
 51
92.010857
  0
ARC
  8
1
 62
7
  6
CONTINUOUS
 10
91.527704
 20
-1334.678660
 40
1462.095656
 50
91.915789
 51
91.939604
  0
ARC
  8
1
 62
7
  6
CONTINUOUS
 10
31.628238
 20
-152.020857
 40
276.766300
 50
91.728882
 51
91.859202
  0
ARC
  8
1
 62
7
  6
CONTINUOUS
 10
26.062241
 20
32.381660
 40
92.279799
 50
91.337979
 51
91.728869
  0
ARC
  8
1
 62
7
  6
CONTINUOUS
 10
25.201233
 20
69.243968
 40
55.407437
 50
90.686765
 51
91.337940
  0
ARC
  8
1
 62
7
  6
CONTINUOUS
 10
25.012150
 20
85.012708
 40
39.637564
 50
89.775956
 51
90.686671
  0
ARC
  8
1
 62
7
  6
CONTINUOUS
 10
25.046139
 20
93.731099
 40
30.919107
 50
88.607113
 51
89.775766
  0
ARC
  8
1
 62
7
  6
CONTINUOUS
 10
24.648741
 20
80.926671
 40
43.729496
 50
87.526683
 51
88.494394
  0
ARC
  8
1
 62
7
  6
CONTINUOUS
 10
41.187060
 20
463.848683
 40
339.549493
 50
-92.473022
 51
-92.348349
  0
ARC
  8
1
 62
7
  6
CONTINUOUS
 10
28.695677
 20
159.250608
 40
34.695394
 50
-92.348349
 51
-91.130094
  0
ARC
  8
1
 62
7
  6
CONTINUOUS
 10
28.368812
 20
142.680683
 40
18.122245
 50
-91.130094
 51
-88.804088
  0
ARC
  8
1
 62
7
  6
CONTINUOUS
 10
28.492080
 20
136.775786
 40
12.216062
 50
-88.804088
 51
-85.360943
  0
ARC
  8
1
 62
7
  6
CONTINUOUS
 10
28.645128
 20
134.889657
 40
10.323733
 50
-85.360943
 51
-82.753991
  0
ARC
  8
1
 62
7
  6
CONTINUOUS
 10
27.954014
 20
140.325289
 40
15.803125
 50
-82.753991
 51
-81.047996
  0
ARC
  8
1
 62
7
  6
CONTINUOUS
 10
28.089877
 20
139.462806
 40
14.930007
 50
-81.047996
 51
-79.238288
  0
ARC
  8
1
 62
7
  6
CONTINUOUS
 10
25.359860
 20
153.826196
 40
29.550539
 50
-79.238288
 51
-78.322206
  0
ARC
  8
1
 62
7
  6
CONTINUOUS
 10
26.012722
 20
150.667482
 40
26.325061
 50
-78.322206
 51
-77.292614
  0
ARC
  8
1
 62
7
  6
CONTINUOUS
 10
20.074318
 20
177.002427
 40
53.321246
 50
-77.292614
 51
-76.659059
  0
ARC
  8
1
 62
7
  6
CONTINUOUS
 10
28.729441
 20
140.505189
 40
15.811786
 50
-76.659059
 51
-74.525078
  0
ARC
  8
1
 62
7
  6
CONTINUOUS
 10
28.346640
 20
141.887873
 40
17.246482
 50
-74.525078
 51
-72.572339
  0
ARC
  8
1
 62
7
  6
CONTINUOUS
 10
30.605057
 20
134.693431
 40
9.705896
 50
-72.572339
 51
-69.106729
  0
ARC
  8
1
 62
7
  6
CONTINUOUS
 10
30.403741
 20
135.220811
 40
10.270394
 50
-69.106729
 51
-65.828731
  0
ARC
  8
1
 62
7
  6
CONTINUOUS
 10
30.950701
 20
134.002136
 40
8.934604
 50
-65.828731
 51
-61.860926
  0
ARC
  8
1
 62
7
  6
CONTINUOUS
 10
14.601832
 20
165.320927
 40
44.263444
 50
-62.318949
 51
-61.515784
  0
ARC
  8
1
 62
7
  6
CONTINUOUS
 10
47.465326
 20
104.755907
 40
24.643239
 50
117.047426
 51
118.486201
  0
ARC
  8
1
 62
7
  6
CONTINUOUS
 10
40.540493
 20
118.321342
 40
9.412535
 50
113.315898
 51
117.054214
  0
ARC
  8
1
 62
7
  6
CONTINUOUS
 10
39.081491
 20
121.706710
 40
5.726154
 50
107.215670
 51
113.316643
  0
ARC
  8
1
 62
7
  6
CONTINUOUS
 10
38.937498
 20
122.082730
 40
5.324428
 50
102.179599
 51
106.933175
  0
ARC
  8
1
 62
7
  6
CONTINUOUS
 10
39.251520
 20
120.627945
 40
6.812719
 50
98.441987
 51
102.179838
  0
ARC
  8
1
 62
7
  6
CONTINUOUS
 10
39.621782
 20
118.136488
 40
9.331539
 50
95.697043
 51
98.444963
  0
ARC
  8
1
 62
7
  6
CONTINUOUS
 10
40.118880
 20
113.161603
 40
14.331197
 50
93.902117
 51
95.700215
  0
ARC
  8
1
 62
7
  6
CONTINUOUS
 10
41.140039
 20
98.204583
 40
29.323035
 50
93.024281
 51
93.903942
  0
ARC
  8
1
 62
7
  6
CONTINUOUS
 10
43.190856
 20
60.855066
 40
66.728779
 50
92.562157
 51
93.090767
  0
ARC
  8
1
 62
7
  6
CONTINUOUS
 10
43.992675
 20
42.927897
 40
84.673870
 50
92.147138
 51
92.561897
  0
ARC
  8
1
 62
7
  6
CONTINUOUS
 10
45.218090
 20
10.232745
 40
117.391978
 50
91.848754
 51
92.146944
  0
ARC
  8
1
 62
7
  6
CONTINUOUS
 10
47.701818
 20
-66.728702
 40
194.393492
 50
91.668939
 51
91.848625
  0
ARC
  8
1
 62
7
  6
CONTINUOUS
 10
58.969811
 20
-453.479397
 40
581.308299
 50
91.608850
 51
91.668874
  0
ARC
  8
1
 62
7
  6
CONTINUOUS
 10
30.497488
 20
-535.649395
 40
661.795681
 50
90.625006
 51
90.679511
  0
ARC
  8
1
 62
7
  6
CONTINUOUS
 10
25.685338
 20
-94.527466
 40
220.647505
 50
90.461513
 51
90.625002
  0
ARC
  8
1
 62
7
  6
CONTINUOUS
 10
24.974913
 20
-6.334385
 40
132.451563
 50
90.189108
 51
90.461504
  0
ARC
  8
1
 62
7
  6
CONTINUOUS
 10
24.850231
 20
31.433421
 40
94.683551
 50
89.807939
 51
90.189091
  0
ARC
  8
1
 62
7
  6
CONTINUOUS
 10
24.920428
 20
52.384783
 40
73.732071
 50
89.318255
 51
89.807912
  0
ARC
  8
1
 62
7
  6
CONTINUOUS
 10
24.398820
 20
17.257238
 40
108.863385
 50
88.836153
 51
89.263724
  0
ARC
  8
1
 62
7
  6
CONTINUOUS
 10
34.633358
 20
521.044946
 40
395.028270
 50
-91.163805
 51
-91.045962
  0
ARC
  8
1
 62
7
  6
CONTINUOUS
 10
28.702081
 20
196.176983
 40
70.106167
 50
-91.045962
 51
-90.382343
  0
ARC
  8
1
 62
7
  6
CONTINUOUS
 10
28.490069
 20
164.406512
 40
38.334989
 50
-90.382343
 51
-89.170065
  0
ARC
  8
1
 62
7
  6
CONTINUOUS
 10
28.664064
 20
152.395292
 40
26.322508
 50
-89.170065
 51
-87.406555
  0
ARC
  8
1
 62
7
  6
CONTINUOUS
 10
28.728323
 20
150.976616
 40
24.902377
 50
-87.406555
 51
-86.411104
  0
ARC
  8
1
 62
7
  6
CONTINUOUS
 10
6.602049
 20
503.754665
 40
378.373626
 50
-86.411104
 51
-86.345558
  0
ARC
  8
1
 62
7
  6
CONTINUOUS
 10
35.994778
 20
45.594111
 40
80.728874
 50
93.439442
 51
93.746960
  0
ARC
  8
1
 62
7
  6
CONTINUOUS
 10
32.879265
 20
97.428862
 40
28.800578
 50
92.575834
 51
93.439141
  0
ARC
  8
1
 62
7
  6
CONTINUOUS
 10
32.376906
 20
108.591492
 40
17.626650
 50
91.161322
 51
92.575234
  0
ARC
  8
1
 62
7
  6
CONTINUOUS
 10
32.440265
 20
102.106460
 40
24.111730
 50
89.881892
 51
90.999522
  0
ARC
  8
1
 62
7
  6
CONTINUOUS
 10
32.694462
 20
225.905266
 40
99.687337
 50
-90.117534
 51
-89.847089
  0
ARC
  8
1
 62
7
  6
CONTINUOUS
 10
32.917410
 20
142.366855
 40
16.148628
 50
-89.847089
 51
-88.183324
  0
ARC
  8
1
 62
7
  6
CONTINUOUS
 10
33.156089
 20
134.841719
 40
8.619708
 50
-88.183324
 51
-85.085289
  0
ARC
  8
1
 62
7
  6
CONTINUOUS
 10
33.396231
 20
132.049006
 40
5.816689
 50
-85.085289
 51
-80.520351
  0
ARC
  8
1
 62
7
  6
CONTINUOUS
 10
33.452990
 20
131.709090
 40
5.472067
 50
-80.520351
 51
-73.328076
  0
ARC
  8
1
 62
7
  6
CONTINUOUS
 10
31.306319
 20
138.877076
 40
12.954595
 50
-73.328076
 51
-70.264968
  0
ARC
  8
1
 62
7
  6
CONTINUOUS
 10
28.358714
 20
147.093583
 40
21.683820
 50
-70.264968
 51
-68.422014
  0
ARC
  8
1
 62
7
  6
CONTINUOUS
 10
46.515444
 20
100.721684
 40
28.116202
 50
109.811104
 51
111.231961
  0
ARC
  8
1
 62
7
  6
CONTINUOUS
 10
40.304802
 20
117.966233
 40
9.787358
 50
105.767465
 51
109.819658
  0
ARC
  8
1
 62
7
  6
CONTINUOUS
 10
39.779359
 20
119.647228
 40
8.026982
 50
98.326593
 51
105.418499
  0
ARC
  8
1
 62
7
  6
CONTINUOUS
 10
40.121589
 20
117.293795
 40
10.405167
 50
92.829298
 51
98.314530
  0
ARC
  8
1
 62
7
  6
CONTINUOUS
 10
40.349149
 20
112.700562
 40
15.004034
 50
88.990190
 51
92.831428
  0
ARC
  8
1
 62
7
  6
CONTINUOUS
 10
40.162127
 20
101.930644
 40
25.775576
 50
86.737902
 51
88.996442
  0
ARC
  8
1
 62
7
  6
CONTINUOUS
 10
37.154126
 20
49.049382
 40
78.742319
 50
85.998498
 51
86.742272
  0
ARC
  8
1
 62
7
  6
CONTINUOUS
 10
30.543697
 20
-546.773901
 40
673.919889
 50
90.617688
 51
90.671214
  0
ARC
  8
1
 62
7
  6
CONTINUOUS
 10
25.700691
 20
-97.563153
 40
224.683036
 50
90.457127
 51
90.617685
  0
ARC
  8
1
 62
7
  6
CONTINUOUS
 10
24.984085
 20
-7.748730
 40
134.865754
 50
90.189596
 51
90.457119
  0
ARC
  8
1
 62
7
  6
CONTINUOUS
 10
24.856775
 20
30.716620
 40
96.400193
 50
89.815225
 51
90.189582
  0
ARC
  8
1
 62
7
  6
CONTINUOUS
 10
24.925568
 20
52.057744
 40
75.058958
 50
89.334231
 51
89.815201
  0
ARC
  8
1
 62
7
  6
CONTINUOUS
 10
24.409595
 20
16.530900
 40
110.589447
 50
88.859952
 51
89.280800
  0
ARC
  8
1
 62
7
  6
CONTINUOUS
 10
34.782233
 20
537.776796
 40
410.759645
 50
-91.140011
 51
-91.026694
  0
ARC
  8
1
 62
7
  6
CONTINUOUS
 10
28.708928
 20
198.885824
 40
71.814257
 50
-91.026694
 51
-90.378902
  0
ARC
  8
1
 62
7
  6
CONTINUOUS
 10
28.493423
 20
166.298649
 40
39.226369
 50
-90.378902
 51
-89.194107
  0
ARC
  8
1
 62
7
  6
CONTINUOUS
 10
28.666338
 20
154.005918
 40
26.932422
 50
-89.194107
 51
-87.470166
  0
ARC
  8
1
 62
7
  6
CONTINUOUS
 10
28.736976
 20
152.407139
 40
25.332083
 50
-87.470166
 51
-86.491289
  0
ARC
  8
1
 62
7
  6
CONTINUOUS
 10
14.073940
 20
391.548982
 40
264.923039
 50
-86.491289
 51
-86.397647
  0
ARC
  8
1
 62
7
  6
CONTINUOUS
 10
36.953365
 20
30.522009
 40
96.828265
 50
93.434899
 51
93.691320
  0
ARC
  8
1
 62
7
  6
CONTINUOUS
 10
33.054834
 20
95.471402
 40
31.761974
 50
92.651988
 51
93.434676
  0
ARC
  8
1
 62
7
  6
CONTINUOUS
 10
32.468079
 20
108.135885
 40
19.083905
 50
91.346423
 51
92.651542
  0
ARC
  8
1
 62
7
  6
CONTINUOUS
 10
32.555992
 20
101.550196
 40
25.669929
 50
90.148692
 51
91.197194
  0
ARC
  8
1
 62
7
  6
CONTINUOUS
 10
32.167112
 20
251.022229
 40
123.802610
 50
-89.850857
 51
-89.633374
  0
ARC
  8
1
 62
7
  6
CONTINUOUS
 10
32.843764
 20
145.277321
 40
18.055537
 50
-89.633374
 51
-88.146289
  0
ARC
  8
1
 62
7
  6
CONTINUOUS
 10
33.117683
 20
136.813803
 40
9.587587
 50
-88.146289
 51
-85.359625
  0
ARC
  8
1
 62
7
  6
CONTINUOUS
 10
33.369890
 20
133.706550
 40
6.470116
 50
-85.359625
 51
-81.249305
  0
ARC
  8
1
 62
7
  6
CONTINUOUS
 10
33.429682
 20
133.318112
 40
6.077103
 50
-81.249305
 51
-74.819785
  0
ARC
  8
1
 62
7
  6
CONTINUOUS
 10
31.296811
 20
141.179107
 40
14.222309
 50
-74.819785
 51
-72.054288
  0
ARC
  8
1
 62
7
  6
CONTINUOUS
 10
28.396423
 20
150.134446
 40
23.635615
 50
-72.054288
 51
-70.380616
  0
ARC
  8
1
 62
7
  6
CONTINUOUS
 10
46.819948
 20
97.941153
 40
31.714071
 50
108.063241
 51
109.310396
  0
ARC
  8
1
 62
7
  6
CONTINUOUS
 10
40.382478
 20
117.683228
 40
10.948944
 50
104.477490
 51
108.069303
  0
ARC
  8
1
 62
7
  6
CONTINUOUS
 10
39.849602
 20
119.551327
 40
9.007079
 50
97.834104
 51
104.166229
  0
ARC
  8
1
 62
7
  6
CONTINUOUS
 10
40.208489
 20
116.930001
 40
11.652858
 50
92.921344
 51
97.825433
  0
ARC
  8
1
 62
7
  6
CONTINUOUS
 10
40.466151
 20
111.889048
 40
16.700391
 50
89.474352
 51
92.922768
  0
ARC
  8
1
 62
7
  6
CONTINUOUS
 10
40.359975
 20
100.074925
 40
28.514991
 50
87.442926
 51
89.478800
  0
ARC
  8
1
 62
7
  6
CONTINUOUS
 10
37.764477
 20
41.849645
 40
86.798092
 50
86.774021
 51
87.446082
  0
ARC
  8
1
 62
7
  6
CONTINUOUS
 10
29.145044
 20
22.724406
 40
108.538746
 50
93.096510
 51
93.431218
  0
ARC
  8
1
 62
7
  6
CONTINUOUS
 10
25.225693
 20
95.182066
 40
35.975162
 50
92.089196
 51
93.097128
  0
ARC
  8
1
 62
7
  6
CONTINUOUS
 10
24.693552
 20
109.779757
 40
21.367775
 50
90.398926
 51
92.090203
  0
ARC
  8
1
 62
7
  6
CONTINUOUS
 10
24.650007
 20
116.068040
 40
15.079341
 50
88.012844
 51
90.399830
  0
ARC
  8
1
 62
7
  6
CONTINUOUS
 10
24.770336
 20
119.536031
 40
11.609263
 50
84.922842
 51
88.012855
  0
ARC
  8
1
 62
7
  6
CONTINUOUS
 10
24.784019
 20
119.939948
 40
11.205742
 50
80.565377
 51
84.809763
  0
ARC
  8
1
 62
7
  6
CONTINUOUS
 10
24.436406
 20
117.850780
 40
13.323632
 50
76.982552
 51
80.563438
  0
ARC
  8
1
 62
7
  6
CONTINUOUS
 10
23.726665
 20
114.780357
 40
16.475017
 50
74.070455
 51
76.982914
  0
ARC
  8
1
 62
7
  6
CONTINUOUS
 10
22.379249
 20
110.057436
 40
21.386384
 50
71.814123
 51
74.071942
  0
ARC
  8
1
 62
7
  6
CONTINUOUS
 10
19.723891
 20
101.971529
 40
29.897130
 50
70.191973
 51
71.815844
  0
ARC
  8
1
 62
7
  6
CONTINUOUS
 10
-232.992684
 20
-597.280267
 40
773.414929
 50
70.098176
 51
70.132048
  0
ARC
  8
1
 62
7
  6
CONTINUOUS
 10
37.009064
 20
148.515087
 40
19.750663
 50
-109.903872
 51
-108.582148
  0
ARC
  8
1
 62
7
  6
CONTINUOUS
 10
33.759401
 20
138.848945
 40
9.552888
 50
-108.582148
 51
-105.871543
  0
ARC
  8
1
 62
7
  6
CONTINUOUS
 10
32.823315
 20
135.556583
 40
6.130037
 50
-105.871543
 51
-101.690264
  0
ARC
  8
1
 62
7
  6
CONTINUOUS
 10
32.489251
 20
133.942069
 40
4.481324
 50
-101.690264
 51
-96.015001
  0
ARC
  8
1
 62
7
  6
CONTINUOUS
 10
32.459082
 20
133.655757
 40
4.193427
 50
-96.015001
 51
-89.707041
  0
ARC
  8
1
 62
7
  6
CONTINUOUS
 10
32.440343
 20
137.320651
 40
7.858369
 50
-89.707041
 51
-86.312316
  0
ARC
  8
1
 62
7
  6
CONTINUOUS
 10
32.310707
 20
139.332039
 40
9.873931
 50
-86.312316
 51
-83.584180
  0
ARC
  8
1
 62
7
  6
CONTINUOUS
 10
27.622253
 20
183.340959
 40
54.131748
 50
-83.857909
 51
-83.357391
  0
ARC
  8
1
 62
7
  6
CONTINUOUS
 10
36.575244
 20
106.465042
 40
23.263747
 50
95.478446
 51
96.643106
  0
ARC
  8
1
 62
7
  6
CONTINUOUS
 10
35.733233
 20
114.733659
 40
14.952591
 50
92.754637
 51
95.291646
  0
ARC
  8
1
 62
7
  6
CONTINUOUS
 10
35.947341
 20
110.269351
 40
19.422031
 50
90.808093
 51
92.752605
  0
ARC
  8
1
 62
7
  6
CONTINUOUS
 10
36.071064
 20
101.463733
 40
28.228517
 50
89.472149
 51
90.807122
  0
ARC
  8
1
 62
7
  6
CONTINUOUS
 10
35.847607
 20
77.245388
 40
52.447894
 50
88.753851
 51
89.471785
  0
ARC
  8
1
 62
7
  6
CONTINUOUS
 10
28.678730
 20
-252.296194
 40
382.067443
 50
88.655236
 51
88.753789
  0
ARC
  8
1
 62
7
  6
CONTINUOUS
 10
42.104251
 20
328.029291
 40
198.413382
 50
-91.287734
 51
-90.999027
  0
ARC
  8
1
 62
7
  6
CONTINUOUS
 10
43.102789
 20
385.291193
 40
255.683990
 50
-90.999027
 51
-90.774831
  0
ARC
  8
1
 62
7
  6
CONTINUOUS
 10
44.492382
 20
488.039971
 40
358.442164
 50
-90.774831
 51
-90.614823
  0
ARC
  8
1
 62
7
  6
CONTINUOUS
 10
47.066052
 20
727.872838
 40
598.288840
 50
-90.614823
 51
-90.518925
  0
ARC
  8
1
 62
7
  6
CONTINUOUS
 10
57.896231
 20
1923.626179
 40
1794.091226
 50
-90.518925
 51
-90.486940
  0
ARC
  8
1
 62
7
  6
CONTINUOUS
 10
28.066454
 20
18.578701
 40
113.650237
 50
92.412751
 51
92.732212
  0
ARC
  8
1
 62
7
  6
CONTINUOUS
 10
24.868911
 20
94.474580
 40
37.687031
 50
91.451575
 51
92.413292
  0
ARC
  8
1
 62
7
  6
CONTINUOUS
 10
24.482083
 20
109.753557
 40
22.403158
 50
89.839623
 51
91.452457
  0
ARC
  8
1
 62
7
  6
CONTINUOUS
 10
24.500716
 20
116.331352
 40
15.825337
 50
87.565617
 51
89.840420
  0
ARC
  8
1
 62
7
  6
CONTINUOUS
 10
24.655017
 20
119.960658
 40
12.192752
 50
84.622340
 51
87.565647
  0
ARC
  8
1
 62
7
  6
CONTINUOUS
 10
24.677008
 20
120.424033
 40
11.729376
 50
80.460430
 51
84.517157
  0
ARC
  8
1
 62
7
  6
CONTINUOUS
 10
24.330883
 20
118.367046
 40
13.815280
 50
77.004695
 51
80.458616
  0
ARC
  8
1
 62
7
  6
CONTINUOUS
 10
23.646203
 20
115.400047
 40
16.860255
 50
74.159686
 51
77.004858
  0
ARC
  8
1
 62
7
  6
CONTINUOUS
 10
22.386105
 20
110.957241
 40
21.478303
 50
71.913881
 51
74.160883
  0
ARC
  8
1
 62
7
  6
CONTINUOUS
 10
20.013986
 20
103.691329
 40
29.121628
 50
70.249054
 51
71.915376
  0
ARC
  8
1
 62
7
  6
CONTINUOUS
 10
-105.374072
 20
-244.185772
 40
398.906197
 50
70.118383
 51
70.184040
  0
ARC
  8
1
 62
7
  6
CONTINUOUS
 10
37.119354
 20
149.840902
 40
20.094275
 50
-109.883586
 51
-108.584536
  0
ARC
  8
1
 62
7
  6
CONTINUOUS
 10
33.775812
 20
139.896891
 40
9.603202
 50
-108.584536
 51
-105.887996
  0
ARC
  8
1
 62
7
  6
CONTINUOUS
 10
32.827243
 20
136.564264
 40
6.138207
 50
-105.887996
 51
-101.711937
  0
ARC
  8
1
 62
7
  6
CONTINUOUS
 10
32.490184
 20
134.938374
 40
4.477747
 50
-101.711937
 51
-96.031828
  0
ARC
  8
1
 62
7
  6
CONTINUOUS
 10
32.459502
 20
134.648006
 40
4.185763
 50
-96.031828
 51
-89.712240
  0
ARC
  8
1
 62
7
  6
CONTINUOUS
 10
32.441111
 20
138.309738
 40
7.847540
 50
-89.712240
 51
-86.312834
  0
ARC
  8
1
 62
7
  6
CONTINUOUS
 10
32.312229
 20
140.309700
 40
9.851651
 50
-86.312834
 51
-83.578516
  0
ARC
  8
1
 62
7
  6
CONTINUOUS
 10
27.635210
 20
184.179965
 40
53.970382
 50
-83.853309
 51
-83.351289
  0
ARC
  8
1
 62
7
  6
CONTINUOUS
 10
36.575417
 20
107.484906
 40
23.243991
 50
95.483546
 51
96.649208
  0
ARC
  8
1
 62
7
  6
CONTINUOUS
 10
35.732945
 20
115.750424
 40
14.935872
 50
92.756620
 51
95.296479
  0
ARC
  8
1
 62
7
  6
CONTINUOUS
 10
35.947002
 20
111.290395
 40
19.401034
 50
90.807966
 51
92.754583
  0
ARC
  8
1
 62
7
  6
CONTINUOUS
 10
36.070606
 20
102.491752
 40
28.200545
 50
89.470695
 51
90.806993
  0
ARC
  8
1
 62
7
  6
CONTINUOUS
 10
35.846635
 20
78.284272
 40
52.409061
 50
88.751865
 51
89.470331
  0
ARC
  8
1
 62
7
  6
CONTINUOUS
 10
28.643464
 20
-252.306777
 40
383.078575
 50
88.653510
 51
88.751803
  0
ARC
  8
1
 62
7
  6
CONTINUOUS
 10
42.096116
 20
328.414940
 40
197.799004
 50
-91.289378
 51
-90.999773
  0
ARC
  8
1
 62
7
  6
CONTINUOUS
 10
43.092299
 20
385.499188
 40
254.891944
 50
-90.999773
 51
-90.774881
  0
ARC
  8
1
 62
7
  6
CONTINUOUS
 10
44.477675
 20
487.929556
 40
357.331680
 50
-90.774881
 51
-90.614375
  0
ARC
  8
1
 62
7
  6
CONTINUOUS
 10
47.041500
 20
727.019017
 40
596.434887
 50
-90.614375
 51
-90.518180
  0
ARC
  8
1
 62
7
  6
CONTINUOUS
 10
57.822620
 20
1919.068756
 40
1788.533378
 50
-90.518180
 51
-90.486095
  0
ARC
  8
1
 62
7
  6
CONTINUOUS
 10
28.254176
 20
27.400444
 40
106.341169
 50
92.680451
 51
93.021440
  0
ARC
  8
1
 62
7
  6
CONTINUOUS
 10
24.931897
 20
98.370028
 40
35.293864
 50
91.654994
 51
92.680927
  0
ARC
  8
1
 62
7
  6
CONTINUOUS
 10
24.519921
 20
112.637601
 40
21.020345
 50
89.937341
 51
91.655698
  0
ARC
  8
1
 62
7
  6
CONTINUOUS
 10
24.526723
 20
118.761128
 40
14.896814
 50
87.519350
 51
89.937750
  0
ARC
  8
1
 62
7
  6
CONTINUOUS
 10
24.672066
 20
122.119275
 40
11.535523
 50
84.400064
 51
87.518650
  0
ARC
  8
1
 62
7
  6
CONTINUOUS
 10
24.737788
 20
122.940856
 40
10.711460
 50
80.246555
 51
84.321098
  0
ARC
  8
1
 62
7
  6
CONTINUOUS
 10
24.618307
 20
122.245245
 40
11.417258
 50
76.413441
 51
80.247000
  0
ARC
  8
1
 62
7
  6
CONTINUOUS
 10
24.439664
 20
121.505115
 40
12.178642
 50
72.808515
 51
76.414490
  0
ARC
  8
1
 62
7
  6
CONTINUOUS
 10
24.206704
 20
120.751028
 40
12.967893
 50
69.412838
 51
72.809976
  0
ARC
  8
1
 62
7
  6
CONTINUOUS
 10
23.930991
 20
120.015827
 40
13.753093
 50
66.204059
 51
69.414565
  0
ARC
  8
1
 62
7
  6
CONTINUOUS
 10
20.520557
 20
112.386312
 40
22.110093
 50
64.775681
 51
66.094841
  0
ARC
  8
1
 62
7
  6
CONTINUOUS
 10
104.447337
 20
290.541251
 40
174.823619
 50
-115.224630
 51
-115.058151
  0
ARC
  8
1
 62
7
  6
CONTINUOUS
 10
37.764972
 20
147.918553
 40
17.382291
 50
-115.058151
 51
-113.392881
  0
ARC
  8
1
 62
7
  6
CONTINUOUS
 10
34.411379
 20
140.166214
 40
8.935674
 50
-113.392881
 51
-110.177856
  0
ARC
  8
1
 62
7
  6
CONTINUOUS
 10
33.383172
 20
137.368293
 40
5.954806
 50
-110.177856
 51
-105.383437
  0
ARC
  8
1
 62
7
  6
CONTINUOUS
 10
33.238893
 20
136.843899
 40
5.410926
 50
-105.383437
 51
-99.459902
  0
ARC
  8
1
 62
7
  6
CONTINUOUS
 10
34.119648
 20
142.129802
 40
10.769704
 50
-99.459902
 51
-96.462654
  0
ARC
  8
1
 62
7
  6
CONTINUOUS
 10
34.456553
 20
145.104015
 40
13.762938
 50
-96.462654
 51
-94.098601
  0
ARC
  8
1
 62
7
  6
CONTINUOUS
 10
56.019991
 20
425.833729
 40
295.319427
 50
-94.378693
 51
-94.268053
  0
ARC
  8
1
 62
7
  6
CONTINUOUS
 10
32.502200
 20
110.701053
 40
20.689576
 50
84.155176
 51
85.733200
  0
ARC
  8
1
 62
7
  6
CONTINUOUS
 10
32.889138
 20
115.079913
 40
16.294190
 50
81.958468
 51
83.940705
  0
ARC
  8
1
 62
7
  6
CONTINUOUS
 10
31.077108
 20
102.258332
 40
29.243182
 50
80.855930
 51
81.957314
  0
ARC
  8
1
 62
7
  6
CONTINUOUS
 10
11.544684
 20
-19.080700
 40
152.144266
 50
80.644112
 51
80.855438
  0
ARC
  8
1
 62
7
  6
CONTINUOUS
 10
43.922242
 20
177.433926
 40
47.019749
 50
-99.356124
 51
-98.673136
  0
ARC
  8
1
 62
7
  6
CONTINUOUS
 10
39.898522
 20
151.056084
 40
20.336779
 50
-98.673136
 51
-97.094721
  0
ARC
  8
1
 62
7
  6
CONTINUOUS
 10
39.282864
 20
146.109570
 40
15.352098
 50
-97.094721
 51
-95.445918
  0
ARC
  8
1
 62
7
  6
CONTINUOUS
 10
40.293635
 20
156.711714
 40
26.002315
 50
-95.445918
 51
-94.471400
  0
ARC
  8
1
 62
7
  6
CONTINUOUS
 10
40.088871
 20
154.093230
 40
23.375837
 50
-94.471400
 51
-93.386291
  0
ARC
  8
1
 62
7
  6
CONTINUOUS
 10
42.325508
 20
191.892887
 40
61.241609
 50
-93.386291
 51
-92.971840
  0
ARC
  8
1
 62
7
  6
CONTINUOUS
 10
41.641362
 20
178.714669
 40
48.045644
 50
-92.971840
 51
-92.443493
  0
ARC
  8
1
 62
7
  6
CONTINUOUS
 10
217.123470
 20
4290.978432
 40
4164.051866
 50
-92.443493
 51
-92.435070
  0
ARC
  8
1
 62
7
  6
CONTINUOUS
 10
43.740708
 20
213.839818
 40
83.228315
 50
-92.435070
 51
-92.013903
  0
ARC
  8
1
 62
7
  6
CONTINUOUS
 10
50.504569
 20
391.107721
 40
260.624959
 50
-92.130448
 51
-91.996009
  0
ARC
  8
1
 62
7
  6
CONTINUOUS
 10
56.540752
 20
564.307271
 40
433.929661
 50
-91.996009
 51
-91.915286
  0
ARC
  8
1
 62
7
  6
CONTINUOUS
 10
85.548740
 20
1431.758049
 40
1301.865325
 50
-91.915286
 51
-91.888383
  0
ARC
  8
1
 62
7
  6
CONTINUOUS
 10
28.254176
 20
28.400444
 40
106.341169
 50
92.680451
 51
93.021440
  0
ARC
  8
1
 62
7
  6
CONTINUOUS
 10
24.931897
 20
99.370028
 40
35.293864
 50
91.654994
 51
92.680927
  0
ARC
  8
1
 62
7
  6
CONTINUOUS
 10
24.519921
 20
113.637601
 40
21.020345
 50
89.937341
 51
91.655698
  0
ARC
  8
1
 62
7
  6
CONTINUOUS
 10
24.526723
 20
119.761128
 40
14.896814
 50
87.519350
 51
89.937750
  0
ARC
  8
1
 62
7
  6
CONTINUOUS
 10
24.672066
 20
123.119275
 40
11.535523
 50
84.400064
 51
87.518650
  0
ARC
  8
1
 62
7
  6
CONTINUOUS
 10
24.737788
 20
123.940856
 40
10.711460
 50
80.246555
 51
84.321098
  0
ARC
  8
1
 62
7
  6
CONTINUOUS
 10
24.618307
 20
123.245245
 40
11.417258
 50
76.413441
 51
80.247000
  0
ARC
  8
1
 62
7
  6
CONTINUOUS
 10
24.439664
 20
122.505115
 40
12.178642
 50
72.808515
 51
76.414490
  0
ARC
  8
1
 62
7
  6
CONTINUOUS
 10
24.206704
 20
121.751028
 40
12.967893
 50
69.412838
 51
72.809976
  0
ARC
  8
1
 62
7
  6
CONTINUOUS
 10
23.930991
 20
121.015827
 40
13.753093
 50
66.204059
 51
69.414565
  0
ARC
  8
1
 62
7
  6
CONTINUOUS
 10
20.520557
 20
113.386312
 40
22.110093
 50
64.775681
 51
66.094841
  0
ARC
  8
1
 62
7
  6
CONTINUOUS
 10
104.447337
 20
291.541251
 40
174.823619
 50
-115.224630
 51
-115.058151
  0
ARC
  8
1
 62
7
  6
CONTINUOUS
 10
37.764972
 20
148.918553
 40
17.382291
 50
-115.058151
 51
-113.392881
  0
ARC
  8
1
 62
7
  6
CONTINUOUS
 10
34.411379
 20
141.166214
 40
8.935674
 50
-113.392881
 51
-110.177856
  0
ARC
  8
1
 62
7
  6
CONTINUOUS
 10
33.383172
 20
138.368293
 40
5.954806
 50
-110.177856
 51
-105.383437
  0
ARC
  8
1
 62
7
  6
CONTINUOUS
 10
33.238893
 20
137.843899
 40
5.410926
 50
-105.383437
 51
-99.459902
  0
ARC
  8
1
 62
7
  6
CONTINUOUS
 10
34.119648
 20
143.129802
 40
10.769704
 50
-99.459902
 51
-96.462654
  0
ARC
  8
1
 62
7
  6
CONTINUOUS
 10
34.456553
 20
146.104015
 40
13.762938
 50
-96.462654
 51
-94.098601
  0
ARC
  8
1
 62
7
  6
CONTINUOUS
 10
56.019991
 20
426.833729
 40
295.319427
 50
-94.378693
 51
-94.268053
  0
ARC
  8
1
 62
7
  6
CONTINUOUS
 10
32.502200
 20
111.701053
 40
20.689576
 50
84.155176
 51
85.733200
  0
ARC
  8
1
 62
7
  6
CONTINUOUS
 10
32.889138
 20
116.079913
 40
16.294190
 50
81.958468
 51
83.940705
  0
ARC
  8
1
 62
7
  6
CONTINUOUS
 10
31.077108
 20
103.258332
 40
29.243182
 50
80.855930
 51
81.957314
  0
ARC
  8
1
 62
7
  6
CONTINUOUS
 10
11.544684
 20
-18.080700
 40
152.144266
 50
80.644112
 51
80.855438
  0
ARC
  8
1
 62
7
  6
CONTINUOUS
 10
43.922242
 20
178.433926
 40
47.019749
 50
-99.356124
 51
-98.673136
  0
ARC
  8
1
 62
7
  6
CONTINUOUS
 10
39.898522
 20
152.056084
 40
20.336779
 50
-98.673136
 51
-97.094721
  0
ARC
  8
1
 62
7
  6
CONTINUOUS
 10
39.282864
 20
147.109570
 40
15.352098
 50
-97.094721
 51
-95.445918
  0
ARC
  8
1
 62
7
  6
CONTINUOUS
 10
40.293635
 20
157.711714
 40
26.002315
 50
-95.445918
 51
-94.471400
  0
ARC
  8
1
 62
7
  6
CONTINUOUS
 10
40.088871
 20
155.093230
 40
23.375837
 50
-94.471400
 51
-93.386291
  0
ARC
  8
1
 62
7
  6
CONTINUOUS
 10
42.325508
 20
192.892887
 40
61.241609
 50
-93.386291
 51
-92.971840
  0
ARC
  8
1
 62
7
  6
CONTINUOUS
 10
41.641362
 20
179.714669
 40
48.045644
 50
-92.971840
 51
-92.443493
  0
ARC
  8
1
 62
7
  6
CONTINUOUS
 10
217.123468
 20
4291.978390
 40
4164.051824
 50
-92.443493
 51
-92.435070
  0
ARC
  8
1
 62
7
  6
CONTINUOUS
 10
43.740708
 20
214.839818
 40
83.228315
 50
-92.435070
 51
-92.013903
  0
ARC
  8
1
 62
7
  6
CONTINUOUS
 10
50.504569
 20
392.107721
 40
260.624959
 50
-92.130448
 51
-91.996009
  0
ARC
  8
1
 62
7
  6
CONTINUOUS
 10
56.540752
 20
565.307271
 40
433.929661
 50
-91.996009
 51
-91.915286
  0
ARC
  8
1
 62
7
  6
CONTINUOUS
 10
85.548740
 20
1432.758050
 40
1301.865326
 50
-91.915286
 51
-91.888383
  0
ARC
  8
1
 62
7
  6
CONTINUOUS
 10
29.091111
 20
58.628592
 40
77.738541
 50
94.203127
 51
94.753513
  0
ARC
  8
1
 62
7
  6
CONTINUOUS
 10
25.268227
 20
110.662294
 40
25.564595
 50
92.539413
 51
94.205559
  0
ARC
  8
1
 62
7
  6
CONTINUOUS
 10
24.800176
 20
121.238747
 40
14.977791
 50
89.721855
 51
92.543299
  0
ARC
  8
1
 62
7
  6
CONTINUOUS
 10
24.822899
 20
125.805340
 40
10.411141
 50
85.702341
 51
89.724904
  0
ARC
  8
1
 62
7
  6
CONTINUOUS
 10
25.007803
 20
128.269109
 40
7.940444
 50
80.460328
 51
85.700562
  0
ARC
  8
1
 62
7
  6
CONTINUOUS
 10
24.941939
 20
128.077259
 40
8.140623
 50
74.675046
 51
80.226954
  0
ARC
  8
1
 62
7
  6
CONTINUOUS
 10
24.065269
 20
124.877850
 40
11.457967
 50
70.700485
 51
74.675469
  0
ARC
  8
1
 62
7
  6
CONTINUOUS
 10
21.639674
 20
117.946028
 40
18.801922
 50
68.262288
 51
70.705743
  0
ARC
  8
1
 62
7
  6
CONTINUOUS
 10
11.023850
 20
91.311445
 40
47.474150
 50
67.293608
 51
68.266410
  0
ARC
  8
1
 62
7
  6
CONTINUOUS
 10
67.232026
 20
225.640365
 40
98.140470
 50
-112.706156
 51
-112.235776
  0
ARC
  8
1
 62
7
  6
CONTINUOUS
 10
43.466031
 20
167.507357
 40
35.337054
 50
-112.235776
 51
-110.847238
  0
ARC
  8
1
 62
7
  6
CONTINUOUS
 10
77.687920
 20
257.373856
 40
131.499028
 50
-110.847238
 51
-110.475783
  0
ARC
  8
1
 62
7
  6
CONTINUOUS
 10
61.638674
 20
214.392824
 40
85.619322
 50
-110.475783
 51
-109.906555
  0
ARC
  8
1
 62
7
  6
CONTINUOUS
 10
-76.400957
 20
-164.311266
 40
317.458736
 50
69.786937
 51
69.940435
  0
ARC
  8
1
 62
7
  6
CONTINUOUS
 10
3.589186
 20
52.944396
 40
85.945355
 50
69.218483
 51
69.786549
  0
ARC
  8
1
 62
7
  6
CONTINUOUS
 10
-24.932559
 20
-21.385229
 40
165.559037
 50
68.865780
 51
69.116884
  0
ARC
  8
1
 62
7
  6
CONTINUOUS
 10
61.757437
 20
202.878600
 40
74.876860
 50
-111.134125
 51
-110.578386
  0
ARC
  8
1
 62
7
  6
CONTINUOUS
 10
46.134965
 20
161.268033
 40
30.430252
 50
-110.578386
 51
-109.212862
  0
ARC
  8
1
 62
7
  6
CONTINUOUS
 10
42.343537
 20
150.388398
 40
18.908907
 50
-109.212862
 51
-107.022043
  0
ARC
  8
1
 62
7
  6
CONTINUOUS
 10
40.798170
 20
145.340677
 40
13.629926
 50
-107.022043
 51
-103.993008
  0
ARC
  8
1
 62
7
  6
CONTINUOUS
 10
40.502694
 20
144.154971
 40
12.407958
 50
-103.993008
 51
-99.243884
  0
ARC
  8
1
 62
7
  6
CONTINUOUS
 10
41.538577
 20
150.519812
 40
18.856544
 50
-99.243884
 51
-96.110323
  0
ARC
  8
1
 62
7
  6
CONTINUOUS
 10
41.848571
 20
153.415567
 40
21.768844
 50
-96.110323
 51
-93.381809
  0
ARC
  8
1
 62
7
  6
CONTINUOUS
 10
43.655171
 20
183.988057
 40
52.394665
 50
-93.381809
 51
-92.242680
  0
ARC
  8
1
 62
7
  6
CONTINUOUS
 10
44.609941
 20
208.367974
 40
76.793271
 50
-92.242680
 51
-91.463247
  0
ARC
  8
1
 62
7
  6
CONTINUOUS
 10
29.091111
 20
59.628592
 40
77.738541
 50
94.203127
 51
94.753513
  0
ARC
  8
1
 62
7
  6
CONTINUOUS
 10
25.268227
 20
111.662294
 40
25.564595
 50
92.539413
 51
94.205559
  0
ARC
  8
1
 62
7
  6
CONTINUOUS
 10
24.800176
 20
122.238747
 40
14.977791
 50
89.721855
 51
92.543299
  0
ARC
  8
1
 62
7
  6
CONTINUOUS
 10
24.822899
 20
126.805340
 40
10.411141
 50
85.702341
 51
89.724904
  0
ARC
  8
1
 62
7
  6
CONTINUOUS
 10
25.007803
 20
129.269109
 40
7.940444
 50
80.460328
 51
85.700562
  0
ARC
  8
1
 62
7
  6
CONTINUOUS
 10
24.941939
 20
129.077259
 40
8.140623
 50
74.675046
 51
80.226954
  0
ARC
  8
1
 62
7
  6
CONTINUOUS
 10
24.065269
 20
125.877850
 40
11.457967
 50
70.700485
 51
74.675469
  0
ARC
  8
1
 62
7
  6
CONTINUOUS
 10
21.639674
 20
118.946028
 40
18.801922
 50
68.262288
 51
70.705743
  0
ARC
  8
1
 62
7
  6
CONTINUOUS
 10
11.023850
 20
92.311445
 40
47.474150
 50
67.293608
 51
68.266410
  0
ARC
  8
1
 62
7
  6
CONTINUOUS
 10
67.232026
 20
226.640365
 40
98.140470
 50
-112.706156
 51
-112.235776
  0
ARC
  8
1
 62
7
  6
CONTINUOUS
 10
43.466031
 20
168.507357
 40
35.337054
 50
-112.235776
 51
-110.847238
  0
ARC
  8
1
 62
7
  6
CONTINUOUS
 10
77.687920
 20
258.373856
 40
131.499028
 50
-110.847238
 51
-110.475783
  0
ARC
  8
1
 62
7
  6
CONTINUOUS
 10
61.638674
 20
215.392824
 40
85.619322
 50
-110.475783
 51
-109.906555
  0
ARC
  8
1
 62
7
  6
CONTINUOUS
 10
-76.400957
 20
-163.311266
 40
317.458736
 50
69.786937
 51
69.940435
  0
ARC
  8
1
 62
7
  6
CONTINUOUS
 10
3.589186
 20
53.944396
 40
85.945355
 50
69.218483
 51
69.786549
  0
ARC
  8
1
 62
7
  6
CONTINUOUS
 10
-24.932559
 20
-20.385229
 40
165.559037
 50
68.865780
 51
69.116884
  0
ARC
  8
1
 62
7
  6
CONTINUOUS
 10
61.757437
 20
203.878600
 40
74.876860
 50
-111.134125
 51
-110.578386
  0
ARC
  8
1
 62
7
  6
CONTINUOUS
 10
46.134965
 20
162.268033
 40
30.430252
 50
-110.578386
 51
-109.212862
  0
ARC
  8
1
 62
7
  6
CONTINUOUS
 10
42.343537
 20
151.388398
 40
18.908907
 50
-109.212862
 51
-107.022043
  0
ARC
  8
1
 62
7
  6
CONTINUOUS
 10
40.798170
 20
146.340677
 40
13.629926
 50
-107.022043
 51
-103.993008
  0
ARC
  8
1
 62
7
  6
CONTINUOUS
 10
40.502694
 20
145.154971
 40
12.407958
 50
-103.993008
 51
-99.243884
  0
ARC
  8
1
 62
7
  6
CONTINUOUS
 10
41.538577
 20
151.519812
 40
18.856544
 50
-99.243884
 51
-96.110323
  0
ARC
  8
1
 62
7
  6
CONTINUOUS
 10
41.848571
 20
154.415567
 40
21.768844
 50
-96.110323
 51
-93.381809
  0
ARC
  8
1
 62
7
  6
CONTINUOUS
 10
43.655171
 20
184.988057
 40
52.394665
 50
-93.381809
 51
-92.242680
  0
ARC
  8
1
 62
7
  6
CONTINUOUS
 10
44.609941
 20
209.367974
 40
76.793271
 50
-92.242680
 51
-91.463247
  0
ARC
  8
1
 62
7
  6
CONTINUOUS
 10
2.889513
 20
-38.656896
 40
178.354571
 50
83.345280
 51
83.639286
  0
ARC
  8
1
 62
7
  6
CONTINUOUS
 10
16.687661
 20
79.605373
 40
59.290080
 50
82.461914
 51
83.345536
  0
ARC
  8
1
 62
7
  6
CONTINUOUS
 10
19.819984
 20
103.274479
 40
35.414610
 50
80.985130
 51
82.462264
  0
ARC
  8
1
 62
7
  6
CONTINUOUS
 10
21.422713
 20
113.376432
 40
25.186306
 50
78.911220
 51
80.985243
  0
ARC
  8
1
 62
7
  6
CONTINUOUS
 10
22.503912
 20
118.894187
 40
19.563619
 50
76.241603
 51
78.910589
  0
ARC
  8
1
 62
7
  6
CONTINUOUS
 10
22.802245
 20
120.193134
 40
18.231000
 50
74.177593
 51
76.181406
  0
ARC
  8
1
 62
7
  6
CONTINUOUS
 10
22.449785
 20
118.949051
 40
19.524048
 50
72.304805
 51
74.177892
  0
ARC
  8
1
 62
7
  6
CONTINUOUS
 10
22.016416
 20
117.590309
 40
20.950227
 50
70.558375
 51
72.305155
  0
ARC
  8
1
 62
7
  6
CONTINUOUS
 10
21.494376
 20
116.110880
 40
22.519060
 50
68.933483
 51
70.558753
  0
ARC
  8
1
 62
7
  6
CONTINUOUS
 10
20.874769
 20
114.501877
 40
24.243242
 50
67.425171
 51
68.933871
  0
ARC
  8
1
 62
7
  6
CONTINUOUS
 10
18.626650
 20
109.169699
 40
30.029906
 50
65.373201
 51
67.370037
  0
ARC
  8
1
 62
7
  6
CONTINUOUS
 10
10.560870
 20
91.575568
 40
49.384758
 50
64.158952
 51
65.372567
  0
ARC
  8
1
 62
7
  6
CONTINUOUS
 10
-29.107000
 20
9.668528
 40
140.391917
 50
63.731796
 51
64.158937
  0
ARC
  8
1
 62
7
  6
CONTINUOUS
 10
107.225368
 20
285.903249
 40
167.653754
 50
-116.268006
 51
-115.909955
  0
ARC
  8
1
 62
7
  6
CONTINUOUS
 10
56.997523
 20
182.508809
 40
52.704867
 50
-115.909955
 51
-114.769321
  0
ARC
  8
1
 62
7
  6
CONTINUOUS
 10
48.676158
 20
164.474371
 40
32.843194
 50
-114.769321
 51
-113.234712
  0
ARC
  8
1
 62
7
  6
CONTINUOUS
 10
46.837360
 20
160.191302
 40
28.182094
 50
-113.234712
 51
-111.446280
  0
ARC
  8
1
 62
7
  6
CONTINUOUS
 10
44.473424
 20
154.173559
 40
21.716692
 50
-111.446280
 51
-109.128638
  0
ARC
  8
1
 62
7
  6
CONTINUOUS
 10
43.705005
 20
151.958081
 40
19.371737
 50
-109.128638
 51
-106.535859
  0
ARC
  8
1
 62
7
  6
CONTINUOUS
 10
42.758776
 20
148.770990
 40
16.047147
 50
-106.535859
 51
-100.806826
  0
ARC
  8
1
 62
7
  6
CONTINUOUS
 10
44.231674
 20
156.487199
 40
23.902675
 50
-100.806826
 51
-99.056145
  0
ARC
  8
1
 62
7
  6
CONTINUOUS
 10
44.812055
 20
160.128482
 40
27.589920
 50
-99.056145
 51
-97.536707
  0
ARC
  8
1
 62
7
  6
CONTINUOUS
 10
49.627952
 20
196.528634
 40
64.307273
 50
-97.536707
 51
-96.883756
  0
ARC
  8
1
 62
7
  6
CONTINUOUS
 10
53.625605
 20
229.642179
 40
97.661254
 50
-96.883756
 51
-96.453394
  0
ARC
  8
1
 62
7
  6
CONTINUOUS
 10
2.889513
 20
-37.656896
 40
178.354571
 50
83.345280
 51
83.639286
  0
ARC
  8
1
 62
7
  6
CONTINUOUS
 10
16.687661
 20
80.605373
 40
59.290080
 50
82.461914
 51
83.345536
  0
ARC
  8
1
 62
7
  6
CONTINUOUS
 10
19.819984
 20
104.274479
 40
35.414610
 50
80.985130
 51
82.462264
  0
ARC
  8
1
 62
7
  6
CONTINUOUS
 10
21.422713
 20
114.376432
 40
25.186306
 50
78.911220
 51
80.985243
  0
ARC
  8
1
 62
7
  6
CONTINUOUS
 10
22.503912
 20
119.894187
 40
19.563619
 50
76.241603
 51
78.910589
  0
ARC
  8
1
 62
7
  6
CONTINUOUS
 10
22.802245
 20
121.193134
 40
18.231000
 50
74.177593
 51
76.181406
  0
ARC
  8
1
 62
7
  6
CONTINUOUS
 10
22.449785
 20
119.949051
 40
19.524048
 50
72.304805
 51
74.177892
  0
ARC
  8
1
 62
7
  6
CONTINUOUS
 10
22.016416
 20
118.590309
 40
20.950227
 50
70.558375
 51
72.305155
  0
ARC
  8
1
 62
7
  6
CONTINUOUS
 10
21.494376
 20
117.110880
 40
22.519060
 50
68.933483
 51
70.558753
  0
ARC
  8
1
 62
7
  6
CONTINUOUS
 10
20.874769
 20
115.501877
 40
24.243242
 50
67.425171
 51
68.933871
  0
ARC
  8
1
 62
7
  6
CONTINUOUS
 10
18.626650
 20
110.169699
 40
30.029906
 50
65.373201
 51
67.370037
  0
ARC
  8
1
 62
7
  6
CONTINUOUS
 10
10.560870
 20
92.575568
 40
49.384758
 50
64.158952
 51
65.372567
  0
ARC
  8
1
 62
7
  6
CONTINUOUS
 10
-29.107000
 20
10.668528
 40
140.391917
 50
63.731796
 51
64.158937
  0
ARC
  8
1
 62
7
  6
CONTINUOUS
 10
107.225368
 20
286.903249
 40
167.653754
 50
-116.268006
 51
-115.909955
  0
ARC
  8
1
 62
7
  6
CONTINUOUS
 10
56.997523
 20
183.508809
 40
52.704867
 50
-115.909955
 51
-114.769321
  0
ARC
  8
1
 62
7
  6
CONTINUOUS
 10
48.676158
 20
165.474371
 40
32.843194
 50
-114.769321
 51
-113.234712
  0
ARC
  8
1
 62
7
  6
CONTINUOUS
 10
46.837360
 20
161.191302
 40
28.182094
 50
-113.234712
 51
-111.446280
  0
ARC
  8
1
 62
7
  6
CONTINUOUS
 10
44.473424
 20
155.173559
 40
21.716692
 50
-111.446280
 51
-109.128638
  0
ARC
  8
1
 62
7
  6
CONTINUOUS
 10
43.705005
 20
152.958081
 40
19.371737
 50
-109.128638
 51
-106.535859
  0
ARC
  8
1
 62
7
  6
CONTINUOUS
 10
42.758776
 20
149.770990
 40
16.047147
 50
-106.535859
 51
-100.806826
  0
ARC
  8
1
 62
7
  6
CONTINUOUS
 10
44.231674
 20
157.487199
 40
23.902675
 50
-100.806826
 51
-99.056145
  0
ARC
  8
1
 62
7
  6
CONTINUOUS
 10
44.812055
 20
161.128482
 40
27.589920
 50
-99.056145
 51
-97.536707
  0
ARC
  8
1
 62
7
  6
CONTINUOUS
 10
49.627952
 20
197.528634
 40
64.307273
 50
-97.536707
 51
-96.883756
  0
ARC
  8
1
 62
7
  6
CONTINUOUS
 10
53.625605
 20
230.642179
 40
97.661254
 50
-96.883756
 51
-96.453394
  0
ARC
  8
1
 62
7
  6
CONTINUOUS
 10
88.893447
 20
113.834914
 40
37.556537
 50
148.246308
 51
149.713446
  0
ARC
  8
1
 62
7
  6
CONTINUOUS
 10
66.368022
 20
126.990619
 40
11.470769
 50
149.713446
 51
154.341597
  0
ARC
  8
1
 62
7
  6
CONTINUOUS
 10
61.016420
 20
129.561388
 40
5.533724
 50
154.341597
 51
163.300836
  0
ARC
  8
1
 62
7
  6
CONTINUOUS
 10
58.684751
 20
130.260885
 40
3.099391
 50
163.300836
 51
178.101784
  0
ARC
  8
1
 62
7
  6
CONTINUOUS
 10
57.707801
 20
130.293263
 40
2.121905
 50
178.101784
 51
-160.923053
  0
ARC
  8
1
 62
7
  6
CONTINUOUS
 10
58.270845
 20
130.487981
 40
2.717668
 50
-160.923053
 51
-146.701079
  0
ARC
  8
1
 62
7
  6
CONTINUOUS
 10
70.558987
 20
138.559450
 40
17.419608
 50
-146.701079
 51
-144.335610
  0
ARC
  8
1
 62
7
  6
CONTINUOUS
 10
40.148298
 20
116.296898
 40
20.270450
 50
34.617007
 51
36.672351
  0
ARC
  8
1
 62
7
  6
CONTINUOUS
 10
53.351029
 20
125.395657
 40
4.236150
 50
25.422459
 51
34.783758
  0
ARC
  8
1
 62
7
  6
CONTINUOUS
 10
55.448945
 20
126.386170
 40
1.916174
 50
6.399433
 51
25.602296
  0
ARC
  8
1
 62
7
  6
CONTINUOUS
 10
55.663556
 20
126.447897
 40
1.696433
 50
-8.018716
 51
5.135406
  0
ARC
  8
1
 62
7
  6
CONTINUOUS
 10
54.882744
 20
126.558274
 40
2.485008
 50
-17.401663
 51
-8.027397
  0
ARC
  8
1
 62
7
  6
CONTINUOUS
 10
53.352396
 20
127.033778
 40
4.087525
 50
-23.358124
 51
-17.346470
  0
ARC
  8
1
 62
7
  6
CONTINUOUS
 10
49.987193
 20
128.479925
 40
7.750298
 50
-26.618547
 51
-23.309345
  0
ARC
  8
1
 62
7
  6
CONTINUOUS
 10
34.635340
 20
136.161625
 40
24.916773
 50
-27.646816
 51
-26.593567
  0
ARC
  8
1
 62
7
  6
CONTINUOUS
 10
84.385147
 20
111.946684
 40
34.272121
 50
140.817092
 51
142.102806
  0
ARC
  8
1
 62
7
  6
CONTINUOUS
 10
65.629521
 20
126.546065
 40
10.504171
 50
142.102806
 51
146.150230
  0
ARC
  8
1
 62
7
  6
CONTINUOUS
 10
61.131573
 20
129.562840
 40
5.088225
 50
146.150230
 51
153.958451
  0
ARC
  8
1
 62
7
  6
CONTINUOUS
 10
59.079538
 20
130.565527
 40
2.804319
 50
153.958451
 51
166.977148
  0
ARC
  8
1
 62
7
  6
CONTINUOUS
 10
58.080981
 20
130.796482
 40
1.779401
 50
166.977148
 51
-173.652184
  0
ARC
  8
1
 62
7
  6
CONTINUOUS
 10
58.328606
 20
130.824029
 40
2.028554
 50
-173.652184
 51
-149.939570
  0
ARC
  8
1
 62
7
  6
CONTINUOUS
 10
70.318359
 20
137.763188
 40
15.881571
 50
-149.939570
 51
-146.578454
  0
ARC
  8
1
 62
7
  6
CONTINUOUS
 10
71.939661
 20
138.833114
 40
17.824086
 50
-146.578454
 51
-143.453946
  0
ARC
  8
1
 62
7
  6
CONTINUOUS
 10
53.139734
 20
125.110870
 40
5.453208
 50
24.998328
 51
34.753170
  0
ARC
  8
1
 62
7
  6
CONTINUOUS
 10
56.140541
 20
126.496085
 40
2.148173
 50
2.765860
 51
25.336195
  0
ARC
  8
1
 62
7
  6
CONTINUOUS
 10
56.450379
 20
126.562330
 40
1.836214
 50
-11.254928
 51
1.167548
  0
ARC
  8
1
 62
7
  6
CONTINUOUS
 10
55.634889
 20
126.724858
 40
2.667742
 50
-20.162093
 51
-11.260075
  0
ARC
  8
1
 62
7
  6
CONTINUOUS
 10
54.068621
 20
127.296071
 40
4.334916
 50
-25.869502
 51
-20.113890
  0
ARC
  8
1
 62
7
  6
CONTINUOUS
 10
50.641653
 20
128.951067
 40
8.140584
 50
-29.015186
 51
-25.826455
  0
ARC
  8
1
 62
7
  6
CONTINUOUS
 10
34.983342
 20
137.624437
 40
26.040584
 50
-30.011180
 51
-28.992868
  0
ARC
  8
1
 62
7
  6
CONTINUOUS
 10
123.002657
 20
115.751516
 40
4.000000
 50
90.000000
 51
180.000000
  0
ARC
  8
1
 62
7
  6
CONTINUOUS
 10
176.002657
 20
115.751516
 40
4.000000
 50
0.000000
 51
90.000000
  0
ARC
  8
1
 62
7
  6
CONTINUOUS
 10
275.481269
 20
86.251516
 40
0.500000
 50
0.000000
 51
90.000000
  0
ARC
  8
1
 62
7
  6
CONTINUOUS
 10
275.481269
 20
69.754042
 40
0.500000
 50
90.000000
 51
180.000000
  0
ARC
  8
1
 62
7
  6
CONTINUOUS
 10
275.481269
 20
59.251516
 40
0.500000
 50
180.000000
 51
-90.000000
  0
ARC
  8
1
 62
7
  6
CONTINUOUS
 10
272.481269
 20
87.251516
 40
0.500000
 50
180.000000
 51
-90.000000
  0
ARC
  8
1
 62
7
  6
CONTINUOUS
 10
272.481269
 20
111.251306
 40
0.500000
 50
89.975885
 51
180.000000
  0
ARC
  8
1
 62
7
  6
CONTINUOUS
 10
275.481269
 20
108.748991
 40
0.500000
 50
180.000000
 51
-90.000000
  0
ARC
  8
1
 62
7
  6
CONTINUOUS
 10
332.481269
 20
59.401516
 40
0.500000
 50
-85.437026
 51
0.000000
  0
ARC
  8
1
 62
7
  6
CONTINUOUS
 10
332.481269
 20
119.101516
 40
0.500000
 50
0.000000
 51
90.000000
  0
ARC
  8
1
 62
7
  6
CONTINUOUS
 10
332.481269
 20
59.401516
 40
0.500000
 50
-90.000000
 51
-85.437026
  0
ARC
  8
1
 62
7
  6
CONTINUOUS
 10
275.481269
 20
119.251516
 40
0.500000
 50
90.000000
 51
180.000000
  0
ARC
  8
1
 62
7
  6
CONTINUOUS
 10
334.581269
 20
115.500254
 40
2.000000
 50
0.000000
 51
90.000000
  0
ARC
  8
1
 62
7
  6
CONTINUOUS
 10
334.581269
 20
112.500254
 40
2.000000
 50
-90.000000
 51
-0.000000
  0
ARC
  8
1
 62
7
  6
CONTINUOUS
 10
97.478024
 20
81.823489
 40
2.000000
 50
-90.000000
 51
-0.000000
  0
ARC
  8
1
 62
7
  6
CONTINUOUS
 10
97.478024
 20
84.823489
 40
2.000000
 50
0.000000
 51
90.000000
  0
LINE
  8
1
 62
7
  6
CONTINUOUS
 10
349.659382
 20
34.620463
 11
370.121695
 21
34.620463
  0
LINE
  8
1
 62
7
  6
CONTINUOUS
 10
370.121695
 20
34.620463
 11
366.620663
 21
68.368900
  0
CIRCLE
  8
1
 62
7
  6
CONTINUOUS
 10
366.620663
 20
68.368900
 40
0.875000
  0
LINE
  8
1
 62
7
  6
CONTINUOUS
 10
298.927780
 20
137.763576
 11
344.357795
 21
121.025362
  0
LINE
  8
1
 62
7
  6
CONTINUOUS
 10
340.914311
 20
121.803014
 11
341.232916
 21
122.667755
  0
LINE
  8
1
 62
7
  6
CONTINUOUS
 10
341.232916
 20
122.667755
 11
344.357795
 21
121.025362
  0
LINE
  8
1
 62
7
  6
CONTINUOUS
 10
344.357795
 20
121.025362
 11
340.914311
 21
121.803014
  0
LINE
  8
1
 62
7
  6
CONTINUOUS
 10
322.598091
 20
137.763576
 11
298.927780
 21
137.763576
  0
LINE
  8
1
 62
7
  6
CONTINUOUS
 10
298.927780
 20
137.763576
 11
304.126346
 21
121.007004
  0
LINE
  8
1
 62
7
  6
CONTINUOUS
 10
302.649176
 20
124.213293
 11
303.529358
 21
124.486361
  0
LINE
  8
1
 62
7
  6
CONTINUOUS
 10
303.529358
 20
124.486361
 11
304.126346
 21
121.007004
  0
LINE
  8
1
 62
7
  6
CONTINUOUS
 10
304.126346
 20
121.007004
 11
302.649176
 21
124.213293
  0
LINE
  8
1
 62
7
  6
CONTINUOUS
 10
289.270793
 20
22.291190
 11
272.221108
 21
22.291190
  0
LINE
  8
1
 62
7
  6
CONTINUOUS
 10
272.221108
 20
22.291190
 11
292.293823
 21
68.368900
  0
CIRCLE
  8
1
 62
7
  6
CONTINUOUS
 10
292.293823
 20
68.368900
 40
0.875000
  0
LINE
  8
1
 62
7
  6
CONTINUOUS
 10
217.104171
 20
51.993381
 11
264.608909
 21
51.993381
  0
LINE
  8
1
 62
7
  6
CONTINUOUS
 10
264.608909
 20
51.993381
 11
270.770688
 21
62.502779
  0
LINE
  8
1
 62
7
  6
CONTINUOUS
 10
269.515599
 20
59.529190
 11
268.788743
 21
59.955353
  0
LINE
  8
1
 62
7
  6
CONTINUOUS
 10
268.788743
 20
59.955353
 11
270.770688
 21
62.502779
  0
LINE
  8
1
 62
7
  6
CONTINUOUS
 10
270.770688
 20
62.502779
 11
269.515599
 21
59.529190
  0
LINE
  8
1
 62
7
  6
CONTINUOUS
 10
13.261007
 20
150.496177
 11
18.903893
 21
140.599745
  0
LINE
  8
1
 62
7
  6
CONTINUOUS
 10
16.769952
 20
143.411971
 11
17.570522
 21
143.868452
  0
LINE
  8
1
 62
7
  6
CONTINUOUS
 10
17.570522
 20
143.868452
 11
18.903893
 21
140.599745
  0
LINE
  8
1
 62
7
  6
CONTINUOUS
 10
18.903893
 20
140.599745
 11
16.769952
 21
143.411971
  0
LINE
  8
1
 62
7
  6
CONTINUOUS
 10
104.927924
 20
154.538161
 11
99.116308
 21
143.099745
  0
LINE
  8
1
 62
7
  6
CONTINUOUS
 10
100.290889
 20
146.428811
 11
101.112491
 21
146.011372
  0
LINE
  8
1
 62
7
  6
CONTINUOUS
 10
101.112491
 20
146.011372
 11
99.116308
 21
143.099745
  0
LINE
  8
1
 62
7
  6
CONTINUOUS
 10
99.116308
 20
143.099745
 11
100.290889
 21
146.428811
  0
TEXT
  8
1
 62
7
  6
CONTINUOUS
 10
350.704631
 20
36.377009
 40
3.200000
 41
0.900000
  1
モータ部
  7
KANJI
 50
0.000000
 51
0.000000
  0
TEXT
  8
1
 62
7
  6
CONTINUOUS
 10
245.635251
 20
56.065493
 40
1.800000
 41
0.900000
  1
 0
  7
KANJI
 50
0.000000
 51
0.000000
  0
TEXT
  8
1
 62
7
  6
CONTINUOUS
 10
245.635251
 20
53.365493
 40
1.800000
 41
0.900000
  1
-1
  7
KANJI
 50
0.000000
 51
0.000000
  0
TEXT
  8
1
 62
7
  6
CONTINUOUS
 10
299.426607
 20
140.030248
 40
3.200000
 41
0.900000
  1
ネームプレート
  7
KANJI
 50
0.000000
 51
0.000000
  0
TEXT
  8
1
 62
7
  6
CONTINUOUS
 10
308.432925
 20
43.831621
 40
3.200000
 41
0.900000
  1
（取付部長め）
  7
KANJI
 50
0.000000
 51
0.000000
  0
TEXT
  8
1
 62
7
  6
CONTINUOUS
 10
276.748380
 20
24.368099
 40
3.200000
 41
0.900000
  1
減速機部
  7
KANJI
 50
0.000000
 51
0.000000
  0
TEXT
  8
1
 62
7
  6
CONTINUOUS
 10
218.570880
 20
53.592291
 40
3.200000
 41
0.900000
  1
ボルトＭ４×７０　　
  7
KANJI
 50
0.000000
 51
0.000000
  0
TEXT
  8
1
 62
7
  6
CONTINUOUS
 10
324.714587
 20
78.841738
 40
3.500000
 41
0.900000
  1
仮止ｃVール
  7
KANJI
 50
90.000000
 51
0.000000
  0
TEXT
  8
1
 62
7
  6
CONTINUOUS
 10
107.027659
 20
143.961463
 40
3.200000
 41
0.900000
  1
1
  7
KANJI
 50
90.000000
 51
0.000000
  0
TEXT
  8
1
 62
7
  6
CONTINUOUS
 10
107.082753
 20
112.054545
 40
3.200000
 41
0.900000
  1
11
  7
KANJI
 50
90.000000
 51
0.000000
  0
TEXT
  8
1
 62
7
  6
CONTINUOUS
 10
11.771241
 20
114.288530
 40
3.200000
 41
0.900000
  1
9
  7
KANJI
 50
90.000000
 51
0.000000
  0
TEXT
  8
1
 62
7
  6
CONTINUOUS
 10
11.212682
 20
142.675400
 40
3.200000
 41
0.900000
  1
1
  7
KANJI
 50
90.000000
 51
0.000000
  0
TEXT
  8
1
 62
7
  6
CONTINUOUS
 10
106.187021
 20
154.904630
 40
3.200000
 41
0.900000
  1
2
  7
KANJI
 50
0.000000
 51
0.000000
  0
TEXT
  8
1
 62
7
  6
CONTINUOUS
 10
11.296518
 20
151.825631
 40
3.200000
 41
0.900000
  1
3
  7
KANJI
 50
0.000000
 51
0.000000
  0
LINE
  8
1
 62
7
  6
CONTINUOUS
 10
169.875727
 20
89.251516
 11
169.875727
 21
99.251516
  0
LINE
  8
1
 62
7
  6
CONTINUOUS
 10
156.607734
 20
99.251516
 11
171.375727
 21
99.251516
  0
LINE
  8
1
 62
7
  6
CONTINUOUS
 10
118.365255
 20
89.251516
 11
171.375727
 21
89.251516
  0
LINE
  8
1
 62
7
  6
CONTINUOUS
 10
169.875727
 20
99.251516
 11
170.291727
 21
96.051516
  0
LINE
  8
1
 62
7
  6
CONTINUOUS
 10
170.291727
 20
96.051516
 11
169.459727
 21
96.051516
  0
LINE
  8
1
 62
7
  6
CONTINUOUS
 10
169.459727
 20
96.051516
 11
169.875727
 21
99.251516
  0
LINE
  8
1
 62
7
  6
CONTINUOUS
 10
169.875727
 20
89.251516
 11
169.459727
 21
92.451516
  0
LINE
  8
1
 62
7
  6
CONTINUOUS
 10
169.459727
 20
92.451516
 11
170.291727
 21
92.451516
  0
LINE
  8
1
 62
7
  6
CONTINUOUS
 10
170.291727
 20
92.451516
 11
169.875727
 21
89.251516
  0
TEXT
  8
1
 62
7
  6
CONTINUOUS
 10
167.875727
 20
92.441305
 40
3.200000
 41
0.900000
  1
10
  7
KANJI
 50
90.000000
 51
0.000000
  0
LINE
  8
1
 62
7
  6
CONTINUOUS
 10
274.981269
 20
41.663129
 11
332.981269
 21
41.663129
  0
LINE
  8
1
 62
7
  6
CONTINUOUS
 10
332.981269
 20
58.401516
 11
332.981269
 21
40.663129
  0
LINE
  8
1
 62
7
  6
CONTINUOUS
 10
274.981269
 20
58.251516
 11
274.981269
 21
40.663129
  0
LINE
  8
1
 62
7
  6
CONTINUOUS
 10
274.981269
 20
41.663129
 11
278.181269
 21
42.079129
  0
LINE
  8
1
 62
7
  6
CONTINUOUS
 10
278.181269
 20
42.079129
 11
278.181269
 21
41.247129
  0
LINE
  8
1
 62
7
  6
CONTINUOUS
 10
278.181269
 20
41.247129
 11
274.981269
 21
41.663129
  0
LINE
  8
1
 62
7
  6
CONTINUOUS
 10
332.981269
 20
41.663129
 11
329.781269
 21
41.247129
  0
LINE
  8
1
 62
7
  6
CONTINUOUS
 10
329.781269
 20
41.247129
 11
329.781269
 21
42.079129
  0
LINE
  8
1
 62
7
  6
CONTINUOUS
 10
329.781269
 20
42.079129
 11
332.981269
 21
41.663129
  0
TEXT
  8
1
 62
7
  6
CONTINUOUS
 10
295.510686
 20
43.663129
 40
3.200000
 41
0.900000
  1
58
  7
KANJI
 50
0.000000
 51
0.000000
  0
LINE
  8
1
 62
7
  6
CONTINUOUS
 10
233.643376
 20
102.251516
 11
233.643376
 21
95.851516
  0
LINE
  8
1
 62
7
  6
CONTINUOUS
 10
233.643376
 20
102.251516
 11
233.643376
 21
103.251516
  0
LINE
  8
1
 62
7
  6
CONTINUOUS
 10
233.643376
 20
109.651516
 11
233.643376
 21
103.251516
  0
LINE
  8
1
 62
7
  6
CONTINUOUS
 10
260.366434
 20
103.251516
 11
232.643376
 21
103.251516
  0
LINE
  8
1
 62
7
  6
CONTINUOUS
 10
242.481269
 20
102.251516
 11
232.643376
 21
102.251516
  0
LINE
  8
1
 62
7
  6
CONTINUOUS
 10
233.643376
 20
103.251516
 11
233.227376
 21
106.451516
  0
LINE
  8
1
 62
7
  6
CONTINUOUS
 10
233.227376
 20
106.451516
 11
234.059376
 21
106.451516
  0
LINE
  8
1
 62
7
  6
CONTINUOUS
 10
234.059376
 20
106.451516
 11
233.643376
 21
103.251516
  0
LINE
  8
1
 62
7
  6
CONTINUOUS
 10
233.643376
 20
102.251516
 11
234.059376
 21
99.051516
  0
LINE
  8
1
 62
7
  6
CONTINUOUS
 10
234.059376
 20
99.051516
 11
233.227376
 21
99.051516
  0
LINE
  8
1
 62
7
  6
CONTINUOUS
 10
233.227376
 20
99.051516
 11
233.643376
 21
102.251516
  0
TEXT
  8
1
 62
7
  6
CONTINUOUS
 10
231.643376
 20
99.358503
 40
3.200000
 41
0.900000
  1
1
  7
KANJI
 50
90.000000
 51
0.000000
  0
LINE
  8
1
 62
7
  6
CONTINUOUS
 10
225.179491
 20
103.251516
 11
225.179491
 21
109.651516
  0
LINE
  8
1
 62
7
  6
CONTINUOUS
 10
225.179491
 20
95.251516
 11
225.179491
 21
88.851516
  0
LINE
  8
1
 62
7
  6
CONTINUOUS
 10
225.179491
 20
95.251516
 11
225.179491
 21
103.251516
  0
LINE
  8
1
 62
7
  6
CONTINUOUS
 10
260.366434
 20
103.251516
 11
224.179491
 21
103.251516
  0
LINE
  8
1
 62
7
  6
CONTINUOUS
 10
242.481269
 20
95.251516
 11
224.179491
 21
95.251516
  0
LINE
  8
1
 62
7
  6
CONTINUOUS
 10
225.179491
 20
103.251516
 11
224.763491
 21
106.451516
  0
LINE
  8
1
 62
7
  6
CONTINUOUS
 10
224.763491
 20
106.451516
 11
225.595491
 21
106.451516
  0
LINE
  8
1
 62
7
  6
CONTINUOUS
 10
225.595491
 20
106.451516
 11
225.179491
 21
103.251516
  0
LINE
  8
1
 62
7
  6
CONTINUOUS
 10
225.179491
 20
95.251516
 11
225.595491
 21
92.051516
  0
LINE
  8
1
 62
7
  6
CONTINUOUS
 10
225.595491
 20
92.051516
 11
224.763491
 21
92.051516
  0
LINE
  8
1
 62
7
  6
CONTINUOUS
 10
224.763491
 20
92.051516
 11
225.179491
 21
95.251516
  0
TEXT
  8
1
 62
7
  6
CONTINUOUS
 10
221.979491
 20
95.866505
 40
3.200000
 41
0.900000
  1
8
  7
KANJI
 50
90.000000
 51
0.000000
  0
TEXT
  8
1
 62
7
  6
CONTINUOUS
 10
219.819491
 20
99.386505
 40
2.240000
 41
0.900000
  1
 0
  7
KANJI
 50
90.000000
 51
0.000000
  0
TEXT
  8
1
 62
7
  6
CONTINUOUS
 10
223.179491
 20
99.386505
 40
2.240000
 41
0.900000
  1
-0.02
  7
KANJI
 50
90.000000
 51
0.000000
  0
TEXT
  8
1
 62
7
  6
CONTINUOUS
 10
221.979491
 20
92.026505
 40
3.200000
 41
0.900000
  1
φ
  7
KANJI
 50
90.000000
 51
0.000000
  0
LINE
  8
1
 62
7
  6
CONTINUOUS
 10
214.139641
 20
86.751516
 11
214.139641
 21
111.751516
  0
LINE
  8
1
 62
7
  6
CONTINUOUS
 10
271.481269
 20
111.751516
 11
213.139641
 21
111.751516
  0
LINE
  8
1
 62
7
  6
CONTINUOUS
 10
271.481269
 20
86.751516
 11
213.139641
 21
86.751516
  0
LINE
  8
1
 62
7
  6
CONTINUOUS
 10
214.139641
 20
111.751516
 11
214.555641
 21
108.551516
  0
LINE
  8
1
 62
7
  6
CONTINUOUS
 10
214.555641
 20
108.551516
 11
213.723641
 21
108.551516
  0
LINE
  8
1
 62
7
  6
CONTINUOUS
 10
213.723641
 20
108.551516
 11
214.139641
 21
111.751516
  0
LINE
  8
1
 62
7
  6
CONTINUOUS
 10
214.139641
 20
86.751516
 11
213.723641
 21
89.951516
  0
LINE
  8
1
 62
7
  6
CONTINUOUS
 10
213.723641
 20
89.951516
 11
214.555641
 21
89.951516
  0
LINE
  8
1
 62
7
  6
CONTINUOUS
 10
214.555641
 20
89.951516
 11
214.139641
 21
86.751516
  0
TEXT
  8
1
 62
7
  6
CONTINUOUS
 10
212.139641
 20
98.438515
 40
3.200000
 41
0.900000
  1
25
  7
KANJI
 50
90.000000
 51
0.000000
  0
TEXT
  8
1
 62
7
  6
CONTINUOUS
 10
212.139641
 20
94.598515
 40
3.200000
 41
0.900000
  1
φ
  7
KANJI
 50
90.000000
 51
0.000000
  0
LINE
  8
1
 62
7
  6
CONTINUOUS
 10
242.981269
 20
153.209855
 11
255.981269
 21
153.209855
  0
LINE
  8
1
 62
7
  6
CONTINUOUS
 10
255.981269
 20
103.251516
 11
255.981269
 21
154.209855
  0
LINE
  8
1
 62
7
  6
CONTINUOUS
 10
242.981269
 20
103.251516
 11
242.981269
 21
154.209855
  0
LINE
  8
1
 62
7
  6
CONTINUOUS
 10
242.981269
 20
153.209855
 11
246.181269
 21
153.625855
  0
LINE
  8
1
 62
7
  6
CONTINUOUS
 10
246.181269
 20
153.625855
 11
246.181269
 21
152.793855
  0
LINE
  8
1
 62
7
  6
CONTINUOUS
 10
246.181269
 20
152.793855
 11
242.981269
 21
153.209855
  0
LINE
  8
1
 62
7
  6
CONTINUOUS
 10
255.981269
 20
153.209855
 11
252.781269
 21
152.793855
  0
LINE
  8
1
 62
7
  6
CONTINUOUS
 10
252.781269
 20
152.793855
 11
252.781269
 21
153.625855
  0
LINE
  8
1
 62
7
  6
CONTINUOUS
 10
252.781269
 20
153.625855
 11
255.981269
 21
153.209855
  0
TEXT
  8
1
 62
7
  6
CONTINUOUS
 10
249.953001
 20
155.209855
 40
3.200000
 41
0.900000
  1
13
  7
KANJI
 50
0.000000
 51
0.000000
  0
LINE
  8
1
 62
7
  6
CONTINUOUS
 10
242.981269
 20
167.272637
 11
274.981269
 21
167.272637
  0
LINE
  8
1
 62
7
  6
CONTINUOUS
 10
274.981269
 20
120.251516
 11
274.981269
 21
168.272637
  0
LINE
  8
1
 62
7
  6
CONTINUOUS
 10
242.981269
 20
103.251516
 11
242.981269
 21
168.272637
  0
LINE
  8
1
 62
7
  6
CONTINUOUS
 10
242.981269
 20
167.272637
 11
246.181269
 21
167.688637
  0
LINE
  8
1
 62
7
  6
CONTINUOUS
 10
246.181269
 20
167.688637
 11
246.181269
 21
166.856637
  0
LINE
  8
1
 62
7
  6
CONTINUOUS
 10
246.181269
 20
166.856637
 11
242.981269
 21
167.272637
  0
LINE
  8
1
 62
7
  6
CONTINUOUS
 10
274.981269
 20
167.272637
 11
271.781269
 21
166.856637
  0
LINE
  8
1
 62
7
  6
CONTINUOUS
 10
271.781269
 20
166.856637
 11
271.781269
 21
167.688637
  0
LINE
  8
1
 62
7
  6
CONTINUOUS
 10
271.781269
 20
167.688637
 11
274.981269
 21
167.272637
  0
TEXT
  8
1
 62
7
  6
CONTINUOUS
 10
255.321273
 20
169.272637
 40
3.200000
 41
0.900000
  1
32
  7
KANJI
 50
0.000000
 51
0.000000
  0
LINE
  8
1
 62
7
  6
CONTINUOUS
 10
274.981269
 20
167.272637
 11
371.981269
 21
167.272637
  0
LINE
  8
1
 62
7
  6
CONTINUOUS
 10
371.981269
 20
117.001516
 11
371.981269
 21
168.272637
  0
LINE
  8
1
 62
7
  6
CONTINUOUS
 10
274.981269
 20
120.251516
 11
274.981269
 21
168.272637
  0
LINE
  8
1
 62
7
  6
CONTINUOUS
 10
274.981269
 20
167.272637
 11
278.181269
 21
167.688637
  0
LINE
  8
1
 62
7
  6
CONTINUOUS
 10
278.181269
 20
167.688637
 11
278.181269
 21
166.856637
  0
LINE
  8
1
 62
7
  6
CONTINUOUS
 10
278.181269
 20
166.856637
 11
274.981269
 21
167.272637
  0
LINE
  8
1
 62
7
  6
CONTINUOUS
 10
371.981269
 20
167.272637
 11
368.781269
 21
166.856637
  0
LINE
  8
1
 62
7
  6
CONTINUOUS
 10
368.781269
 20
166.856637
 11
368.781269
 21
167.688637
  0
LINE
  8
1
 62
7
  6
CONTINUOUS
 10
368.781269
 20
167.688637
 11
371.981269
 21
167.272637
  0
TEXT
  8
1
 62
7
  6
CONTINUOUS
 10
324.508653
 20
169.272637
 40
3.200000
 41
0.900000
  1
97
  7
KANJI
 50
0.000000
 51
0.000000
  0
LINE
  8
1
 62
7
  6
CONTINUOUS
 10
324.981269
 20
155.566940
 11
371.981269
 21
155.566940
  0
LINE
  8
1
 62
7
  6
CONTINUOUS
 10
371.981269
 20
117.001516
 11
371.981269
 21
156.566940
  0
LINE
  8
1
 62
7
  6
CONTINUOUS
 10
324.981269
 20
120.751516
 11
324.981269
 21
156.566940
  0
LINE
  8
1
 62
7
  6
CONTINUOUS
 10
324.981269
 20
155.566940
 11
328.181269
 21
155.982940
  0
LINE
  8
1
 62
7
  6
CONTINUOUS
 10
328.181269
 20
155.982940
 11
328.181269
 21
155.150940
  0
LINE
  8
1
 62
7
  6
CONTINUOUS
 10
328.181269
 20
155.150940
 11
324.981269
 21
155.566940
  0
LINE
  8
1
 62
7
  6
CONTINUOUS
 10
371.981269
 20
155.566940
 11
368.781269
 21
155.150940
  0
LINE
  8
1
 62
7
  6
CONTINUOUS
 10
368.781269
 20
155.150940
 11
368.781269
 21
155.982940
  0
LINE
  8
1
 62
7
  6
CONTINUOUS
 10
368.781269
 20
155.982940
 11
371.981269
 21
155.566940
  0
TEXT
  8
1
 62
7
  6
CONTINUOUS
 10
346.960186
 20
157.566940
 40
3.200000
 41
0.900000
  1
47
  7
KANJI
 50
0.000000
 51
0.000000
  0
LINE
  8
1
 62
7
  6
CONTINUOUS
 10
195.002657
 20
58.751516
 11
195.002657
 21
119.751516
  0
LINE
  8
1
 62
7
  6
CONTINUOUS
 10
177.002657
 20
119.751516
 11
196.002657
 21
119.751516
  0
LINE
  8
1
 62
7
  6
CONTINUOUS
 10
177.002657
 20
58.751516
 11
196.002657
 21
58.751516
  0
LINE
  8
1
 62
7
  6
CONTINUOUS
 10
195.002657
 20
119.751516
 11
195.418657
 21
116.551516
  0
LINE
  8
1
 62
7
  6
CONTINUOUS
 10
195.418657
 20
116.551516
 11
194.586657
 21
116.551516
  0
LINE
  8
1
 62
7
  6
CONTINUOUS
 10
194.586657
 20
116.551516
 11
195.002657
 21
119.751516
  0
LINE
  8
1
 62
7
  6
CONTINUOUS
 10
195.002657
 20
58.751516
 11
194.586657
 21
61.951516
  0
LINE
  8
1
 62
7
  6
CONTINUOUS
 10
194.586657
 20
61.951516
 11
195.418657
 21
61.951516
  0
LINE
  8
1
 62
7
  6
CONTINUOUS
 10
195.418657
 20
61.951516
 11
195.002657
 21
58.751516
  0
TEXT
  8
1
 62
7
  6
CONTINUOUS
 10
193.002657
 20
87.331516
 40
3.200000
 41
0.900000
  1
61
  7
KANJI
 50
90.000000
 51
0.000000
  0
LINE
  8
1
 62
7
  6
CONTINUOUS
 10
119.002657
 20
134.751516
 11
180.002657
 21
134.751516
  0
LINE
  8
1
 62
7
  6
CONTINUOUS
 10
180.002657
 20
116.751516
 11
180.002657
 21
135.751516
  0
LINE
  8
1
 62
7
  6
CONTINUOUS
 10
119.002657
 20
116.751516
 11
119.002657
 21
135.751516
  0
LINE
  8
1
 62
7
  6
CONTINUOUS
 10
119.002657
 20
134.751516
 11
122.202657
 21
135.167516
  0
LINE
  8
1
 62
7
  6
CONTINUOUS
 10
122.202657
 20
135.167516
 11
122.202657
 21
134.335516
  0
LINE
  8
1
 62
7
  6
CONTINUOUS
 10
122.202657
 20
134.335516
 11
119.002657
 21
134.751516
  0
LINE
  8
1
 62
7
  6
CONTINUOUS
 10
180.002657
 20
134.751516
 11
176.802657
 21
134.335516
  0
LINE
  8
1
 62
7
  6
CONTINUOUS
 10
176.802657
 20
134.335516
 11
176.802657
 21
135.167516
  0
LINE
  8
1
 62
7
  6
CONTINUOUS
 10
176.802657
 20
135.167516
 11
180.002657
 21
134.751516
  0
TEXT
  8
1
 62
7
  6
CONTINUOUS
 10
147.582657
 20
136.751516
 40
3.200000
 41
0.900000
  1
61
  7
KANJI
 50
0.000000
 51
0.000000
  0
LINE
  8
1
 62
7
  6
CONTINUOUS
 10
22.648971
 20
152.736441
 11
93.344287
 21
152.736441
  0
LINE
  8
1
 62
7
  6
CONTINUOUS
 10
22.648971
 20
141.599744
 11
22.648971
 21
153.736441
  0
LINE
  8
1
 62
7
  6
CONTINUOUS
 10
93.344287
 20
144.099744
 11
93.344287
 21
153.736441
  0
LINE
  8
1
 62
7
  6
CONTINUOUS
 10
93.344287
 20
152.736441
 11
90.144287
 21
152.320441
  0
LINE
  8
1
 62
7
  6
CONTINUOUS
 10
90.144287
 20
152.320441
 11
90.144287
 21
153.152441
  0
LINE
  8
1
 62
7
  6
CONTINUOUS
 10
90.144287
 20
153.152441
 11
93.344287
 21
152.736441
  0
LINE
  8
1
 62
7
  6
CONTINUOUS
 10
22.648971
 20
152.736441
 11
25.848971
 21
153.152441
  0
LINE
  8
1
 62
7
  6
CONTINUOUS
 10
25.848971
 20
153.152441
 11
25.848971
 21
152.320441
  0
LINE
  8
1
 62
7
  6
CONTINUOUS
 10
25.848971
 20
152.320441
 11
22.648971
 21
152.736441
  0
TEXT
  8
1
 62
7
  6
CONTINUOUS
 10
50.780629
 20
155.936441
 40
3.200000
 41
0.900000
  1
300
  7
KANJI
 50
0.000000
 51
0.000000
  0
TEXT
  8
1
 62
7
  6
CONTINUOUS
 10
60.060629
 20
158.096441
 40
2.240000
 41
0.900000
  1
+30
  7
KANJI
 50
0.000000
 51
0.000000
  0
TEXT
  8
1
 62
7
  6
CONTINUOUS
 10
62.076629
 20
154.736441
 40
2.240000
 41
0.900000
  1
 0
  7
KANJI
 50
0.000000
 51
0.000000
  0
LINE
  8
1
 62
7
  6
CONTINUOUS
 10
26.878023
 20
93.359168
 11
96.878023
 21
93.359168
  0
LINE
  8
1
 62
7
  6
CONTINUOUS
 10
26.878023
 20
85.923489
 11
26.878023
 21
94.859168
  0
LINE
  8
1
 62
7
  6
CONTINUOUS
 10
96.878023
 20
87.823489
 11
96.878023
 21
94.859168
  0
LINE
  8
1
 62
7
  6
CONTINUOUS
 10
26.878023
 20
93.359168
 11
30.078023
 21
93.775168
  0
LINE
  8
1
 62
7
  6
CONTINUOUS
 10
30.078023
 20
93.775168
 11
30.078023
 21
92.943168
  0
LINE
  8
1
 62
7
  6
CONTINUOUS
 10
30.078023
 20
92.943168
 11
26.878023
 21
93.359168
  0
LINE
  8
1
 62
7
  6
CONTINUOUS
 10
96.878023
 20
93.359168
 11
93.678023
 21
92.943168
  0
LINE
  8
1
 62
7
  6
CONTINUOUS
 10
93.678023
 20
92.943168
 11
93.678023
 21
93.775168
  0
LINE
  8
1
 62
7
  6
CONTINUOUS
 10
93.678023
 20
93.775168
 11
96.878023
 21
93.359168
  0
TEXT
  8
1
 62
7
  6
CONTINUOUS
 10
54.756007
 20
96.159168
 40
3.200000
 41
0.900000
  1
70
  7
KANJI
 50
0.000000
 51
0.000000
  0
TEXT
  8
1
 62
7
  6
CONTINUOUS
 10
61.156007
 20
98.239168
 40
1.920000
 41
0.900000
  1
 0
  7
KANJI
 50
0.000000
 51
0.000000
  0
TEXT
  8
1
 62
7
  6
CONTINUOUS
 10
61.732007
 20
95.359168
 40
1.920000
 41
0.900000
  1
-1
  7
KANJI
 50
0.000000
 51
0.000000
  0
LINE
  8
1
 62
7
  6
CONTINUOUS
 10
167.636656
 20
119.187800
 11
131.368658
 21
59.315653
  0
LINE
  8
1
 62
7
  6
CONTINUOUS
 10
131.368658
 20
59.315653
 11
132.670806
 21
62.268189
  0
LINE
  8
1
 62
7
  6
CONTINUOUS
 10
132.670806
 20
62.268189
 11
133.382426
 21
61.837119
  0
LINE
  8
1
 62
7
  6
CONTINUOUS
 10
133.382426
 20
61.837119
 11
131.368658
 21
59.315653
  0
LINE
  8
1
 62
7
  6
CONTINUOUS
 10
167.636656
 20
119.187800
 11
166.334507
 21
116.235265
  0
LINE
  8
1
 62
7
  6
CONTINUOUS
 10
166.334507
 20
116.235265
 11
165.622887
 21
116.666334
  0
LINE
  8
1
 62
7
  6
CONTINUOUS
 10
165.622887
 20
116.666334
 11
167.636656
 21
119.187800
  0
TEXT
  8
1
 62
7
  6
CONTINUOUS
 10
139.946329
 20
77.336063
 40
3.200000
 41
0.900000
  1
70
  7
KANJI
 50
58.794303
 51
0.000000
  0
TEXT
  8
1
 62
7
  6
CONTINUOUS
 10
137.956779
 20
74.051662
 40
3.200000
 41
0.900000
  1
φ
  7
KANJI
 50
58.794303
 51
0.000000
  0
LINE
  8
1
 62
7
  6
CONTINUOUS
 10
292.442390
 20
124.664937
 11
292.442390
 21
127.164937
  0
LINE
  8
1
 62
7
  6
CONTINUOUS
 10
289.942390
 20
126.164937
 11
292.442390
 21
124.664937
  0
LINE
  8
1
 62
7
  6
CONTINUOUS
 10
294.942390
 20
126.164937
 11
289.942390
 21
126.164937
  0
LINE
  8
1
 62
7
  6
CONTINUOUS
 10
289.442390
 20
129.164937
 11
295.442390
 21
129.164937
  0
LINE
  8
1
 62
7
  6
CONTINUOUS
 10
295.442390
 20
123.164937
 11
289.442390
 21
123.164937
  0
LINE
  8
1
 62
7
  6
CONTINUOUS
 10
295.442390
 20
149.164937
 11
295.442390
 21
123.164937
  0
LINE
  8
1
 62
7
  6
CONTINUOUS
 10
289.442390
 20
149.164937
 11
295.442390
 21
149.164937
  0
LINE
  8
1
 62
7
  6
CONTINUOUS
 10
289.442390
 20
123.164937
 11
289.442390
 21
149.164937
  0
TEXT
  8
1
 62
7
  6
CONTINUOUS
 10
294.442390
 20
130.211682
 40
4.000000
 41
0.900000
  1
文字ノ向キ
  7
KANJI
 50
90.000000
 51
0.000000
  0
LINE
  8
1
 62
7
  6
CONTINUOUS
 10
350.832672
 20
123.723428
 11
350.832672
 21
149.723428
  0
LINE
  8
1
 62
7
  6
CONTINUOUS
 10
350.832672
 20
149.723428
 11
356.832672
 21
149.723428
  0
LINE
  8
1
 62
7
  6
CONTINUOUS
 10
356.832672
 20
149.723428
 11
356.832672
 21
123.723428
  0
LINE
  8
1
 62
7
  6
CONTINUOUS
 10
356.832672
 20
123.723428
 11
350.832672
 21
123.723428
  0
LINE
  8
1
 62
7
  6
CONTINUOUS
 10
350.832672
 20
129.723428
 11
356.832672
 21
129.723428
  0
LINE
  8
1
 62
7
  6
CONTINUOUS
 10
356.332672
 20
126.723428
 11
351.332672
 21
126.723428
  0
LINE
  8
1
 62
7
  6
CONTINUOUS
 10
351.332672
 20
126.723428
 11
353.832672
 21
125.223428
  0
LINE
  8
1
 62
7
  6
CONTINUOUS
 10
353.832672
 20
125.223428
 11
353.832672
 21
127.723428
  0
TEXT
  8
1
 62
7
  6
CONTINUOUS
 10
355.832672
 20
130.770174
 40
4.000000
 41
0.900000
  1
文字ノ向キ
  7
KANJI
 50
90.000000
 51
0.000000
  0
ENDSEC
  0
EOF
