  0
SECTION
  2
HEADER
  9
$ACADVER
  1
AC1009
  9
$INSBASE
 10
0
 20
0
  9
$EXTMIN
 10
11.6876723925387
 20
37.9260017655336
  9
$EXTMAX
 10
138.7074664680358
 20
121.523510949558
  9
$LIMMIN
 10
11.6876723925387
 20
37.9260017655336
  9
$LIMMAX
 10
138.7074664680358
 20
121.523510949558
  9
$VIEWCTR
 10
10
 20
10
  9
$VIEWSIZE
 40
10
  9
$SNAPMODE
 70
0
  9
$SNAPUNIT
 10
1
 20
1
  9
$SNAPBASE
 10
0
 20
0
  9
$SNAPANG
 50
0
  9
$SNAPSTYLE
 70
0
  9
$SNAPISOPAIR
 70
0
  9
$GRIDMODE
 70
0
  9
$GRIDUNIT
 10
0
 20
0
  9
$ORTHOMODE
 70
0
  9
$REGENMODE
 70
1
  9
$FILLMODE
 70
1
  9
$QTEXTMODE
 70
0
  9
$DRAGMODE
 70
2
  9
$LTSCALE
 40
1
  9
$OSMODE
 70
0
  9
$ATTMODE
 70
1
  9
$TEXTSIZE
 40
3.5
  9
$TRACEWID
 40
0.5
  9
$TEXTSTYLE
  7
STANDARD
  9
$CLAYER
  8
0
  9
$CELTYPE
  6
BYLAYER
  9
$CECOLOR
 62
256
  9
$DIMSCALE
 40
1
  9
$DIMASZ
 40
0.18
  9
$DIMEXO
 40
0.0625
  9
$DIMDLI
 40
0.38
  9
$DIMRND
 40
0
  9
$DIMDLE
 40
0
  9
$DIMEXE
 40
0.18
  9
$DIMTP
 40
0
  9
$DIMTM
 40
0
  9
$DIMTXT
 40
0.18
  9
$DIMCEN
 40
0.09
  9
$DIMTSZ
 40
0
  9
$DIMTOL
 70
0
  9
$DIMLIM
 70
0
  9
$DIMTIH
 70
1
  9
$DIMTOH
 70
1
  9
$DIMSE1
 70
0
  9
$DIMSE2
 70
0
  9
$DIMTAD
 70
0
  9
$DIMZIN
 70
0
  9
$DIMBLK
  1

  9
$DIMASO
 70
1
  9
$DIMSHO
 70
1
  9
$DIMPOST
  1

  9
$DIMAPOST
  1

  9
$DIMALT
 70
0
  9
$DIMALTD
 70
2
  9
$DIMALTF
 40
25.4
  9
$DIMLFAC
 40
1
  9
$DIMTOFL
 70
0
  9
$DIMTVP
 40
0
  9
$DIMTIX
 70
0
  9
$DIMSOXD
 70
0
  9
$DIMSAH
 70
0
  9
$DIMBLK1
  1

  9
$DIMBLK2
  1

  9
$DIMSTYLE
  2
*UNNAMED
  9
$DIMCLRD
 70
0
  9
$DIMCLRE
 70
0
  9
$DIMCLRT
 70
0
  9
$DIMTFAC
 40
1
  9
$DIMGAP
 40
0.09
  9
$LUNITS
 70
2
  9
$LUPREC
 70
4
  9
$AXISMODE
 70
0
  9
$AXISUNIT
 10
0
 20
0
  9
$SKETCHINC
 40
0.1
  9
$FILLETRAD
 40
2
  9
$AUNITS
 70
0
  9
$AUPREC
 70
0
  9
$MENU
  1
ACAD
  9
$ELEVATION
 40
0
  9
$THICKNESS
 40
0
  9
$VIEWDIR
 10
0
 20
0
 30
1
  9
$LIMCHECK
 70
0
  9
$BLIPMODE
 70
1
  9
$CHAMFERA
 40
0
  9
$CHAMFERB
 40
0
  9
$FASTZOOM
 70
1
  9
$SKPOLY
 70
0
  9
$ANGBASE
 50
0
  9
$ANGDIR
 70
0
  9
$PDMODE
 70
0
  9
$PDSIZE
 40
0
  9
$PLINEWID
 40
0
  9
$COORDS
 70
2
  0
ENDSEC
  0
SECTION
  2
TABLES
  0
TABLE
  2
DIMSTYLE
 70
0
  0
ENDTAB
  0
TABLE
  2
LTYPE
 70
9
  0
LTYPE
  2
CONTINUOUS
 70
64
  3
Solid line
 72
65
 73
0
 40
0
  0
LTYPE
  2
BORDER
 70
64
  3
__ __ . __ __ .
 72
65
 73
6
 40
5.84959577979263
 49
1.671313079940751
 49
-0.8356565399703756
 49
1.671313079940751
 49
-0.8356565399703756
 49
0
 49
-0.8356565399703756
  0
LTYPE
  2
CENTER
 70
64
  3
____ _ ____ _
 72
65
 73
4
 40
6.685252319763005
 49
4.178282699851878
 49
-0.8356565399703756
 49
0.8356565399703756
 49
-0.8356565399703756
  0
LTYPE
  2
DASHDOT
 70
64
  3
__ . __ . __ .
 72
65
 73
4
 40
3.342626159881502
 49
1.671313079940751
 49
-0.8356565399703756
 49
0
 49
-0.8356565399703756
  0
LTYPE
  2
DASHED
 70
64
  3
__ __ __ __ __
 72
65
 73
2
 40
2.506969619911127
 49
1.671313079940751
 49
-0.8356565399703756
  0
LTYPE
  2
DIVIDE
 70
64
  3
__ . . __ . . 
 72
65
 73
6
 40
4.178282699851878
 49
1.671313079940751
 49
-0.8356565399703756
 49
0
 49
-0.8356565399703756
 49
0
 49
-0.8356565399703756
  0
LTYPE
  2
DOT
 70
64
  3
..............
 72
65
 73
4
 40
1.671313079940751
 49
0
 49
-0.8356565399703756
 49
0
 49
-0.8356565399703756
  0
LTYPE
  2
HIDDEN
 70
64
  3
_ _ _ _ _ _ _
 72
65
 73
2
 40
1.253484809955563
 49
0.8356565399703756
 49
-0.4178282699851878
  0
LTYPE
  2
PHANTOM
 70
64
  3
_____ _ _ _____ _ _ 
 72
65
 73
6
 40
8.356565399703756
 49
4.178282699851878
 49
-0.8356565399703756
 49
0.8356565399703756
 49
-0.8356565399703756
 49
0.8356565399703756
 49
-0.8356565399703756
  0
ENDTAB
  0
TABLE
  2
LAYER
 70
3
  0
LAYER
  2
1
 70
0
 62
7
  6
CONTINUOUS
  0
LAYER
  2
0
 70
0
 62
7
  6
CONTINUOUS
  0
ENDTAB
  0
TABLE
  2
STYLE
 70
4
  0
STYLE
  2
STANDARD
 70
0
 40
0
 41
1
 50
0
 71
0
 42
3.5
  3
txt
  4

  0
STYLE
  2
SIMPLEX
 70
0
 40
0
 41
1
 50
0
 71
0
 42
3.5
  3
simplex
  4

  0
STYLE
  2
COMPLEX
 70
0
 40
0
 41
1
 50
0
 71
0
 42
3.5
  3
complex
  4

  0
STYLE
  2
ITALIC
 70
0
 40
0
 41
1
 50
0
 71
0
 42
3.5
  3
italic
  4

  0
ENDTAB
  0
TABLE
  2
VIEW
 70
0
  0
ENDTAB
  0
ENDSEC
  0
SECTION
  2
BLOCKS
  0
ENDSEC
  0
SECTION
  2
ENTITIES
  0
LINE
  8
1
 62
7
 10
21.01662541349977
 20
114.4306734173401
 30
0
 11
19.56653295424112
 21
115.1068626361252
 31
0
  0
LINE
  8
1
 62
7
 10
85.43805545331755
 20
46.2848340327435
 30
0
 11
86.88814791257616
 21
45.60864481395839
 31
0
  0
LINE
  8
1
 62
7
 10
19.45234043340864
 20
47.9919515296119
 30
0
 11
18.65234043340864
 21
46.6063108835568
 31
0
  0
LINE
  8
1
 62
7
 10
87.80234043340866
 20
114.1091965665269
 30
0
 11
87.00234043340865
 21
112.7235559204718
 31
0
  0
LINE
  8
1
 62
7
 10
134.7945487051938
 20
111.195012025357
 30
0
 11
134.7945487051938
 21
107.957753725154
 31
0
  0
LINE
  8
1
 62
7
 10
133.1945487051938
 20
109.595012025357
 30
0
 11
133.1945487051938
 21
106.357753725154
 31
0
  0
LINE
  8
1
 62
7
 10
133.1945487051938
 20
104.095012025357
 30
0
 11
136.360234130143
 21
107.2606974503063
 31
0
  0
LINE
  8
1
 62
7
 10
136.5945487051938
 20
119.107753725154
 30
0
 11
136.5945487051938
 21
107.8263828752555
 31
0
  0
LINE
  8
1
 62
7
 10
131.8288632802446
 20
104.9920683002048
 30
0
 11
134.9945487051938
 21
108.157753725154
 31
0
  0
LINE
  8
1
 62
7
 10
134.9945487051938
 20
108.157753725154
 30
0
 11
134.9945487051938
 21
108.3230927714217
 31
0
  0
LINE
  8
1
 62
7
 10
134.9945487051938
 20
108.3230927714217
 30
0
 11
134.9945487051938
 21
119.107753725154
 31
0
  0
LINE
  8
1
 62
2
  6
DASHDOT
 10
138.7074664680358
 20
80.35775372515397
 30
0
 11
128.2921961753238
 21
80.35775372515397
 31
0
  0
LINE
  8
1
 62
7
 10
136.360234130143
 20
53.45481000000173
 30
0
 11
133.1945487051938
 21
56.62049542495096
 31
0
  0
LINE
  8
1
 62
7
 10
136.5945487051938
 20
52.88912457505249
 30
0
 11
136.5945487051938
 21
41.60775372515398
 31
0
  0
LINE
  8
1
 62
7
 10
133.1945487051938
 20
54.35775372515401
 30
0
 11
133.1945487051938
 21
43.05775372515399
 31
0
  0
LINE
  8
1
 62
7
 10
134.7945487051938
 20
52.75775372515402
 30
0
 11
134.7945487051938
 21
43.05775372515399
 31
0
  0
LINE
  8
1
 62
7
 10
134.9945487051938
 20
52.557753725154
 30
0
 11
131.8288632802446
 21
55.72343915010323
 31
0
  0
LINE
  8
1
 62
7
 10
134.9945487051938
 20
52.39241467888625
 30
0
 11
134.9945487051938
 21
52.557753725154
 31
0
  0
LINE
  8
1
 62
7
 10
134.9945487051938
 20
41.60775372515398
 30
0
 11
134.9945487051938
 21
52.39241467888625
 31
0
  0
LINE
  8
1
 62
7
 10
133.1945487051938
 20
83.13298459305372
 30
0
 11
133.1945487051938
 21
77.58252285725425
 31
0
  0
LINE
  8
1
 62
7
 10
133.1945487051938
 20
77.58252285725425
 30
0
 11
133.1945487051938
 21
56.62049542495096
 31
0
  0
LINE
  8
1
 62
7
 10
131.5945487051938
 20
83.13298459305372
 30
0
 11
131.5945487051938
 21
104.4263828752555
 31
0
  0
LINE
  8
1
 62
7
 10
131.5945487051938
 20
77.58252285725425
 30
0
 11
131.5945487051938
 21
56.28912457505247
 31
0
  0
LINE
  8
1
 62
2
  6
DASHDOT
 10
17.52734043340864
 20
46.18436642906812
 30
0
 11
17.52734043340864
 21
43.20993980591461
 31
0
  0
LINE
  8
1
 62
2
  6
DASHDOT
 10
16.19707674282534
 20
44.6577537250418
 30
0
 11
18.87633125833764
 21
44.6577537250418
 31
0
  0
LINE
  8
1
 62
2
  6
DASHDOT
 10
88.92734043340863
 20
45.81482844815389
 30
0
 11
88.92734043340863
 21
43.52115161171282
 31
0
  0
LINE
  8
1
 62
2
  6
DASHDOT
 10
87.65112404232772
 20
44.6577537250418
 30
0
 11
89.97458888963172
 21
44.6577537250418
 31
0
  0
LINE
  8
1
 62
2
  6
DASHDOT
 10
17.52734043340864
 20
117.4238567272508
 30
0
 11
17.52734043340864
 21
114.7441855962018
 31
0
  0
LINE
  8
1
 62
2
  6
DASHDOT
 10
16.38267896435554
 20
116.0577537250418
 30
0
 11
18.84904294069404
 21
116.0577537250418
 31
0
  0
LINE
  8
1
 62
2
  6
DASHDOT
 10
90.46276306765532
 20
116.0577537250418
 30
0
 11
87.60563792612324
 21
116.0577537250418
 31
0
  0
LINE
  8
1
 62
2
  6
DASHDOT
 10
88.92734043340863
 20
114.9192636600478
 30
0
 11
88.92734043340863
 21
117.4527045839238
 31
0
  0
LINE
  8
1
 62
2
  6
DASHDOT
 10
60.64192128027889
 20
80.3577537250418
 30
0
 11
94.4508228805071
 21
80.3577537250418
 31
0
  0
LINE
  8
1
 62
2
  6
DASHDOT
 10
88.92734043340863
 20
43.20993980591461
 30
0
 11
88.92734043340863
 21
43.52115161171282
 31
0
  0
LINE
  8
1
 62
2
  6
DASHDOT
 10
87.57834960847964
 20
44.6577537250418
 30
0
 11
90.25760412399194
 21
44.6577537250418
 31
0
  0
LINE
  8
1
 62
2
  6
DASHDOT
 10
88.92734043340863
 20
114.7441855962018
 30
0
 11
88.92734043340863
 21
114.9192636600478
 31
0
  0
LINE
  8
1
 62
2
  6
DASHDOT
 10
87.60563792612324
 20
116.0577537250418
 30
0
 11
90.07200190246174
 21
116.0577537250418
 31
0
  0
LINE
  8
1
 62
2
  6
DASHDOT
 10
16.38267896435554
 20
116.0577537250418
 30
0
 11
11.91123622315651
 21
116.0577537250418
 31
0
  0
LINE
  8
1
 62
2
  6
DASHDOT
 10
18.84904294069404
 20
116.0577537250418
 30
0
 11
22.2227644585843
 21
116.0577537250418
 31
0
  0
LINE
  8
1
 62
2
  6
DASHDOT
 10
17.52734043340864
 20
114.7441855962018
 30
0
 11
17.52734043340864
 21
111.20021361209
 31
0
  0
LINE
  8
1
 62
2
  6
DASHDOT
 10
88.92734043340863
 20
114.9192636600478
 30
0
 11
88.92734043340863
 21
110.820096230324
 31
0
  0
LINE
  8
1
 62
2
  6
DASHDOT
 10
88.92734043340863
 20
114.9192636600478
 30
0
 11
88.92734043340863
 21
117.4238567272508
 31
0
  0
LINE
  8
1
 62
2
  6
DASHDOT
 10
90.46276306765532
 20
116.0577537250418
 30
0
 11
94.557894557436
 21
116.0577537250418
 31
0
  0
LINE
  8
1
 62
2
  6
DASHDOT
 10
87.60563792612324
 20
116.0577537250418
 30
0
 11
83.9302772412225
 21
116.0577537250418
 31
0
  0
LINE
  8
1
 62
2
  6
DASHDOT
 10
87.60563792612324
 20
116.0577537250418
 30
0
 11
87.52164199510904
 21
116.0577537250418
 31
0
  0
LINE
  8
1
 62
2
  6
DASHDOT
 10
90.25760412399194
 20
44.6577537250418
 30
0
 11
94.1699424890525
 21
44.6577537250418
 31
0
  0
LINE
  8
1
 62
2
  6
DASHDOT
 10
87.57834960847964
 20
44.6577537250418
 30
0
 11
83.2089457491718
 21
44.6577537250418
 31
0
  0
LINE
  8
1
 62
2
  6
DASHDOT
 10
88.92734043340863
 20
46.18436642906812
 30
0
 11
88.92734043340863
 21
50.20916941256669
 31
0
  0
LINE
  8
1
 62
2
  6
DASHDOT
 10
88.92734043340863
 20
43.52115161171282
 30
0
 11
88.92734043340863
 21
38.998543347347
 31
0
  0
LINE
  8
1
 62
2
  6
DASHDOT
 10
88.92734043340863
 20
43.52115161171282
 30
0
 11
88.92734043340863
 21
46.18436642906812
 31
0
  0
LINE
  8
1
 62
2
  6
DASHDOT
 10
18.87633125833764
 20
44.6577537250418
 30
0
 11
22.4491598856774
 21
44.6577537250418
 31
0
  0
LINE
  8
1
 62
2
  6
DASHDOT
 10
16.19707674282534
 20
44.6577537250418
 30
0
 11
11.99660729112955
 21
44.6577537250418
 31
0
  0
LINE
  8
1
 62
2
  6
DASHDOT
 10
17.52734043340864
 20
46.18436642906812
 30
0
 11
17.52734043340864
 21
50.526339139783
 31
0
  0
LINE
  8
1
 62
2
  6
DASHDOT
 10
17.52734043340864
 20
43.20993980591461
 30
0
 11
17.52734043340864
 21
37.9260017655336
 31
0
  0
LINE
  8
1
 62
7
 10
61.39908480741418
 20
93.1878165888289
 30
0
 11
62.01846063636888
 21
93.72623178266321
 31
0
  0
LINE
  8
1
 62
7
 10
61.39908480741416
 20
67.52769086125468
 30
0
 11
62.01846063636888
 21
66.98927566742043
 31
0
  0
LINE
  8
1
 62
7
 10
62.44877925379899
 20
68.73522618961111
 30
0
 11
63.34101032385947
 21
67.95962155333996
 31
0
  0
LINE
  8
1
 62
7
 10
62.448779253799
 20
91.9802812604725
 30
0
 11
63.34101032385946
 21
92.75588589674371
 31
0
  0
LINE
  8
1
 62
7
 10
45.0555960594031
 20
93.1878165888289
 30
0
 11
44.4362202304484
 21
93.72623178266321
 31
0
  0
LINE
  8
1
 62
7
 10
45.0555960594031
 20
67.52769086125467
 30
0
 11
44.43622023044841
 21
66.98927566742043
 31
0
  0
LINE
  8
1
 62
7
 10
44.00590161301829
 20
68.73522618961111
 30
0
 11
43.11367054295781
 21
67.95962155333996
 31
0
  0
LINE
  8
1
 62
7
 10
44.00590161301828
 20
91.9802812604725
 30
0
 11
43.11367054295782
 21
92.75588589674361
 31
0
  0
LINE
  8
1
 62
2
  6
DASHDOT
 10
45.477205099226
 20
80.3577537250418
 30
0
 11
60.64192128027889
 21
80.3577537250418
 31
0
  0
LINE
  8
1
 62
2
  6
DASHDOT
 10
45.477205099226
 20
80.3577537250418
 30
0
 11
45.81275958653838
 21
80.3577537250418
 31
0
  0
LINE
  8
1
 62
7
 10
78.96080973116284
 20
108.4539911582203
 30
0
 11
80.40362685187337
 21
109.7082129463482
 31
0
  0
LINE
  8
1
 62
7
 10
27.49387113565443
 20
108.4539911582203
 30
0
 11
26.0510540149439
 21
109.7082129463482
 31
0
  0
LINE
  8
1
 62
7
 10
77.74508238191309
 20
107.3971754967171
 30
0
 11
78.96080973116284
 21
108.4539911582203
 31
0
  0
LINE
  8
1
 62
7
 10
28.70959848490418
 20
107.397175496717
 30
0
 11
27.49387113565443
 21
108.4539911582203
 31
0
  0
LINE
  8
1
 62
7
 10
73.55948527641723
 20
103.7586914430675
 30
0
 11
77.74508238191309
 21
107.3971754967171
 31
0
  0
LINE
  8
1
 62
7
 10
32.89519559040004
 20
103.7586914430675
 30
0
 11
28.70959848490418
 21
107.397175496717
 31
0
  0
LINE
  8
1
 62
7
 10
72.33938269300862
 20
102.6980724485351
 30
0
 11
73.55948527641723
 21
103.7586914430675
 31
0
  0
LINE
  8
1
 62
7
 10
34.11529817380865
 20
102.6980724485351
 30
0
 11
32.89519559040004
 21
103.7586914430675
 31
0
  0
LINE
  8
1
 62
7
 10
67.63314857187238
 20
98.60700554197319
 30
0
 11
72.33938269300862
 21
102.6980724485351
 31
0
  0
LINE
  8
1
 62
7
 10
38.82153229494489
 20
98.6070055419731
 30
0
 11
34.11529817380865
 21
102.6980724485351
 31
0
  0
LINE
  8
1
 62
7
 10
66.40256476934854
 20
97.5372753626677
 30
0
 11
67.63314857187238
 21
98.60700554197319
 31
0
  0
LINE
  8
1
 62
7
 10
40.05211609746873
 20
97.5372753626677
 30
0
 11
38.82153229494489
 21
98.6070055419731
 31
0
  0
LINE
  8
1
 62
7
 10
62.01846063636888
 20
93.72623178266321
 30
0
 11
66.40256476934854
 21
97.5372753626677
 31
0
  0
LINE
  8
1
 62
7
 10
44.4362202304484
 20
93.72623178266321
 30
0
 11
40.05211609746873
 21
97.5372753626677
 31
0
  0
LINE
  8
1
 62
7
 10
26.33205144511177
 20
107.3439248175847
 30
0
 11
24.89460518505636
 21
108.5934777877744
 31
0
  0
LINE
  8
1
 62
7
 10
26.33205144511179
 20
53.3715826324989
 30
0
 11
24.89460518505637
 21
52.12202966230919
 31
0
  0
LINE
  8
1
 62
7
 10
27.5428161064248
 20
106.2914231548887
 30
0
 11
26.33205144511177
 21
107.3439248175847
 31
0
  0
LINE
  8
1
 62
7
 10
27.54281610642483
 20
54.42408429519489
 30
0
 11
26.33205144511179
 21
53.3715826324989
 31
0
  0
LINE
  8
1
 62
7
 10
31.7073752079075
 20
102.6712271591179
 30
0
 11
27.5428161064248
 21
106.2914231548887
 31
0
  0
LINE
  8
1
 62
7
 10
31.70737520790751
 20
58.04428029096565
 30
0
 11
27.54281610642483
 21
54.42408429519489
 31
0
  0
LINE
  8
1
 62
7
 10
32.91984842361306
 20
101.6172402727477
 30
0
 11
31.7073752079075
 21
102.6712271591179
 31
0
  0
LINE
  8
1
 62
7
 10
32.91984842361307
 20
59.09826717733588
 30
0
 11
31.70737520790751
 21
58.04428029096565
 31
0
  0
LINE
  8
1
 62
7
 10
37.58667467484226
 20
97.5604301048616
 30
0
 11
32.91984842361306
 21
101.6172402727477
 31
0
  0
LINE
  8
1
 62
7
 10
37.58667467484226
 20
63.15507734522203
 30
0
 11
32.91984842361307
 21
59.09826717733588
 31
0
  0
LINE
  8
1
 62
7
 10
38.8031955420804
 20
96.5029246486948
 30
0
 11
37.58667467484226
 21
97.5604301048616
 31
0
  0
LINE
  8
1
 62
7
 10
38.8031955420804
 20
64.21258280138883
 30
0
 11
37.58667467484226
 21
63.15507734522203
 31
0
  0
LINE
  8
1
 62
7
 10
43.11367054295782
 20
92.75588589674361
 30
0
 11
38.8031955420804
 21
96.5029246486948
 31
0
  0
LINE
  8
1
 62
7
 10
43.11367054295781
 20
67.95962155333996
 30
0
 11
38.8031955420804
 21
64.21258280138883
 31
0
  0
LINE
  8
1
 62
7
 10
44.43622023044841
 20
66.98927566742043
 30
0
 11
40.05211609746873
 21
63.17823208741589
 31
0
  0
LINE
  8
1
 62
7
 10
62.01846063636888
 20
66.98927566742043
 30
0
 11
66.40256476934854
 21
63.17823208741589
 31
0
  0
LINE
  8
1
 62
7
 10
40.05211609746873
 20
63.17823208741589
 30
0
 11
38.82153229494491
 21
62.10850190811047
 31
0
  0
LINE
  8
1
 62
7
 10
66.40256476934854
 20
63.17823208741589
 30
0
 11
67.63314857187238
 21
62.10850190811047
 31
0
  0
LINE
  8
1
 62
7
 10
38.82153229494491
 20
62.10850190811047
 30
0
 11
34.11529817380866
 21
58.01743500154853
 31
0
  0
LINE
  8
1
 62
7
 10
67.63314857187238
 20
62.10850190811047
 30
0
 11
72.33938269300863
 21
58.01743500154853
 31
0
  0
LINE
  8
1
 62
7
 10
34.11529817380866
 20
58.01743500154853
 30
0
 11
32.89519559040002
 21
56.95681600701609
 31
0
  0
LINE
  8
1
 62
7
 10
72.33938269300863
 20
58.01743500154853
 30
0
 11
73.55948527641726
 21
56.95681600701609
 31
0
  0
LINE
  8
1
 62
7
 10
32.89519559040002
 20
56.95681600701609
 30
0
 11
28.70959848490418
 21
53.31833195336657
 31
0
  0
LINE
  8
1
 62
7
 10
73.55948527641726
 20
56.95681600701609
 30
0
 11
77.74508238191311
 21
53.31833195336657
 31
0
  0
LINE
  8
1
 62
7
 10
28.70959848490418
 20
53.31833195336657
 30
0
 11
27.49387113565444
 21
52.26151629186329
 31
0
  0
LINE
  8
1
 62
7
 10
77.74508238191311
 20
53.31833195336657
 30
0
 11
78.96080973116285
 21
52.26151629186329
 31
0
  0
LINE
  8
1
 62
7
 10
27.49387113565444
 20
52.26151629186329
 30
0
 11
26.0510540149439
 21
51.00729450373541
 31
0
  0
LINE
  8
1
 62
7
 10
78.96080973116285
 20
52.26151629186329
 30
0
 11
80.40362685187338
 21
51.00729450373542
 31
0
  0
LINE
  8
1
 62
7
 10
80.1226294217055
 20
53.3715826324989
 30
0
 11
81.56007568176091
 21
52.1220296623092
 31
0
  0
LINE
  8
1
 62
7
 10
80.12262942170548
 20
107.3439248175847
 30
0
 11
81.56007568176089
 21
108.5934777877744
 31
0
  0
LINE
  8
1
 62
7
 10
78.91186476039245
 20
54.42408429519487
 30
0
 11
80.1226294217055
 21
53.3715826324989
 31
0
  0
LINE
  8
1
 62
7
 10
78.91186476039243
 20
106.2914231548887
 30
0
 11
80.12262942170548
 21
107.3439248175847
 31
0
  0
LINE
  8
1
 62
7
 10
74.74730565890975
 20
58.04428029096565
 30
0
 11
78.91186476039245
 21
54.42408429519487
 31
0
  0
LINE
  8
1
 62
7
 10
74.74730565890975
 20
102.671227159118
 30
0
 11
78.91186476039243
 21
106.2914231548887
 31
0
  0
LINE
  8
1
 62
7
 10
73.53483244320421
 20
59.09826717733587
 30
0
 11
74.74730565890975
 21
58.04428029096565
 31
0
  0
LINE
  8
1
 62
7
 10
73.53483244320421
 20
101.6172402727477
 30
0
 11
74.74730565890975
 21
102.671227159118
 31
0
  0
LINE
  8
1
 62
7
 10
68.86800619197503
 20
63.15507734522203
 30
0
 11
73.53483244320421
 21
59.09826717733587
 31
0
  0
LINE
  8
1
 62
7
 10
68.86800619197503
 20
97.5604301048616
 30
0
 11
73.53483244320421
 21
101.6172402727477
 31
0
  0
LINE
  8
1
 62
7
 10
67.6514853247369
 20
64.21258280138883
 30
0
 11
68.86800619197503
 21
63.15507734522203
 31
0
  0
LINE
  8
1
 62
7
 10
67.65148532473688
 20
96.5029246486948
 30
0
 11
68.86800619197503
 21
97.5604301048616
 31
0
  0
LINE
  8
1
 62
7
 10
63.34101032385947
 20
67.95962155333996
 30
0
 11
67.6514853247369
 21
64.21258280138883
 31
0
  0
LINE
  8
1
 62
7
 10
63.34101032385946
 20
92.75588589674371
 30
0
 11
67.65148532473688
 21
96.5029246486948
 31
0
  0
LINE
  8
1
 62
2
  6
DASHDOT
 10
11.6876723925387
 20
80.3577537250418
 30
0
 11
45.477205099226
 21
80.3577537250418
 31
0
  0
LINE
  8
1
 62
2
  6
DASHDOT
 10
53.22734043340864
 20
38.9195203663743
 30
0
 11
53.22734043340864
 21
121.523510949558
 31
0
  0
LINE
  8
1
 62
7
 10
81.56007568176089
 20
108.5934777877744
 30
0
 11
84.96335846389218
 21
111.5519063753194
 31
0
  0
LINE
  8
1
 62
7
 10
80.40362685187337
 20
109.7082129463482
 30
0
 11
83.81778070697422
 21
112.6760916134515
 31
0
  0
LINE
  8
1
 62
7
 10
84.96335846389218
 20
111.5519063753194
 30
0
 11
86.05327029807187
 21
112.4993522781608
 31
0
  0
LINE
  8
1
 62
7
 10
83.81778070697422
 20
112.6760916134515
 30
0
 11
85.00357585168702
 21
113.7068876065172
 31
0
  0
LINE
  8
1
 62
7
 10
22.63690015984306
 20
112.6760916134515
 30
0
 11
21.45110501513025
 21
113.7068876065172
 31
0
  0
LINE
  8
1
 62
7
 10
21.49132240292507
 20
111.5519063753194
 30
0
 11
20.40141056874548
 21
112.4993522781607
 31
0
  0
LINE
  8
1
 62
7
 10
26.0510540149439
 20
109.7082129463482
 30
0
 11
22.63690015984306
 21
112.6760916134515
 31
0
  0
LINE
  8
1
 62
7
 10
24.89460518505636
 20
108.5934777877744
 30
0
 11
21.49132240292507
 21
111.5519063753194
 31
0
  0
LINE
  8
1
 62
7
 10
21.4913224029251
 20
49.16360107476417
 30
0
 11
20.40141056874546
 21
48.21615517192285
 31
0
  0
LINE
  8
1
 62
7
 10
22.63690015984306
 20
48.03941583663212
 30
0
 11
21.45110501513027
 21
47.00861984356642
 31
0
  0
LINE
  8
1
 62
7
 10
24.89460518505637
 20
52.12202966230919
 30
0
 11
21.4913224029251
 21
49.16360107476417
 31
0
  0
LINE
  8
1
 62
7
 10
26.0510540149439
 20
51.00729450373541
 30
0
 11
22.63690015984306
 21
48.03941583663212
 31
0
  0
LINE
  8
1
 62
7
 10
80.40362685187338
 20
51.00729450373542
 30
0
 11
83.81778070697423
 21
48.03941583663212
 31
0
  0
LINE
  8
1
 62
7
 10
81.56007568176091
 20
52.1220296623092
 30
0
 11
84.96335846389218
 21
49.16360107476416
 31
0
  0
LINE
  8
1
 62
7
 10
83.81778070697423
 20
48.03941583663212
 30
0
 11
85.003575851687
 21
47.00861984356642
 31
0
  0
LINE
  8
1
 62
7
 10
84.96335846389218
 20
49.16360107476416
 30
0
 11
86.05327029807184
 21
48.21615517192282
 31
0
  0
LINE
  8
1
 62
7
 10
133.1945487051938
 20
104.095012025357
 30
0
 11
133.1945487051938
 21
83.13298459305372
 31
0
  0
LINE
  8
1
 62
7
 10
134.7945487051938
 20
105.6950120253571
 30
0
 11
134.7945487051938
 21
55.02049542495092
 31
0
  0
LINE
  8
1
 62
7
 10
133.1945487051938
 20
54.35775372515401
 30
0
 11
133.1945487051938
 21
51.12049542495096
 31
0
  0
LINE
  8
1
 62
7
 10
134.7945487051938
 20
52.75775372515402
 30
0
 11
134.7945487051938
 21
49.52049542495097
 31
0
  0
LINE
  8
1
 62
7
 10
133.1945487051938
 20
117.657753725154
 30
0
 11
133.1945487051938
 21
106.357753725154
 31
0
  0
LINE
  8
1
 62
7
 10
134.7945487051938
 20
117.657753725154
 30
0
 11
134.7945487051938
 21
107.957753725154
 31
0
  0
ARC
  8
1
 62
7
 10
88.92734043340575
 20
44.65775372504291
 30
0
 40
2.249999999996934
 50
154.9999999999942
 51
165.0000000000078
  0
ARC
  8
1
 62
7
 10
88.92734043340863
 20
44.6577537250418
 30
0
 40
3.849999999999985
 50
154.9999999999999
 51
117.2144277208382
  0
ARC
  8
1
 62
7
 10
17.52734043340864
 20
44.6577537250418
 30
0
 40
3.850000000000012
 50
60.00000000000009
 51
19.21442772083887
  0
ARC
  8
1
 62
7
 10
17.52734043340864
 20
44.6577537250418
 30
0
 40
2.250000000000012
 50
60.00000000000019
 51
19.21442772083877
  0
ARC
  8
1
 62
7
 10
17.52734043340864
 20
116.0577537250418
 30
0
 40
3.850000000000031
 50
335.0000000000001
 51
297.2144277208386
  0
ARC
  8
1
 62
7
 10
17.52734043341018
 20
116.057753725041
 30
0
 40
2.249999999998289
 50
335.0000000000016
 51
345.0000000000089
  0
ARC
  8
1
 62
7
 10
88.92734043340995
 20
116.0577537250446
 30
0
 40
3.850000000003008
 50
240.0000000000035
 51
254.999999999992
  0
ARC
  8
1
 62
7
 10
88.92734043340678
 20
116.0577537250377
 30
0
 40
2.249999999995431
 50
239.999999999988
 51
255.000000000018
  0
ARC
  8
1
 62
7
 10
17.52734043340864
 20
116.0577537250418
 30
0
 40
2.249999999999986
 50
344.9999999999991
 51
297.2144277208379
  0
ARC
  8
1
 62
7
 10
88.92734043340863
 20
116.0577537250418
 30
0
 40
3.849999999999988
 50
255.0000000000002
 51
199.214427720838
  0
ARC
  8
1
 62
7
 10
88.92734043340863
 20
116.0577537250418
 30
0
 40
2.249999999999903
 50
254.9999999999996
 51
199.2144277208391
  0
ARC
  8
1
 62
7
 10
88.92734043340863
 20
44.6577537250418
 30
0
 40
2.250000000000006
 50
164.9999999999996
 51
117.2144277208384
  0
ARC
  8
1
 62
7
 10
53.22734043340864
 20
80.3577537250418
 30
0
 40
38.09999999999999
 50
47.51329257580133
 51
132.4867074241987
  0
ARC
  8
1
 62
7
 10
53.22734043340864
 20
80.3577537250418
 30
0
 40
36.50000000000004
 50
47.80012620988427
 51
132.1998737901158
  0
ARC
  8
1
 62
7
 10
53.22734043340864
 20
80.3577537250418
 30
0
 40
30.99999999999998
 50
49.01392098427785
 51
130.9860790157222
  0
ARC
  8
1
 62
7
 10
53.22734043340864
 20
80.3577537250418
 30
0
 40
29.40000000000001
 50
49.45316058793699
 51
130.546839412063
  0
ARC
  8
1
 62
7
 10
53.22734043340864
 20
80.3577537250418
 30
0
 40
23.25000000000004
 50
51.71273025137707
 51
128.2872697486231
  0
ARC
  8
1
 62
7
 10
53.22734043340864
 20
80.3577537250418
 30
0
 40
21.64999999999999
 50
52.51487812835828
 51
127.4851218716417
  0
ARC
  8
1
 62
7
 10
53.22734043340864
 20
80.3577537250418
 30
0
 40
16.00000000000002
 50
56.67105315121547
 51
123.3289468487845
  0
ARC
  8
1
 62
7
 10
53.22734043340864
 20
80.3577537250418
 30
0
 40
14.39999999999997
 50
58.37823020601795
 51
121.6217697939821
  0
ARC
  8
1
 62
7
 10
53.22734043340864
 20
80.3577537250418
 30
0
 40
8.499999999999998
 50
61.51203685456429
 51
118.4879631454357
  0
ARC
  8
1
 62
7
 10
53.22734043340864
 20
80.3577537250418
 30
0
 40
6.899999999999984
 50
60.31824978802653
 51
119.6817502119735
  0
ARC
  8
1
 62
7
 10
53.22734043340864
 20
80.3577537250418
 30
0
 40
38.10000000000002
 50
134.9033590392561
 51
225.096640960744
  0
ARC
  8
1
 62
7
 10
53.22734043340864
 20
80.3577537250418
 30
0
 40
36.50000000000001
 50
134.7234530891408
 51
225.2765469108592
  0
ARC
  8
1
 62
7
 10
53.22734043340864
 20
80.3577537250418
 30
0
 40
30.99999999999998
 50
133.9628989352885
 51
226.0371010647116
  0
ARC
  8
1
 62
7
 10
53.22734043340864
 20
80.3577537250418
 30
0
 40
29.39999999999998
 50
133.6880033834215
 51
226.3119966165785
  0
ARC
  8
1
 62
7
 10
53.22734043340864
 20
80.3577537250418
 30
0
 40
23.25000000000002
 50
132.2770971432142
 51
227.7229028567857
  0
ARC
  8
1
 62
7
 10
53.22734043340864
 20
80.3577537250418
 30
0
 40
21.65000000000002
 50
131.7776987726813
 51
228.2223012273187
  0
ARC
  8
1
 62
7
 10
53.22734043340864
 20
80.3577537250418
 30
0
 40
15.99999999999996
 50
129.2055502111979
 51
230.7944497888022
  0
ARC
  8
1
 62
7
 10
53.22734043340999
 20
80.3577537250418
 30
0
 40
14.4000000000008
 50
128.1304711640697
 51
231.8695288359305
  0
ARC
  8
1
 62
7
 10
53.22734043340864
 20
80.3577537250418
 30
0
 40
8.500000000000028
 50
129.4031054400397
 51
230.5968945599602
  0
ARC
  8
1
 62
7
 10
53.22734043340864
 20
80.3577537250418
 30
0
 40
6.899999999999985
 50
133.5961704548579
 51
226.4038295451422
  0
ARC
  8
1
 62
7
 10
53.22734043340864
 20
80.3577537250418
 30
0
 40
6.899999999999996
 50
313.5961704548578
 51
46.40382954514208
  0
ARC
  8
1
 62
7
 10
53.22734043340864
 20
80.3577537250418
 30
0
 40
8.500000000000002
 50
309.4031054400398
 51
50.59689455996035
  0
ARC
  8
1
 62
7
 10
53.22734043340864
 20
80.3577537250418
 30
0
 40
14.4
 50
238.3782302060181
 51
301.621769793982
  0
ARC
  8
1
 62
7
 10
53.22734043340864
 20
80.3577537250418
 30
0
 40
15.99999999999999
 50
236.6710531512154
 51
303.3289468487846
  0
ARC
  8
1
 62
7
 10
53.22734043340864
 20
80.3577537250418
 30
0
 40
21.65
 50
232.5148781283583
 51
307.4851218716416
  0
ARC
  8
1
 62
7
 10
53.22734043340864
 20
80.3577537250418
 30
0
 40
23.24999999999999
 50
231.712730251377
 51
308.287269748623
  0
ARC
  8
1
 62
7
 10
53.22734043340864
 20
80.3577537250418
 30
0
 40
29.4
 50
229.4531605879369
 51
310.5468394120631
  0
ARC
  8
1
 62
7
 10
53.22734043340864
 20
80.3577537250418
 30
0
 40
31.00000000000001
 50
229.0139209842778
 51
310.9860790157222
  0
ARC
  8
1
 62
7
 10
53.22734043340864
 20
80.3577537250418
 30
0
 40
36.50000000000001
 50
227.8001262098842
 51
312.1998737901158
  0
ARC
  8
1
 62
7
 10
53.22734043340864
 20
80.3577537250418
 30
0
 40
38.09999999999999
 50
227.5132925758013
 51
312.4867074241986
  0
ARC
  8
1
 62
7
 10
53.22734043340864
 20
80.3577537250418
 30
0
 40
38.10000000000001
 50
314.9033590392561
 51
45.09664096074396
  0
ARC
  8
1
 62
7
 10
53.22734043340864
 20
80.3577537250418
 30
0
 40
36.50000000000001
 50
314.7234530891408
 51
45.27654691085922
  0
ARC
  8
1
 62
7
 10
53.22734043340864
 20
80.3577537250418
 30
0
 40
30.99999999999999
 50
313.9628989352884
 51
46.03710106471167
  0
ARC
  8
1
 62
7
 10
53.22734043340864
 20
80.3577537250418
 30
0
 40
29.40000000000001
 50
313.6880033834214
 51
46.31199661657852
  0
ARC
  8
1
 62
7
 10
53.22734043340864
 20
80.3577537250418
 30
0
 40
23.25
 50
312.2770971432142
 51
47.72290285678579
  0
ARC
  8
1
 62
7
 10
53.22734043340864
 20
80.3577537250418
 30
0
 40
21.65000000000001
 50
311.7776987726813
 51
48.22230122731877
  0
ARC
  8
1
 62
7
 10
53.22734043340864
 20
80.3577537250418
 30
0
 40
16
 50
309.2055502111978
 51
50.79444978880235
  0
ARC
  8
1
 62
7
 10
53.22734043340864
 20
80.3577537250418
 30
0
 40
14.40000000000001
 50
308.1304711640653
 51
51.86952883593479
  0
ARC
  8
1
 62
7
 10
53.22734043340864
 20
80.3577537250418
 30
0
 40
6.899999999999994
 50
240.3182497880266
 51
299.6817502119734
  0
ARC
  8
1
 62
7
 10
53.22734043340864
 20
80.3577537250418
 30
0
 40
8.500000000000002
 50
241.5120368545643
 51
298.4879631454357
  0
ARC
  8
1
 62
7
 10
53.22734043346362
 20
80.357753725099
 30
0
 40
39.99999999992067
 50
44.90174160441367
 51
47.20266617672197
  0
ARC
  8
1
 62
7
 10
53.22734043341507
 20
80.3577537250484
 30
0
 40
44.49999999999076
 50
44.50666219777457
 51
46.57333139708328
  0
ARC
  8
1
 62
7
 10
53.22734043341072
 20
80.3577537250399
 30
0
 40
44.50000000000282
 50
133.4266686029172
 51
135.4933378022253
  0
ARC
  8
1
 62
7
 10
53.22734043341593
 20
80.3577537250344
 30
0
 40
40.0000000000104
 50
132.7973338232806
 51
135.0982583955838
  0
ARC
  8
1
 62
7
 10
53.2273404334347
 20
80.35775372506799
 30
0
 40
44.50000000003693
 50
224.5066621977754
 51
226.5733313970819
  0
ARC
  8
1
 62
7
 10
53.22734043344076
 20
80.3577537250751
 30
0
 40
40.00000000004626
 50
224.9017416044174
 51
227.2026661767185
  0
ARC
  8
1
 62
7
 10
53.22734043344695
 20
80.357753725002
 30
0
 40
39.99999999994476
 50
312.7973338232786
 51
315.0982583955856
  0
ARC
  8
1
 62
7
 10
53.22734043344574
 20
80.3577537250036
 30
0
 40
44.49999999994676
 50
313.426668602916
 51
315.4933378022267
  0
ARC
  8
1
 62
7
 10
132.3945487051938
 20
104.4263828752555
 30
0
 40
0.8000000000000286
 50
134.999999999995
 51
180
  0
ARC
  8
1
 62
7
 10
135.7945487051938
 20
107.8263828752555
 30
0
 40
0.7999999999999583
 50
315
 51
0
  0
ARC
  8
1
 62
7
 10
135.7945487051938
 20
119.107753725154
 30
0
 40
0.7999999999999972
 50
90
 51
180
  0
ARC
  8
1
 62
7
 10
135.7945487051938
 20
119.107753725154
 30
0
 40
0.8000000000000114
 50
0
 51
90
  0
ARC
  8
1
 62
7
 10
132.3945487051938
 20
56.28912457505247
 30
0
 40
0.8000000000000114
 50
180
 51
225.0000000000015
  0
ARC
  8
1
 62
7
 10
135.7945487051938
 20
52.88912457505249
 30
0
 40
0.8000000000000114
 50
0
 51
45.00000000000144
  0
ARC
  8
1
 62
7
 10
135.7945487051938
 20
41.60775372515398
 30
0
 40
0.799999999999983
 50
180
 51
270
  0
ARC
  8
1
 62
7
 10
135.7945487051938
 20
41.60775372515398
 30
0
 40
0.8000000000000043
 50
270
 51
0
  0
ARC
  8
1
 62
7
 10
132.3945487051938
 20
83.13298459305372
 30
0
 40
0.8000000000000114
 50
180
 51
0
  0
ARC
  8
1
 62
7
 10
132.3945487051938
 20
77.58252285725425
 30
0
 40
0.799999999999983
 50
0
 51
180
  0
ARC
  8
1
 62
7
 10
19.74535153975498
 20
111.744642697938
 30
0
 40
0.9999999999999356
 50
48.99999999999751
 51
117.2144277208393
  0
ARC
  8
1
 62
7
 10
19.74535153975498
 20
111.744642697938
 30
0
 40
2.599999999999957
 50
49.00000000000067
 51
117.2144277208395
  0
ARC
  8
1
 62
7
 10
84.34751682269652
 20
114.46159718674
 30
0
 40
1.000000000000011
 50
310.9999999999988
 51
19.21442772083996
  0
ARC
  8
1
 62
7
 10
84.34751682269652
 20
114.46159718674
 30
0
 40
2.600000000000008
 50
311.0000000000006
 51
19.21442772083773
  0
ARC
  8
1
 62
7
 10
86.70932932706235
 20
48.9708647521456
 30
0
 40
1.000000000000009
 50
229.0000000000001
 51
297.2144277208378
  0
ARC
  8
1
 62
7
 10
86.70932932706235
 20
48.9708647521456
 30
0
 40
2.599999999999997
 50
228.9999999999992
 51
297.2144277208379
  0
ARC
  8
1
 62
7
 10
22.10716404412078
 20
46.25391026334364
 30
0
 40
1.000000000000007
 50
130.9999999999997
 51
199.2144277208375
  0
ARC
  8
1
 62
7
 10
22.10716404412078
 20
46.25391026334364
 30
0
 40
2.6
 50
130.9999999999999
 51
199.2144277208384
  0
ARC
  8
1
 62
7
 10
72.55208830025279
 20
80.3577537250418
 30
0
 40
17
 50
226.1614290829402
 51
229
  0
ARC
  8
1
 62
7
 10
33.90259256656449
 20
80.3577537250418
 30
0
 40
16.99999999999996
 50
46.16142908294012
 51
48.99999999999997
  0
ARC
  8
1
 62
7
 10
72.55208830025279
 20
80.3577537250418
 30
0
 40
15.4
 50
227.3518837915653
 51
229
  0
ARC
  8
1
 62
7
 10
33.90259256656449
 20
80.3577537250418
 30
0
 40
15.39999999999995
 50
47.35188379156517
 51
49.00000000000008
  0
ARC
  8
1
 62
7
 10
72.55208830025279
 20
80.3577537250418
 30
0
 40
16.99999999999997
 50
131.0000000000001
 51
133.8385709170599
  0
ARC
  8
1
 62
7
 10
33.90259256656449
 20
80.3577537250418
 30
0
 40
17
 50
26.06934713300311
 51
46.16142908294012
  0
ARC
  8
1
 62
7
 10
72.55208830025279
 20
80.3577537250418
 30
0
 40
16.99999999999998
 50
133.8385709170599
 51
153.9306528669969
  0
ARC
  8
1
 62
7
 10
33.90259256656449
 20
80.3577537250418
 30
0
 40
16.99999999999999
 50
20.64803197829299
 51
26.06934713300311
  0
ARC
  8
1
 62
7
 10
72.55208830025279
 20
80.3577537250418
 30
0
 40
17
 50
153.9306528669969
 51
159.351968021707
  0
ARC
  8
1
 62
7
 10
33.90259256656449
 20
80.3577537250418
 30
0
 40
17.00000000000001
 50
339.351968021707
 51
20.64803197829299
  0
ARC
  8
1
 62
7
 10
33.90259256656449
 20
80.3577537250418
 30
0
 40
15.4
 50
25.2449994853842
 51
47.35188379156517
  0
ARC
  8
1
 62
7
 10
33.90259256656449
 20
80.3577537250418
 30
0
 40
15.39999999999999
 50
310.9999999999999
 51
312.6481162084348
  0
ARC
  8
1
 62
7
 10
33.90259256656449
 20
80.3577537250418
 30
0
 40
15.4
 50
18.93451396740871
 51
25.2449994853842
  0
ARC
  8
1
 62
7
 10
33.90259256656449
 20
80.3577537250418
 30
0
 40
15.40000000000001
 50
312.6481162084348
 51
334.7550005146159
  0
ARC
  8
1
 62
7
 10
33.90259256656449
 20
80.3577537250418
 30
0
 40
15.4
 50
341.0654860325913
 51
18.93451396740871
  0
ARC
  8
1
 62
7
 10
33.90259256656449
 20
80.3577537250418
 30
0
 40
15.39999999999999
 50
334.7550005146159
 51
341.0654860325913
  0
ARC
  8
1
 62
7
 10
72.55208830025279
 20
80.3577537250418
 30
0
 40
15.4
 50
161.0654860325913
 51
198.9345139674088
  0
ARC
  8
1
 62
7
 10
72.55208830025279
 20
80.3577537250418
 30
0
 40
15.40000000000001
 50
154.7550005146158
 51
161.0654860325913
  0
ARC
  8
1
 62
7
 10
72.55208830025279
 20
80.3577537250418
 30
0
 40
15.4
 50
198.9345139674088
 51
205.2449994853841
  0
ARC
  8
1
 62
7
 10
72.55208830025279
 20
80.3577537250418
 30
0
 40
15.40000000000003
 50
132.6481162084346
 51
154.7550005146158
  0
ARC
  8
1
 62
7
 10
33.90259256656449
 20
80.3577537250418
 30
0
 40
17
 50
310.9999999999999
 51
313.8385709170598
  0
ARC
  8
1
 62
7
 10
72.55208830025279
 20
80.3577537250418
 30
0
 40
17
 50
206.0693471330031
 51
226.1614290829402
  0
ARC
  8
1
 62
7
 10
72.55208830025279
 20
80.3577537250418
 30
0
 40
15.4
 50
205.2449994853841
 51
227.3518837915653
  0
ARC
  8
1
 62
7
 10
72.55208830025279
 20
80.3577537250418
 30
0
 40
15.39999999999998
 50
130.9999999999999
 51
132.6481162084346
  0
ARC
  8
1
 62
7
 10
33.90259256656449
 20
80.3577537250418
 30
0
 40
17
 50
333.9306528669969
 51
339.351968021707
  0
ARC
  8
1
 62
7
 10
72.55208830025279
 20
80.3577537250418
 30
0
 40
17
 50
159.351968021707
 51
200.648031978293
  0
ARC
  8
1
 62
7
 10
33.90259256656449
 20
80.3577537250418
 30
0
 40
17.00000000000001
 50
313.8385709170598
 51
333.9306528669969
  0
ARC
  8
1
 62
7
 10
72.55208830025279
 20
80.3577537250418
 30
0
 40
17
 50
200.648031978293
 51
206.0693471330031
  0
ARC
  8
1
 62
7
 10
133.9945487051938
 20
43.05775372515399
 30
0
 40
0.7999999999999972
 50
270
 51
0
  0
ARC
  8
1
 62
7
 10
133.9945487051938
 20
43.05775372515399
 30
0
 40
0.8000000000000114
 50
180
 51
270
  0
ARC
  8
1
 62
7
 10
133.9945487051938
 20
117.657753725154
 30
0
 40
0.8000000000000114
 50
90
 51
180
  0
ARC
  8
1
 62
7
 10
133.9945487051938
 20
117.657753725154
 30
0
 40
0.799999999999983
 50
0
 51
90
  0
ENDSEC
  0
EOF
