  0
SECTION
  2
HEADER
  9
$ACADVER
  1
AC1009
  9
$INSBASE
 10
0
 20
0
  9
$EXTMIN
 10
874.8656891111375
 20
1044.50156436032
  9
$EXTMAX
 10
1140.612429295805
 20
1253.56233930251
  9
$LIMMIN
 10
874.8656891111375
 20
1044.50156436032
  9
$LIMMAX
 10
1140.612429295805
 20
1253.56233930251
  9
$VIEWCTR
 10
10
 20
10
  9
$VIEWSIZE
 40
10
  9
$SNAPMODE
 70
0
  9
$SNAPUNIT
 10
1
 20
1
  9
$SNAPBASE
 10
0
 20
0
  9
$SNAPANG
 50
0
  9
$SNAPSTYLE
 70
0
  9
$SNAPISOPAIR
 70
0
  9
$GRIDMODE
 70
0
  9
$GRIDUNIT
 10
0
 20
0
  9
$ORTHOMODE
 70
0
  9
$REGENMODE
 70
1
  9
$FILLMODE
 70
1
  9
$QTEXTMODE
 70
0
  9
$DRAGMODE
 70
2
  9
$LTSCALE
 40
1
  9
$OSMODE
 70
0
  9
$ATTMODE
 70
1
  9
$TEXTSIZE
 40
3.5
  9
$TRACEWID
 40
0.5
  9
$TEXTSTYLE
  7
STANDARD
  9
$CLAYER
  8
0
  9
$CELTYPE
  6
BYLAYER
  9
$CECOLOR
 62
256
  9
$DIMSCALE
 40
1
  9
$DIMASZ
 40
0.18
  9
$DIMEXO
 40
0.0625
  9
$DIMDLI
 40
0.38
  9
$DIMRND
 40
0
  9
$DIMDLE
 40
0
  9
$DIMEXE
 40
0.18
  9
$DIMTP
 40
0
  9
$DIMTM
 40
0
  9
$DIMTXT
 40
0.18
  9
$DIMCEN
 40
0.09
  9
$DIMTSZ
 40
0
  9
$DIMTOL
 70
0
  9
$DIMLIM
 70
0
  9
$DIMTIH
 70
1
  9
$DIMTOH
 70
1
  9
$DIMSE1
 70
0
  9
$DIMSE2
 70
0
  9
$DIMTAD
 70
0
  9
$DIMZIN
 70
0
  9
$DIMBLK
  1

  9
$DIMASO
 70
1
  9
$DIMSHO
 70
1
  9
$DIMPOST
  1

  9
$DIMAPOST
  1

  9
$DIMALT
 70
0
  9
$DIMALTD
 70
2
  9
$DIMALTF
 40
25.4
  9
$DIMLFAC
 40
1
  9
$DIMTOFL
 70
0
  9
$DIMTVP
 40
0
  9
$DIMTIX
 70
0
  9
$DIMSOXD
 70
0
  9
$DIMSAH
 70
0
  9
$DIMBLK1
  1

  9
$DIMBLK2
  1

  9
$DIMSTYLE
  2
*UNNAMED
  9
$DIMCLRD
 70
0
  9
$DIMCLRE
 70
0
  9
$DIMCLRT
 70
0
  9
$DIMTFAC
 40
1
  9
$DIMGAP
 40
0.09
  9
$LUNITS
 70
2
  9
$LUPREC
 70
4
  9
$AXISMODE
 70
0
  9
$AXISUNIT
 10
0
 20
0
  9
$SKETCHINC
 40
0.1
  9
$FILLETRAD
 40
2
  9
$AUNITS
 70
0
  9
$AUPREC
 70
0
  9
$MENU
  1
ACAD
  9
$ELEVATION
 40
0
  9
$THICKNESS
 40
0
  9
$VIEWDIR
 10
0
 20
0
 30
1
  9
$LIMCHECK
 70
0
  9
$BLIPMODE
 70
1
  9
$CHAMFERA
 40
0
  9
$CHAMFERB
 40
0
  9
$FASTZOOM
 70
1
  9
$SKPOLY
 70
0
  9
$ANGBASE
 50
0
  9
$ANGDIR
 70
0
  9
$PDMODE
 70
0
  9
$PDSIZE
 40
0
  9
$PLINEWID
 40
0
  9
$COORDS
 70
2
  0
ENDSEC
  0
SECTION
  2
TABLES
  0
TABLE
  2
DIMSTYLE
 70
0
  0
ENDTAB
  0
TABLE
  2
LTYPE
 70
9
  0
LTYPE
  2
CONTINUOUS
 70
64
  3
Solid line
 72
65
 73
0
 40
0
  0
LTYPE
  2
BORDER
 70
64
  3
__ __ . __ __ .
 72
65
 73
6
 40
12.23833671903074
 49
3.496667634008783
 49
-1.748333817004391
 49
3.496667634008783
 49
-1.748333817004391
 49
0
 49
-1.748333817004391
  0
LTYPE
  2
CENTER
 70
64
  3
____ _ ____ _
 72
65
 73
4
 40
13.98667053603513
 49
8.741669085021957
 49
-1.748333817004391
 49
1.748333817004391
 49
-1.748333817004391
  0
LTYPE
  2
DASHDOT
 70
64
  3
__ . __ . __ .
 72
65
 73
4
 40
6.993335268017566
 49
3.496667634008783
 49
-1.748333817004391
 49
0
 49
-1.748333817004391
  0
LTYPE
  2
DASHED
 70
64
  3
__ __ __ __ __
 72
65
 73
2
 40
5.245001451013174
 49
3.496667634008783
 49
-1.748333817004391
  0
LTYPE
  2
DIVIDE
 70
64
  3
__ . . __ . . 
 72
65
 73
6
 40
8.741669085021957
 49
3.496667634008783
 49
-1.748333817004391
 49
0
 49
-1.748333817004391
 49
0
 49
-1.748333817004391
  0
LTYPE
  2
DOT
 70
64
  3
..............
 72
65
 73
4
 40
3.496667634008783
 49
0
 49
-1.748333817004391
 49
0
 49
-1.748333817004391
  0
LTYPE
  2
HIDDEN
 70
64
  3
_ _ _ _ _ _ _
 72
65
 73
2
 40
2.622500725506587
 49
1.748333817004391
 49
-0.8741669085021957
  0
LTYPE
  2
PHANTOM
 70
64
  3
_____ _ _ _____ _ _ 
 72
65
 73
6
 40
17.48333817004392
 49
8.741669085021957
 49
-1.748333817004391
 49
1.748333817004391
 49
-1.748333817004391
 49
1.748333817004391
 49
-1.748333817004391
  0
ENDTAB
  0
TABLE
  2
LAYER
 70
3
  0
LAYER
  2
1
 70
0
 62
7
  6
CONTINUOUS
  0
LAYER
  2
0
 70
0
 62
7
  6
CONTINUOUS
  0
ENDTAB
  0
TABLE
  2
STYLE
 70
4
  0
STYLE
  2
STANDARD
 70
0
 40
0
 41
1
 50
0
 71
0
 42
3.5
  3
txt
  4

  0
STYLE
  2
SIMPLEX
 70
0
 40
0
 41
1
 50
0
 71
0
 42
3.5
  3
simplex
  4

  0
STYLE
  2
COMPLEX
 70
0
 40
0
 41
1
 50
0
 71
0
 42
3.5
  3
complex
  4

  0
STYLE
  2
ITALIC
 70
0
 40
0
 41
1
 50
0
 71
0
 42
3.5
  3
italic
  4

  0
ENDTAB
  0
TABLE
  2
VIEW
 70
0
  0
ENDTAB
  0
ENDSEC
  0
SECTION
  2
BLOCKS
  0
ENDSEC
  0
SECTION
  2
ENTITIES
  0
LINE
  8
1
 62
7
 10
1133.199540622396
 20
1150.76691663129
 30
0
 11
1133.899540622396
 21
1150.76691663129
 31
0
  0
LINE
  8
1
 62
7
 10
1133.199540622396
 20
1146.46691663129
 30
0
 11
1133.899540622396
 21
1146.46691663129
 31
0
  0
LINE
  8
1
 62
7
 10
1133.199540622396
 20
1151.56691663129
 30
0
 11
1133.199540622396
 21
1145.66691663129
 31
0
  0
LINE
  8
1
 62
7
 10
1131.599540622396
 20
1151.56691663129
 30
0
 11
1131.599540622396
 21
1148.61691663129
 31
0
  0
LINE
  8
1
 62
7
 10
1133.899540622396
 20
1152.36691663129
 30
0
 11
1132.399540622395
 21
1152.36691663129
 31
0
  0
LINE
  8
1
 62
7
 10
1136.299540622395
 20
1148.61691663129
 30
0
 11
1136.299540622395
 21
1236.91691663129
 31
0
  0
LINE
  8
1
 62
7
 10
1134.699540622396
 20
1148.61691663129
 30
0
 11
1134.699540622396
 21
1188.616916631291
 31
0
  0
LINE
  8
1
 62
7
 10
1134.699540622396
 20
1188.616916631291
 30
0
 11
1134.699540622396
 21
1237.748791499865
 31
0
  0
LINE
  8
1
 62
7
 10
1134.147429483864
 20
1238.957894032329
 30
0
 11
1133.199540622396
 21
1239.779397712268
 31
0
  0
LINE
  8
1
 62
7
 10
1133.040961978633
 20
1237.775234656234
 30
0
 11
1132.149184380027
 21
1238.638328738864
 31
0
  0
LINE
  8
1
 62
7
 10
1131.599540622396
 20
1239.845288458207
 30
0
 11
1131.599540622396
 21
1247.316916631289
 31
0
  0
LINE
  8
1
 62
7
 10
1133.199540622396
 20
1239.779397712268
 30
0
 11
1133.199540622396
 21
1247.316916631289
 31
0
  0
LINE
  8
1
 62
7
 10
1134.699540622396
 20
1188.616916631291
 30
0
 11
1133.099540622396
 21
1188.616916631291
 31
0
  0
LINE
  8
1
 62
7
 10
1133.099540622396
 20
1237.633813299996
 30
0
 11
1133.099540622396
 21
1188.616916631291
 31
0
  0
LINE
  8
1
 62
7
 10
1131.599540622396
 20
1148.61691663129
 30
0
 11
1131.599540622396
 21
1145.66691663129
 31
0
  0
LINE
  8
1
 62
7
 10
1132.399540622395
 20
1144.86691663129
 30
0
 11
1133.899540622396
 21
1144.86691663129
 31
0
  0
LINE
  8
1
 62
7
 10
1136.299540622395
 20
1060.31691663129
 30
0
 11
1136.299540622395
 21
1148.61691663129
 31
0
  0
LINE
  8
1
 62
7
 10
1134.699540622396
 20
1108.616916631289
 30
0
 11
1134.699540622396
 21
1148.61691663129
 31
0
  0
LINE
  8
1
 62
7
 10
1134.699540622396
 20
1059.485041762715
 30
0
 11
1134.699540622396
 21
1108.616916631289
 31
0
  0
LINE
  8
1
 62
7
 10
1133.199540622396
 20
1057.454435550312
 30
0
 11
1134.147429483864
 21
1058.275939230251
 31
0
  0
LINE
  8
1
 62
7
 10
1132.149184380027
 20
1058.595504523716
 30
0
 11
1133.040961978633
 21
1059.458598606346
 31
0
  0
LINE
  8
1
 62
7
 10
1131.599540622396
 20
1049.916916631291
 30
0
 11
1131.599540622396
 21
1057.388544804373
 31
0
  0
LINE
  8
1
 62
7
 10
1133.199540622396
 20
1049.916916631291
 30
0
 11
1133.199540622396
 21
1057.454435550312
 31
0
  0
LINE
  8
1
 62
7
 10
1133.099540622396
 20
1108.616916631289
 30
0
 11
1134.699540622396
 21
1108.616916631289
 31
0
  0
LINE
  8
1
 62
7
 10
1133.099540622396
 20
1108.616916631289
 30
0
 11
1133.099540622396
 21
1059.600019962584
 31
0
  0
LINE
  8
1
 62
2
  6
CENTER
 10
1129.120625721725
 20
1148.61691663129
 30
0
 11
1140.612429295805
 21
1148.61691663129
 31
0
  0
LINE
  8
1
 62
2
  6
CENTER
 10
979.8656891111375
 20
1044.50163112156
 30
0
 11
979.8656891111375
 21
1050.71708091751
 31
0
  0
LINE
  8
1
 62
2
  6
CENTER
 10
979.8656891111375
 20
1253.56233930251
 30
0
 11
979.8656891111375
 21
1044.50156436032
 31
0
  0
LINE
  8
1
 62
7
 10
985.6156891111367
 20
1146.467014156269
 30
0
 11
985.6156891111369
 21
1144.867014156269
 31
0
  0
LINE
  8
1
 62
7
 10
997.3338744776827
 20
1146.46701415627
 30
0
 11
985.6156891111367
 21
1146.467014156269
 31
0
  0
LINE
  8
1
 62
7
 10
997.0615461703244
 20
1144.86701415627
 30
0
 11
985.6156891111369
 21
1144.867014156269
 31
0
  0
LINE
  8
1
 62
7
 10
974.1156891111411
 20
1152.367014156271
 30
0
 11
974.1156891111411
 21
1150.767014156269
 31
0
  0
LINE
  8
1
 62
7
 10
962.3975037445916
 20
1150.76701415627
 30
0
 11
974.1156891111411
 21
1150.767014156269
 31
0
  0
LINE
  8
1
 62
7
 10
962.6698320519499
 20
1152.36701415627
 30
0
 11
974.1156891111411
 21
1152.367014156271
 31
0
  0
LINE
  8
1
 62
2
  6
CENTER
 10
937.8656891111375
 20
1148.61701415627
 30
0
 11
1084.674425391408
 21
1148.61701415627
 31
0
  0
LINE
  8
1
 62
7
 10
983.6156891111375
 20
1192.055447599478
 30
0
 11
983.6156891111375
 21
1196.971822603828
 31
0
  0
LINE
  8
1
 62
7
 10
1023.304122554345
 20
1152.36701415627
 30
0
 11
1028.220497558695
 21
1152.36701415627
 31
0
  0
LINE
  8
1
 62
7
 10
977.7156891111374
 20
1192.163971570078
 30
0
 11
977.7156891111374
 21
1197.069336082056
 31
0
  0
LINE
  8
1
 62
7
 10
982.0156891111376
 20
1192.163971570078
 30
0
 11
982.0156891111376
 21
1197.069336082056
 31
0
  0
LINE
  8
1
 62
7
 10
936.4272556679296
 20
1152.36701415627
 30
0
 11
931.5108806635799
 21
1152.36701415627
 31
0
  0
LINE
  8
1
 62
7
 10
976.1156891111375
 20
1192.055447599478
 30
0
 11
976.1156891111375
 21
1196.971822603828
 31
0
  0
LINE
  8
1
 62
7
 10
936.3187316973297
 20
1146.46701415627
 30
0
 11
931.4133671853515
 21
1146.46701415627
 31
0
  0
LINE
  8
1
 62
7
 10
936.3187316973297
 20
1150.76701415627
 30
0
 11
932.4143719534443
 21
1150.76701415627
 31
0
  0
LINE
  8
1
 62
7
 10
976.1156891111375
 20
1105.178580713062
 30
0
 11
976.1156891111375
 21
1100.262205708712
 31
0
  0
LINE
  8
1
 62
7
 10
936.4272556679296
 20
1144.86701415627
 30
0
 11
931.5108806635797
 21
1144.86701415627
 31
0
  0
LINE
  8
1
 62
7
 10
1023.304122554345
 20
1144.86701415627
 30
0
 11
1027.360534437708
 21
1144.86701415627
 31
0
  0
LINE
  8
1
 62
7
 10
983.6156891111375
 20
1105.178580713062
 30
0
 11
983.6156891111375
 21
1100.262205708712
 31
0
  0
LINE
  8
1
 62
7
 10
1023.412646524945
 20
1150.76701415627
 30
0
 11
1028.318011036924
 21
1150.76701415627
 31
0
  0
LINE
  8
1
 62
7
 10
1023.412646524945
 20
1146.46701415627
 30
0
 11
1028.318011036924
 21
1146.46701415627
 31
0
  0
LINE
  8
1
 62
7
 10
1021.810623251031
 20
1146.46701415627
 30
0
 11
1023.412646524945
 21
1146.46701415627
 31
0
  0
LINE
  8
1
 62
7
 10
1021.69794341329
 20
1144.86701415627
 30
0
 11
1023.304122554345
 21
1144.86701415627
 31
0
  0
LINE
  8
1
 62
7
 10
983.6156891111375
 20
1106.784759854116
 30
0
 11
983.6156891111375
 21
1105.178580713062
 31
0
  0
LINE
  8
1
 62
7
 10
982.0156891111376
 20
1105.070056742462
 30
0
 11
982.0156891111376
 21
1100.164692230484
 31
0
  0
LINE
  8
1
 62
7
 10
977.7156891111374
 20
1105.070056742462
 30
0
 11
977.7156891111374
 21
1100.97277500841
 31
0
  0
LINE
  8
1
 62
7
 10
982.0156891111376
 20
1106.672080016376
 30
0
 11
982.0156891111376
 21
1105.070056742462
 31
0
  0
LINE
  8
1
 62
7
 10
977.7156891111374
 20
1106.672080016376
 30
0
 11
977.7156891111374
 21
1105.070056742462
 31
0
  0
LINE
  8
1
 62
7
 10
976.1156891111375
 20
1106.784759854116
 30
0
 11
976.1156891111373
 21
1131.421157097083
 31
0
  0
LINE
  8
1
 62
7
 10
938.0334348089846
 20
1144.86701415627
 30
0
 11
936.4272556679296
 21
1144.86701415627
 31
0
  0
LINE
  8
1
 62
7
 10
937.9207549712439
 20
1146.46701415627
 30
0
 11
936.3187316973297
 21
1146.46701415627
 31
0
  0
LINE
  8
1
 62
7
 10
937.9207549712442
 20
1150.76701415627
 30
0
 11
936.3187316973297
 21
1150.76701415627
 31
0
  0
LINE
  8
1
 62
7
 10
938.0334348089846
 20
1152.36701415627
 30
0
 11
936.4272556679296
 21
1152.36701415627
 31
0
  0
LINE
  8
1
 62
7
 10
976.1156891111375
 20
1190.449268458422
 30
0
 11
976.1156891111375
 21
1192.055447599478
 31
0
  0
LINE
  8
1
 62
7
 10
977.7156891111374
 20
1190.561948296164
 30
0
 11
977.7156891111374
 21
1192.163971570078
 31
0
  0
LINE
  8
1
 62
7
 10
983.6156891111375
 20
1190.449268458422
 30
0
 11
983.6156891111375
 21
1192.055447599478
 31
0
  0
LINE
  8
1
 62
7
 10
1021.69794341329
 20
1152.36701415627
 30
0
 11
1023.304122554345
 21
1152.36701415627
 31
0
  0
LINE
  8
1
 62
7
 10
1021.810623251031
 20
1150.76701415627
 30
0
 11
1023.412646524945
 21
1150.76701415627
 31
0
  0
LINE
  8
1
 62
7
 10
983.615689111137
 20
1148.61701415627
 30
0
 11
983.615689111138
 21
1131.421157097083
 31
0
  0
LINE
  8
1
 62
7
 10
982.0156891111351
 20
1148.617014156276
 30
0
 11
983.615689111137
 21
1148.61701415627
 31
0
  0
LINE
  8
1
 62
7
 10
982.0156891111351
 20
1148.617014156276
 30
0
 11
982.0156891111374
 21
1131.148828789724
 31
0
  0
LINE
  8
1
 62
7
 10
977.7156891111374
 20
1100.97277500841
 30
0
 11
977.7156891111374
 21
1100.164692230484
 31
0
  0
LINE
  8
1
 62
7
 10
977.715689111136
 20
1142.86701415627
 30
0
 11
977.7156891111372
 21
1131.148828789724
 31
0
  0
LINE
  8
1
 62
7
 10
976.1156891111361
 20
1142.867014156264
 30
0
 11
977.715689111136
 21
1142.86701415627
 31
0
  0
LINE
  8
1
 62
7
 10
976.1156891111375
 20
1106.784759854116
 30
0
 11
976.1156891111375
 21
1105.178580713062
 31
0
  0
LINE
  8
1
 62
7
 10
979.8656891111375
 20
1144.867014156268
 30
0
 11
962.6698320519502
 21
1144.867014156269
 31
0
  0
LINE
  8
1
 62
7
 10
979.8656891111386
 20
1146.467014156269
 30
0
 11
979.8656891111375
 21
1144.867014156268
 31
0
  0
LINE
  8
1
 62
7
 10
979.8656891111386
 20
1146.467014156269
 30
0
 11
962.3975037445916
 21
1146.46701415627
 31
0
  0
LINE
  8
1
 62
7
 10
976.1156891111411
 20
1148.61701415627
 30
0
 11
976.1156891111364
 21
1165.812871215457
 31
0
  0
LINE
  8
1
 62
7
 10
977.7156891111342
 20
1148.617014156273
 30
0
 11
976.1156891111411
 21
1148.61701415627
 31
0
  0
LINE
  8
1
 62
7
 10
983.6156891111357
 20
1154.367014156273
 30
0
 11
982.0156891111353
 21
1154.367014156276
 31
0
  0
LINE
  8
1
 62
7
 10
1021.861403178171
 20
1148.01701415627
 30
0
 11
1023.461560475293
 21
1148.01701415627
 31
0
  0
LINE
  8
1
 62
7
 10
1021.861403178171
 20
1149.21701415627
 30
0
 11
1023.461560475293
 21
1149.21701415627
 31
0
  0
LINE
  8
1
 62
7
 10
1027.360534437708
 20
1144.86701415627
 30
0
 11
1028.220497558695
 21
1144.86701415627
 31
0
  0
LINE
  8
1
 62
7
 10
979.8656891111375
 20
1150.767014156268
 30
0
 11
997.3338744776827
 21
1150.76701415627
 31
0
  0
LINE
  8
1
 62
7
 10
979.8656891111423
 20
1152.367014156272
 30
0
 11
979.8656891111375
 21
1150.767014156268
 31
0
  0
LINE
  8
1
 62
7
 10
979.8656891111423
 20
1152.367014156272
 30
0
 11
988.5942342361855
 21
1152.36701415627
 31
0
  0
LINE
  8
1
 62
2
  6
CENTER
 10
874.8656891111375
 20
1148.61701415627
 30
0
 11
937.8656891111375
 21
1148.61701415627
 31
0
  0
LINE
  8
1
 62
7
 10
979.2656891111376
 20
1197.113302674052
 30
0
 11
979.2656891111376
 21
1198.713421213064
 31
0
  0
LINE
  8
1
 62
7
 10
980.4656891111374
 20
1198.713421213064
 30
0
 11
980.4656891111374
 21
1197.113302674052
 31
0
  0
LINE
  8
1
 62
7
 10
979.2656891111376
 20
1222.614581683858
 30
0
 11
979.2656891111376
 21
1224.214633166394
 31
0
  0
LINE
  8
1
 62
7
 10
980.4656891111374
 20
1224.214633166394
 30
0
 11
980.4656891111374
 21
1222.614581683858
 31
0
  0
LINE
  8
1
 62
7
 10
923.2688694125006
 20
1149.21701415627
 30
0
 11
924.8689619357865
 21
1149.21701415627
 31
0
  0
LINE
  8
1
 62
7
 10
924.8689619357865
 20
1148.01701415627
 30
0
 11
923.2688694125006
 21
1148.01701415627
 31
0
  0
LINE
  8
1
 62
7
 10
897.2678683166396
 20
1149.21701415627
 30
0
 11
898.8679113638436
 21
1149.21701415627
 31
0
  0
LINE
  8
1
 62
7
 10
898.8679113638436
 20
1148.01701415627
 30
0
 11
897.2678683166396
 21
1148.01701415627
 31
0
  0
LINE
  8
1
 62
7
 10
979.2656891111376
 20
1087.119941055186
 30
0
 11
979.2656891111376
 21
1085.51986683565
 31
0
  0
LINE
  8
1
 62
7
 10
980.4656891111374
 20
1085.51986683565
 30
0
 11
980.4656891111374
 21
1087.119941055186
 31
0
  0
LINE
  8
1
 62
7
 10
979.2656891111376
 20
1061.11907132331
 30
0
 11
979.2656891111376
 21
1059.519034381192
 31
0
  0
LINE
  8
1
 62
7
 10
980.4656891111374
 20
1059.519034381192
 30
0
 11
980.4656891111374
 21
1061.11907132331
 31
0
  0
LINE
  8
1
 62
7
 10
1047.863042000791
 20
1149.21701415627
 30
0
 11
1049.46310285619
 21
1149.21701415627
 31
0
  0
LINE
  8
1
 62
7
 10
1049.46310285619
 20
1148.01701415627
 30
0
 11
1047.863042000791
 21
1148.01701415627
 31
0
  0
LINE
  8
1
 62
7
 10
976.1156891111375
 20
1196.971822603828
 30
0
 11
976.1156891111375
 21
1198.57647272019
 31
0
  0
LINE
  8
1
 62
7
 10
976.1156891111375
 20
1198.57647272019
 30
0
 11
976.1156891111375
 21
1203.48902432539
 31
0
  0
LINE
  8
1
 62
7
 10
976.1156891111375
 20
1203.48902432539
 30
0
 11
976.1156891111375
 21
1205.0926504962
 31
0
  0
LINE
  8
1
 62
7
 10
976.1156891111375
 20
1205.0926504962
 30
0
 11
976.1156891111375
 21
1210.00257842019
 31
0
  0
LINE
  8
1
 62
7
 10
976.1156891111375
 20
1210.00257842019
 30
0
 11
976.1156891111375
 21
1211.60548532362
 31
0
  0
LINE
  8
1
 62
7
 10
976.1156891111375
 20
1211.60548532362
 30
0
 11
976.1156891111375
 21
1216.513534685676
 31
0
  0
LINE
  8
1
 62
7
 10
976.1156891111375
 20
1216.513534685676
 30
0
 11
976.1156891111375
 21
1218.115917025308
 31
0
  0
LINE
  8
1
 62
7
 10
976.1156891111375
 20
1218.115917025308
 30
0
 11
976.1156891111375
 21
1222.521936184508
 31
0
  0
LINE
  8
1
 62
7
 10
976.1156891111375
 20
1222.521936184508
 30
0
 11
976.1156891111375
 21
1224.123950923696
 31
0
  0
LINE
  8
1
 62
7
 10
976.1156891111375
 20
1224.123950923696
 30
0
 11
976.1156891111375
 21
1229.530162037192
 31
0
  0
LINE
  8
1
 62
7
 10
976.1156891111375
 20
1229.530162037192
 30
0
 11
976.1156891111375
 21
1231.131846156342
 31
0
  0
LINE
  8
1
 62
7
 10
976.1156891111375
 20
1231.131846156342
 30
0
 11
976.1156891111375
 21
1236.036620080798
 31
0
  0
LINE
  8
1
 62
7
 10
976.1156891111375
 20
1236.036620080798
 30
0
 11
976.1156891111375
 21
1237.638065037508
 31
0
  0
LINE
  8
1
 62
7
 10
976.1156891111375
 20
1237.638065037508
 30
0
 11
976.1156891111375
 21
1244.34803285231
 31
0
  0
LINE
  8
1
 62
7
 10
977.7156891111374
 20
1197.069336082056
 30
0
 11
977.7156891111374
 21
1198.670860162346
 31
0
  0
LINE
  8
1
 62
7
 10
977.7156891111374
 20
1198.670860162346
 30
0
 11
977.7156891111374
 21
1203.574975362996
 31
0
  0
LINE
  8
1
 62
7
 10
977.7156891111374
 20
1203.574975362996
 30
0
 11
977.7156891111374
 21
1205.176164609578
 31
0
  0
LINE
  8
1
 62
7
 10
977.7156891111374
 20
1205.176164609578
 30
0
 11
977.7156891111374
 21
1210.07942136588
 31
0
  0
LINE
  8
1
 62
7
 10
977.7156891111374
 20
1210.07942136588
 30
0
 11
977.7156891111374
 21
1211.680375151384
 31
0
  0
LINE
  8
1
 62
7
 10
977.7156891111374
 20
1211.680375151384
 30
0
 11
977.7156891111374
 21
1216.583016686946
 31
0
  0
LINE
  8
1
 62
7
 10
977.7156891111374
 20
1216.583016686946
 30
0
 11
977.7156891111374
 21
1218.183798615522
 31
0
  0
LINE
  8
1
 62
7
 10
977.7156891111374
 20
1218.183798615522
 30
0
 11
977.7156891111374
 21
1222.585774454114
 31
0
  0
LINE
  8
1
 62
7
 10
977.7156891111374
 20
1222.585774454114
 30
0
 11
977.7156891111374
 21
1224.186435882256
 31
0
  0
LINE
  8
1
 62
7
 10
977.7156891111374
 20
1224.186435882256
 30
0
 11
977.7156891111374
 21
1229.58847517804
 31
0
  0
LINE
  8
1
 62
7
 10
977.7156891111374
 20
1229.58847517804
 30
0
 11
977.7156891111374
 21
1231.189028180394
 31
0
  0
LINE
  8
1
 62
7
 10
977.7156891111374
 20
1231.189028180394
 30
0
 11
977.7156891111374
 21
1236.090595882412
 31
0
  0
LINE
  8
1
 62
7
 10
977.7156891111374
 20
1236.090595882412
 30
0
 11
977.7156891111374
 21
1237.691070424074
 31
0
  0
LINE
  8
1
 62
7
 10
977.7156891111374
 20
1237.691070424074
 30
0
 11
977.7156891111374
 21
1244.36708091751
 31
0
  0
LINE
  8
1
 62
7
 10
982.0156891111376
 20
1197.069336082056
 30
0
 11
982.0156891111376
 21
1198.670860162346
 31
0
  0
LINE
  8
1
 62
7
 10
982.0156891111376
 20
1198.670860162346
 30
0
 11
982.0156891111376
 21
1203.574975362996
 31
0
  0
LINE
  8
1
 62
7
 10
982.0156891111376
 20
1203.574975362996
 30
0
 11
982.0156891111376
 21
1205.176164609578
 31
0
  0
LINE
  8
1
 62
7
 10
982.0156891111376
 20
1205.176164609578
 30
0
 11
982.0156891111376
 21
1210.07942136588
 31
0
  0
LINE
  8
1
 62
7
 10
982.0156891111376
 20
1210.07942136588
 30
0
 11
982.0156891111376
 21
1211.680375151384
 31
0
  0
LINE
  8
1
 62
7
 10
982.0156891111376
 20
1211.680375151384
 30
0
 11
982.0156891111376
 21
1216.583016686946
 31
0
  0
LINE
  8
1
 62
7
 10
982.0156891111376
 20
1216.583016686946
 30
0
 11
982.0156891111376
 21
1218.183798615522
 31
0
  0
LINE
  8
1
 62
7
 10
982.0156891111376
 20
1218.183798615522
 30
0
 11
982.0156891111376
 21
1222.585774454114
 31
0
  0
LINE
  8
1
 62
7
 10
982.0156891111376
 20
1222.585774454114
 30
0
 11
982.0156891111376
 21
1224.186435882256
 31
0
  0
LINE
  8
1
 62
7
 10
982.0156891111376
 20
1224.186435882256
 30
0
 11
982.0156891111376
 21
1229.58847517804
 31
0
  0
LINE
  8
1
 62
7
 10
982.0156891111376
 20
1229.58847517804
 30
0
 11
982.0156891111376
 21
1231.189028180394
 31
0
  0
LINE
  8
1
 62
7
 10
982.0156891111376
 20
1231.189028180394
 30
0
 11
982.0156891111376
 21
1236.090595882412
 31
0
  0
LINE
  8
1
 62
7
 10
982.0156891111376
 20
1236.090595882412
 30
0
 11
982.0156891111376
 21
1237.691070424074
 31
0
  0
LINE
  8
1
 62
7
 10
982.0156891111376
 20
1237.691070424074
 30
0
 11
982.0156891111376
 21
1244.36708091751
 31
0
  0
LINE
  8
1
 62
7
 10
983.6156891111375
 20
1196.971822603828
 30
0
 11
983.6156891111375
 21
1198.57647272019
 31
0
  0
LINE
  8
1
 62
7
 10
983.6156891111375
 20
1198.57647272019
 30
0
 11
983.6156891111375
 21
1203.48902432539
 31
0
  0
LINE
  8
1
 62
7
 10
983.6156891111375
 20
1203.48902432539
 30
0
 11
983.6156891111375
 21
1205.0926504962
 31
0
  0
LINE
  8
1
 62
7
 10
983.6156891111375
 20
1205.0926504962
 30
0
 11
983.6156891111375
 21
1210.002578420192
 31
0
  0
LINE
  8
1
 62
7
 10
983.6156891111375
 20
1210.002578420192
 30
0
 11
983.6156891111375
 21
1211.60548532362
 31
0
  0
LINE
  8
1
 62
7
 10
983.6156891111375
 20
1211.60548532362
 30
0
 11
983.6156891111375
 21
1216.513534685676
 31
0
  0
LINE
  8
1
 62
7
 10
983.6156891111375
 20
1216.513534685676
 30
0
 11
983.6156891111375
 21
1218.115917025308
 31
0
  0
LINE
  8
1
 62
7
 10
983.6156891111375
 20
1218.115917025308
 30
0
 11
983.6156891111375
 21
1222.521936184508
 31
0
  0
LINE
  8
1
 62
7
 10
983.6156891111375
 20
1222.521936184508
 30
0
 11
983.6156891111375
 21
1224.123950923696
 31
0
  0
LINE
  8
1
 62
7
 10
983.6156891111375
 20
1224.123950923696
 30
0
 11
983.6156891111375
 21
1229.530162037192
 31
0
  0
LINE
  8
1
 62
7
 10
983.6156891111375
 20
1229.530162037192
 30
0
 11
983.6156891111375
 21
1231.131846156342
 31
0
  0
LINE
  8
1
 62
7
 10
983.6156891111375
 20
1231.131846156342
 30
0
 11
983.6156891111375
 21
1236.036620080798
 31
0
  0
LINE
  8
1
 62
7
 10
983.6156891111375
 20
1236.036620080798
 30
0
 11
983.6156891111375
 21
1237.638065037508
 31
0
  0
LINE
  8
1
 62
7
 10
983.6156891111375
 20
1237.638065037508
 30
0
 11
983.6156891111375
 21
1244.34803285231
 31
0
  0
LINE
  8
1
 62
7
 10
931.5108806635799
 20
1152.36701415627
 30
0
 11
929.906230547218
 21
1152.36701415627
 31
0
  0
LINE
  8
1
 62
7
 10
929.906230547218
 20
1152.36701415627
 30
0
 11
924.9936789420176
 21
1152.36701415627
 31
0
  0
LINE
  8
1
 62
7
 10
924.9936789420176
 20
1152.36701415627
 30
0
 11
923.3900527712076
 21
1152.36701415627
 31
0
  0
LINE
  8
1
 62
7
 10
932.4143719534443
 20
1150.76701415627
 30
0
 11
931.4133671853515
 21
1150.76701415627
 31
0
  0
LINE
  8
1
 62
7
 10
931.4133671853515
 20
1150.76701415627
 30
0
 11
929.8118431050616
 21
1150.76701415627
 31
0
  0
LINE
  8
1
 62
7
 10
929.8118431050616
 20
1150.76701415627
 30
0
 11
924.9077279044116
 21
1150.76701415627
 31
0
  0
LINE
  8
1
 62
7
 10
924.9077279044116
 20
1150.76701415627
 30
0
 11
923.3065386578287
 21
1150.76701415627
 31
0
  0
LINE
  8
1
 62
7
 10
923.3065386578287
 20
1150.76701415627
 30
0
 11
918.403281901527
 21
1150.76701415627
 31
0
  0
LINE
  8
1
 62
7
 10
918.403281901527
 20
1150.76701415627
 30
0
 11
916.802328116024
 21
1150.76701415627
 31
0
  0
LINE
  8
1
 62
7
 10
916.802328116024
 20
1150.76701415627
 30
0
 11
911.8996865804604
 21
1150.76701415627
 31
0
  0
LINE
  8
1
 62
7
 10
916.8772179437881
 20
1152.36701415627
 30
0
 11
911.9691685817318
 21
1152.36701415627
 31
0
  0
LINE
  8
1
 62
7
 10
911.9691685817318
 20
1152.36701415627
 30
0
 11
910.3667862420994
 21
1152.36701415627
 31
0
  0
LINE
  8
1
 62
7
 10
910.3667862420994
 20
1152.36701415627
 30
0
 11
905.9607670828991
 21
1152.36701415627
 31
0
  0
LINE
  8
1
 62
7
 10
905.9607670828991
 20
1152.36701415627
 30
0
 11
904.3587523437118
 21
1152.36701415627
 31
0
  0
LINE
  8
1
 62
7
 10
904.3587523437118
 20
1152.36701415627
 30
0
 11
898.9525412302153
 21
1152.36701415627
 31
0
  0
LINE
  8
1
 62
7
 10
898.9525412302153
 20
1152.36701415627
 30
0
 11
897.3508571110663
 21
1152.36701415627
 31
0
  0
LINE
  8
1
 62
7
 10
897.3508571110663
 20
1152.36701415627
 30
0
 11
892.4460831866081
 21
1152.36701415627
 31
0
  0
LINE
  8
1
 62
7
 10
892.4460831866081
 20
1152.36701415627
 30
0
 11
890.8446382298992
 21
1152.36701415627
 31
0
  0
LINE
  8
1
 62
7
 10
890.8446382298992
 20
1152.36701415627
 30
0
 11
884.1532042967235
 21
1152.36701415627
 31
0
  0
LINE
  8
1
 62
7
 10
911.8996865804604
 20
1150.76701415627
 30
0
 11
910.2989046518858
 21
1150.76701415627
 31
0
  0
LINE
  8
1
 62
7
 10
910.2989046518858
 20
1150.76701415627
 30
0
 11
905.896928813293
 21
1150.76701415627
 31
0
  0
LINE
  8
1
 62
7
 10
905.896928813293
 20
1150.76701415627
 30
0
 11
904.2962673851509
 21
1150.76701415627
 31
0
  0
LINE
  8
1
 62
7
 10
904.2962673851509
 20
1150.76701415627
 30
0
 11
898.8942280893675
 21
1150.76701415627
 31
0
  0
LINE
  8
1
 62
7
 10
898.8942280893675
 20
1150.76701415627
 30
0
 11
897.2936750870144
 21
1150.76701415627
 31
0
  0
LINE
  8
1
 62
7
 10
897.2936750870144
 20
1150.76701415627
 30
0
 11
892.3921073849958
 21
1150.76701415627
 31
0
  0
LINE
  8
1
 62
7
 10
892.3921073849958
 20
1150.76701415627
 30
0
 11
890.791632843333
 21
1150.76701415627
 31
0
  0
LINE
  8
1
 62
7
 10
890.791632843333
 20
1150.76701415627
 30
0
 11
884.1203031525425
 21
1150.76701415627
 31
0
  0
LINE
  8
1
 62
7
 10
931.4133671853515
 20
1146.46701415627
 30
0
 11
929.8118431050611
 21
1146.46701415627
 31
0
  0
LINE
  8
1
 62
7
 10
929.8118431050611
 20
1146.46701415627
 30
0
 11
924.9077279044116
 21
1146.46701415627
 31
0
  0
LINE
  8
1
 62
7
 10
924.9077279044116
 20
1146.46701415627
 30
0
 11
923.3065386578289
 21
1146.46701415627
 31
0
  0
LINE
  8
1
 62
7
 10
923.3065386578289
 20
1146.46701415627
 30
0
 11
918.403281901527
 21
1146.46701415627
 31
0
  0
LINE
  8
1
 62
7
 10
918.403281901527
 20
1146.46701415627
 30
0
 11
916.802328116024
 21
1146.46701415627
 31
0
  0
LINE
  8
1
 62
7
 10
916.802328116024
 20
1146.46701415627
 30
0
 11
911.8996865804604
 21
1146.46701415627
 31
0
  0
LINE
  8
1
 62
7
 10
911.8996865804604
 20
1146.46701415627
 30
0
 11
910.2989046518858
 21
1146.46701415627
 31
0
  0
LINE
  8
1
 62
7
 10
910.2989046518858
 20
1146.46701415627
 30
0
 11
905.896928813293
 21
1146.46701415627
 31
0
  0
LINE
  8
1
 62
7
 10
905.896928813293
 20
1146.46701415627
 30
0
 11
904.2962673851512
 21
1146.46701415627
 31
0
  0
LINE
  8
1
 62
7
 10
904.2962673851512
 20
1146.46701415627
 30
0
 11
898.8942280893675
 21
1146.46701415627
 31
0
  0
LINE
  8
1
 62
7
 10
898.8942280893675
 20
1146.46701415627
 30
0
 11
897.2936750870144
 21
1146.46701415627
 31
0
  0
LINE
  8
1
 62
7
 10
897.2936750870144
 20
1146.46701415627
 30
0
 11
892.3921073849958
 21
1146.46701415627
 31
0
  0
LINE
  8
1
 62
7
 10
892.3921073849958
 20
1146.46701415627
 30
0
 11
890.791632843333
 21
1146.46701415627
 31
0
  0
LINE
  8
1
 62
7
 10
890.791632843333
 20
1146.46701415627
 30
0
 11
884.1682756420086
 21
1146.46701415627
 31
0
  0
LINE
  8
1
 62
7
 10
931.5108806635797
 20
1144.86701415627
 30
0
 11
929.9062305472182
 21
1144.86701415627
 31
0
  0
LINE
  8
1
 62
7
 10
929.9062305472182
 20
1144.86701415627
 30
0
 11
924.9936789420178
 21
1144.86701415627
 31
0
  0
LINE
  8
1
 62
7
 10
924.9936789420178
 20
1144.86701415627
 30
0
 11
923.3900527712078
 21
1144.86701415627
 31
0
  0
LINE
  8
1
 62
7
 10
923.3900527712078
 20
1144.86701415627
 30
0
 11
918.4801248472163
 21
1144.86701415627
 31
0
  0
LINE
  8
1
 62
7
 10
918.4801248472163
 20
1144.86701415627
 30
0
 11
916.8772179437881
 21
1144.86701415627
 31
0
  0
LINE
  8
1
 62
7
 10
916.8772179437881
 20
1144.86701415627
 30
0
 11
911.9691685817318
 21
1144.86701415627
 31
0
  0
LINE
  8
1
 62
7
 10
911.9691685817318
 20
1144.86701415627
 30
0
 11
910.3667862420994
 21
1144.86701415627
 31
0
  0
LINE
  8
1
 62
7
 10
910.3667862420994
 20
1144.86701415627
 30
0
 11
905.9607670828993
 21
1144.86701415627
 31
0
  0
LINE
  8
1
 62
7
 10
905.9607670828993
 20
1144.86701415627
 30
0
 11
904.358752343712
 21
1144.86701415627
 31
0
  0
LINE
  8
1
 62
7
 10
904.358752343712
 20
1144.86701415627
 30
0
 11
898.9525412302153
 21
1144.86701415627
 31
0
  0
LINE
  8
1
 62
7
 10
898.9525412302153
 20
1144.86701415627
 30
0
 11
897.3508571110663
 21
1144.86701415627
 31
0
  0
LINE
  8
1
 62
7
 10
897.3508571110663
 20
1144.86701415627
 30
0
 11
892.4460831866081
 21
1144.86701415627
 31
0
  0
LINE
  8
1
 62
7
 10
892.4460831866081
 20
1144.86701415627
 30
0
 11
890.8446382298994
 21
1144.86701415627
 31
0
  0
LINE
  8
1
 62
7
 10
890.8446382298994
 20
1144.86701415627
 30
0
 11
884.1682756420086
 21
1144.86701415627
 31
0
  0
LINE
  8
1
 62
7
 10
923.3900527712076
 20
1152.36701415627
 30
0
 11
918.4801248472163
 21
1152.36701415627
 31
0
  0
LINE
  8
1
 62
7
 10
918.4801248472163
 20
1152.36701415627
 30
0
 11
916.8772179437881
 21
1152.36701415627
 31
0
  0
LINE
  8
1
 62
7
 10
983.6156891111375
 20
1100.262205708712
 30
0
 11
983.6156891111375
 21
1098.65755559235
 31
0
  0
LINE
  8
1
 62
7
 10
983.6156891111375
 20
1098.65755559235
 30
0
 11
983.6156891111375
 21
1093.74500398715
 31
0
  0
LINE
  8
1
 62
7
 10
983.6156891111375
 20
1093.74500398715
 30
0
 11
983.6156891111375
 21
1092.14137781634
 31
0
  0
LINE
  8
1
 62
7
 10
983.6156891111375
 20
1092.14137781634
 30
0
 11
983.6156891111375
 21
1087.231449892348
 31
0
  0
LINE
  8
1
 62
7
 10
983.6156891111375
 20
1087.231449892348
 30
0
 11
983.6156891111375
 21
1085.62854298892
 31
0
  0
LINE
  8
1
 62
7
 10
983.6156891111375
 20
1085.62854298892
 30
0
 11
983.6156891111375
 21
1080.720493626864
 31
0
  0
LINE
  8
1
 62
7
 10
983.6156891111375
 20
1080.720493626864
 30
0
 11
983.6156891111375
 21
1079.118111287232
 31
0
  0
LINE
  8
1
 62
7
 10
983.6156891111375
 20
1079.118111287232
 30
0
 11
983.6156891111375
 21
1074.712092128032
 31
0
  0
LINE
  8
1
 62
7
 10
983.6156891111375
 20
1074.712092128032
 30
0
 11
983.6156891111375
 21
1073.110077388844
 31
0
  0
LINE
  8
1
 62
7
 10
983.6156891111375
 20
1073.110077388844
 30
0
 11
983.6156891111375
 21
1067.703866275348
 31
0
  0
LINE
  8
1
 62
7
 10
983.6156891111375
 20
1067.703866275348
 30
0
 11
983.6156891111375
 21
1066.102182156198
 31
0
  0
LINE
  8
1
 62
7
 10
983.6156891111375
 20
1066.102182156198
 30
0
 11
983.6156891111375
 21
1061.19740823174
 31
0
  0
LINE
  8
1
 62
7
 10
983.6156891111375
 20
1061.19740823174
 30
0
 11
983.6156891111375
 21
1059.595963275032
 31
0
  0
LINE
  8
1
 62
7
 10
983.6156891111375
 20
1059.595963275032
 30
0
 11
983.6156891111375
 21
1052.83049350028
 31
0
  0
LINE
  8
1
 62
7
 10
976.1156891111375
 20
1059.595963275032
 30
0
 11
976.1156891111375
 21
1061.19740823174
 31
0
  0
LINE
  8
1
 62
7
 10
976.1156891111375
 20
1061.19740823174
 30
0
 11
976.1156891111375
 21
1066.102182156198
 31
0
  0
LINE
  8
1
 62
7
 10
976.1156891111375
 20
1066.102182156198
 30
0
 11
976.1156891111375
 21
1067.703866275348
 31
0
  0
LINE
  8
1
 62
7
 10
976.1156891111375
 20
1067.703866275348
 30
0
 11
976.1156891111375
 21
1073.110077388844
 31
0
  0
LINE
  8
1
 62
7
 10
976.1156891111375
 20
1073.110077388844
 30
0
 11
976.1156891111375
 21
1074.712092128032
 31
0
  0
LINE
  8
1
 62
7
 10
976.1156891111375
 20
1074.712092128032
 30
0
 11
976.1156891111375
 21
1079.118111287232
 31
0
  0
LINE
  8
1
 62
7
 10
976.1156891111375
 20
1079.118111287232
 30
0
 11
976.1156891111375
 21
1080.720493626864
 31
0
  0
LINE
  8
1
 62
7
 10
976.1156891111375
 20
1080.720493626864
 30
0
 11
976.1156891111375
 21
1085.62854298892
 31
0
  0
LINE
  8
1
 62
7
 10
976.1156891111375
 20
1085.62854298892
 30
0
 11
976.1156891111375
 21
1087.231449892348
 31
0
  0
LINE
  8
1
 62
7
 10
976.1156891111375
 20
1087.231449892348
 30
0
 11
976.1156891111375
 21
1092.14137781634
 31
0
  0
LINE
  8
1
 62
7
 10
976.1156891111375
 20
1092.14137781634
 30
0
 11
976.1156891111375
 21
1093.74500398715
 31
0
  0
LINE
  8
1
 62
7
 10
976.1156891111375
 20
1093.74500398715
 30
0
 11
976.1156891111375
 21
1098.65755559235
 31
0
  0
LINE
  8
1
 62
7
 10
976.1156891111375
 20
1098.65755559235
 30
0
 11
976.1156891111375
 21
1100.262205708712
 31
0
  0
LINE
  8
1
 62
7
 10
977.7156891111374
 20
1101.165696998576
 30
0
 11
977.7156891111374
 21
1100.97277500841
 31
0
  0
LINE
  8
1
 62
7
 10
977.7156891111374
 20
1100.164692230484
 30
0
 11
977.7156891111374
 21
1098.563168150194
 31
0
  0
LINE
  8
1
 62
7
 10
977.7156891111374
 20
1098.563168150194
 30
0
 11
977.7156891111374
 21
1093.659052949544
 31
0
  0
LINE
  8
1
 62
7
 10
977.7156891111374
 20
1093.659052949544
 30
0
 11
977.7156891111374
 21
1092.057863702962
 31
0
  0
LINE
  8
1
 62
7
 10
977.7156891111374
 20
1092.057863702962
 30
0
 11
977.7156891111374
 21
1087.15460694666
 31
0
  0
LINE
  8
1
 62
7
 10
977.7156891111374
 20
1087.15460694666
 30
0
 11
977.7156891111374
 21
1085.553653161156
 31
0
  0
LINE
  8
1
 62
7
 10
977.7156891111374
 20
1085.553653161156
 30
0
 11
977.7156891111374
 21
1080.651011625592
 31
0
  0
LINE
  8
1
 62
7
 10
977.7156891111374
 20
1080.651011625592
 30
0
 11
977.7156891111374
 21
1079.050229697018
 31
0
  0
LINE
  8
1
 62
7
 10
977.7156891111374
 20
1079.050229697018
 30
0
 11
977.7156891111374
 21
1074.648253858426
 31
0
  0
LINE
  8
1
 62
7
 10
977.7156891111374
 20
1074.648253858426
 30
0
 11
977.7156891111374
 21
1073.047592430284
 31
0
  0
LINE
  8
1
 62
7
 10
977.7156891111374
 20
1073.047592430284
 30
0
 11
977.7156891111374
 21
1067.6455531345
 31
0
  0
LINE
  8
1
 62
7
 10
977.7156891111374
 20
1067.6455531345
 30
0
 11
977.7156891111374
 21
1066.045000132146
 31
0
  0
LINE
  8
1
 62
7
 10
977.7156891111374
 20
1066.045000132146
 30
0
 11
977.7156891111374
 21
1061.143432430128
 31
0
  0
LINE
  8
1
 62
7
 10
977.7156891111374
 20
1061.143432430128
 30
0
 11
977.7156891111374
 21
1059.542957888466
 31
0
  0
LINE
  8
1
 62
7
 10
977.7156891111374
 20
1059.542957888466
 30
0
 11
977.7156891111374
 21
1052.86708091751
 31
0
  0
LINE
  8
1
 62
7
 10
982.0156891111376
 20
1059.542957888466
 30
0
 11
982.0156891111376
 21
1061.143432430128
 31
0
  0
LINE
  8
1
 62
7
 10
982.0156891111376
 20
1061.143432430128
 30
0
 11
982.0156891111376
 21
1066.045000132146
 31
0
  0
LINE
  8
1
 62
7
 10
982.0156891111376
 20
1066.045000132146
 30
0
 11
982.0156891111376
 21
1067.6455531345
 31
0
  0
LINE
  8
1
 62
7
 10
982.0156891111376
 20
1067.6455531345
 30
0
 11
982.0156891111376
 21
1073.047592430284
 31
0
  0
LINE
  8
1
 62
7
 10
982.0156891111376
 20
1073.047592430284
 30
0
 11
982.0156891111376
 21
1074.648253858426
 31
0
  0
LINE
  8
1
 62
7
 10
982.0156891111376
 20
1074.648253858426
 30
0
 11
982.0156891111376
 21
1079.050229697018
 31
0
  0
LINE
  8
1
 62
7
 10
982.0156891111376
 20
1079.050229697018
 30
0
 11
982.0156891111376
 21
1080.651011625592
 31
0
  0
LINE
  8
1
 62
7
 10
982.0156891111376
 20
1080.651011625592
 30
0
 11
982.0156891111376
 21
1085.553653161156
 31
0
  0
LINE
  8
1
 62
7
 10
982.0156891111376
 20
1085.553653161156
 30
0
 11
982.0156891111376
 21
1087.15460694666
 31
0
  0
LINE
  8
1
 62
7
 10
982.0156891111376
 20
1087.15460694666
 30
0
 11
982.0156891111376
 21
1092.057863702962
 31
0
  0
LINE
  8
1
 62
7
 10
982.0156891111376
 20
1092.057863702962
 30
0
 11
982.0156891111376
 21
1093.659052949544
 31
0
  0
LINE
  8
1
 62
7
 10
982.0156891111376
 20
1093.659052949544
 30
0
 11
982.0156891111376
 21
1098.563168150194
 31
0
  0
LINE
  8
1
 62
7
 10
982.0156891111376
 20
1098.563168150194
 30
0
 11
982.0156891111376
 21
1100.164692230484
 31
0
  0
LINE
  8
1
 62
7
 10
1028.318011036924
 20
1150.76701415627
 30
0
 11
1029.919535117213
 21
1150.76701415627
 31
0
  0
LINE
  8
1
 62
7
 10
1029.919535117213
 20
1150.76701415627
 30
0
 11
1034.823650317863
 21
1150.76701415627
 31
0
  0
LINE
  8
1
 62
7
 10
1034.823650317863
 20
1150.76701415627
 30
0
 11
1036.424839564446
 21
1150.76701415627
 31
0
  0
LINE
  8
1
 62
7
 10
1036.424839564446
 20
1150.76701415627
 30
0
 11
1041.328096320748
 21
1150.76701415627
 31
0
  0
LINE
  8
1
 62
7
 10
1041.328096320748
 20
1150.76701415627
 30
0
 11
1042.929050106251
 21
1150.76701415627
 31
0
  0
LINE
  8
1
 62
7
 10
1042.929050106251
 20
1150.76701415627
 30
0
 11
1047.831691641815
 21
1150.76701415627
 31
0
  0
LINE
  8
1
 62
7
 10
1047.831691641815
 20
1150.76701415627
 30
0
 11
1049.432473570389
 21
1150.76701415627
 31
0
  0
LINE
  8
1
 62
7
 10
1049.432473570389
 20
1150.76701415627
 30
0
 11
1053.834449408982
 21
1150.76701415627
 31
0
  0
LINE
  8
1
 62
7
 10
1053.834449408982
 20
1150.76701415627
 30
0
 11
1055.435110837124
 21
1150.76701415627
 31
0
  0
LINE
  8
1
 62
7
 10
1055.435110837124
 20
1150.76701415627
 30
0
 11
1060.837150132907
 21
1150.76701415627
 31
0
  0
LINE
  8
1
 62
7
 10
1060.837150132907
 20
1150.76701415627
 30
0
 11
1062.437703135261
 21
1150.76701415627
 31
0
  0
LINE
  8
1
 62
7
 10
1062.437703135261
 20
1150.76701415627
 30
0
 11
1067.339270837279
 21
1150.76701415627
 31
0
  0
LINE
  8
1
 62
7
 10
1067.339270837279
 20
1150.76701415627
 30
0
 11
1068.939745378942
 21
1150.76701415627
 31
0
  0
LINE
  8
1
 62
7
 10
1068.939745378942
 20
1150.76701415627
 30
0
 11
1075.778257210299
 21
1150.76701415627
 31
0
  0
LINE
  8
1
 62
7
 10
1068.939745378942
 20
1146.46701415627
 30
0
 11
1067.339270837279
 21
1146.46701415627
 31
0
  0
LINE
  8
1
 62
7
 10
1067.339270837279
 20
1146.46701415627
 30
0
 11
1062.437703135261
 21
1146.46701415627
 31
0
  0
LINE
  8
1
 62
7
 10
1062.437703135261
 20
1146.46701415627
 30
0
 11
1060.837150132907
 21
1146.46701415627
 31
0
  0
LINE
  8
1
 62
7
 10
1060.837150132907
 20
1146.46701415627
 30
0
 11
1055.435110837124
 21
1146.46701415627
 31
0
  0
LINE
  8
1
 62
7
 10
1055.435110837124
 20
1146.46701415627
 30
0
 11
1053.834449408982
 21
1146.46701415627
 31
0
  0
LINE
  8
1
 62
7
 10
1053.834449408982
 20
1146.46701415627
 30
0
 11
1049.432473570389
 21
1146.46701415627
 31
0
  0
LINE
  8
1
 62
7
 10
1049.432473570389
 20
1146.46701415627
 30
0
 11
1047.831691641815
 21
1146.46701415627
 31
0
  0
LINE
  8
1
 62
7
 10
1047.831691641815
 20
1146.46701415627
 30
0
 11
1042.929050106251
 21
1146.46701415627
 31
0
  0
LINE
  8
1
 62
7
 10
1042.929050106251
 20
1146.46701415627
 30
0
 11
1041.328096320748
 21
1146.46701415627
 31
0
  0
LINE
  8
1
 62
7
 10
1041.328096320748
 20
1146.46701415627
 30
0
 11
1036.424839564446
 21
1146.46701415627
 31
0
  0
LINE
  8
1
 62
7
 10
1036.424839564446
 20
1146.46701415627
 30
0
 11
1034.823650317863
 21
1146.46701415627
 31
0
  0
LINE
  8
1
 62
7
 10
1034.823650317863
 20
1146.46701415627
 30
0
 11
1029.919535117214
 21
1146.46701415627
 31
0
  0
LINE
  8
1
 62
7
 10
1029.919535117214
 20
1146.46701415627
 30
0
 11
1028.318011036924
 21
1146.46701415627
 31
0
  0
LINE
  8
1
 62
7
 10
1027.217431423327
 20
1144.86701415627
 30
0
 11
1027.360534437708
 21
1144.86701415627
 31
0
  0
LINE
  8
1
 62
7
 10
1028.220497558695
 20
1144.86701415627
 30
0
 11
1029.825147675057
 21
1144.86701415627
 31
0
  0
LINE
  8
1
 62
7
 10
1029.825147675057
 20
1144.86701415627
 30
0
 11
1034.737699280257
 21
1144.86701415627
 31
0
  0
LINE
  8
1
 62
7
 10
1034.737699280257
 20
1144.86701415627
 30
0
 11
1036.341325451067
 21
1144.86701415627
 31
0
  0
LINE
  8
1
 62
7
 10
1036.341325451067
 20
1144.86701415627
 30
0
 11
1041.251253375059
 21
1144.86701415627
 31
0
  0
LINE
  8
1
 62
7
 10
1041.251253375059
 20
1144.86701415627
 30
0
 11
1042.854160278487
 21
1144.86701415627
 31
0
  0
LINE
  8
1
 62
7
 10
1042.854160278487
 20
1144.86701415627
 30
0
 11
1047.762209640543
 21
1144.86701415627
 31
0
  0
LINE
  8
1
 62
7
 10
1047.762209640543
 20
1144.86701415627
 30
0
 11
1049.364591980176
 21
1144.86701415627
 31
0
  0
LINE
  8
1
 62
7
 10
1049.364591980176
 20
1144.86701415627
 30
0
 11
1053.770611139376
 21
1144.86701415627
 31
0
  0
LINE
  8
1
 62
7
 10
1053.770611139376
 20
1144.86701415627
 30
0
 11
1055.372625878563
 21
1144.86701415627
 31
0
  0
LINE
  8
1
 62
7
 10
1055.372625878563
 20
1144.86701415627
 30
0
 11
1060.77883699206
 21
1144.86701415627
 31
0
  0
LINE
  8
1
 62
7
 10
1060.77883699206
 20
1144.86701415627
 30
0
 11
1062.380521111209
 21
1144.86701415627
 31
0
  0
LINE
  8
1
 62
7
 10
1062.380521111209
 20
1144.86701415627
 30
0
 11
1067.285295035667
 21
1144.86701415627
 31
0
  0
LINE
  8
1
 62
7
 10
1067.285295035667
 20
1144.86701415627
 30
0
 11
1068.886739992376
 21
1144.86701415627
 31
0
  0
LINE
  8
1
 62
7
 10
1068.886739992376
 20
1144.86701415627
 30
0
 11
1075.734634028293
 21
1144.86701415627
 31
0
  0
LINE
  8
1
 62
7
 10
1068.886739992376
 20
1152.36701415627
 30
0
 11
1067.285295035667
 21
1152.36701415627
 31
0
  0
LINE
  8
1
 62
7
 10
1067.285295035667
 20
1152.36701415627
 30
0
 11
1062.380521111209
 21
1152.36701415627
 31
0
  0
LINE
  8
1
 62
7
 10
1062.380521111209
 20
1152.36701415627
 30
0
 11
1060.77883699206
 21
1152.36701415627
 31
0
  0
LINE
  8
1
 62
7
 10
1060.77883699206
 20
1152.36701415627
 30
0
 11
1055.372625878563
 21
1152.36701415627
 31
0
  0
LINE
  8
1
 62
7
 10
1055.372625878563
 20
1152.36701415627
 30
0
 11
1053.770611139376
 21
1152.36701415627
 31
0
  0
LINE
  8
1
 62
7
 10
1053.770611139376
 20
1152.36701415627
 30
0
 11
1049.364591980176
 21
1152.36701415627
 31
0
  0
LINE
  8
1
 62
7
 10
1049.364591980176
 20
1152.36701415627
 30
0
 11
1047.762209640543
 21
1152.36701415627
 31
0
  0
LINE
  8
1
 62
7
 10
1047.762209640543
 20
1152.36701415627
 30
0
 11
1042.854160278487
 21
1152.36701415627
 31
0
  0
LINE
  8
1
 62
7
 10
1042.854160278487
 20
1152.36701415627
 30
0
 11
1041.251253375059
 21
1152.36701415627
 31
0
  0
LINE
  8
1
 62
7
 10
1041.251253375059
 20
1152.36701415627
 30
0
 11
1036.341325451067
 21
1152.36701415627
 31
0
  0
LINE
  8
1
 62
7
 10
1036.341325451067
 20
1152.36701415627
 30
0
 11
1034.737699280257
 21
1152.36701415627
 31
0
  0
LINE
  8
1
 62
7
 10
1034.737699280257
 20
1152.36701415627
 30
0
 11
1029.825147675057
 21
1152.36701415627
 31
0
  0
LINE
  8
1
 62
7
 10
1029.825147675057
 20
1152.36701415627
 30
0
 11
1028.220497558695
 21
1152.36701415627
 31
0
  0
LINE
  8
1
 62
7
 10
1016.775680983258
 20
1152.36701415627
 30
0
 11
1021.69794341329
 21
1152.36701415627
 31
0
  0
LINE
  8
1
 62
7
 10
1015.167070103954
 20
1152.36701415627
 30
0
 11
1016.775680983258
 21
1152.36701415627
 31
0
  0
LINE
  8
1
 62
7
 10
997.0615461703246
 20
1152.367014156271
 30
0
 11
1015.167070103954
 21
1152.36701415627
 31
0
  0
LINE
  8
1
 62
7
 10
983.6156891111357
 20
1154.367014156273
 30
0
 11
983.6156891111375
 21
1165.812871215457
 31
0
  0
LINE
  8
1
 62
7
 10
995.4200293414399
 20
1152.36701415627
 30
0
 11
997.0615461703246
 21
1152.367014156271
 31
0
  0
LINE
  8
1
 62
7
 10
990.3130572007569
 20
1152.36701415627
 30
0
 11
995.4200293414399
 21
1152.36701415627
 31
0
  0
LINE
  8
1
 62
7
 10
988.5942342361855
 20
1152.36701415627
 30
0
 11
990.3130572007569
 21
1152.36701415627
 31
0
  0
LINE
  8
1
 62
7
 10
977.7156891111342
 20
1148.617014156273
 30
0
 11
977.7156891111374
 21
1166.085199522816
 31
0
  0
LINE
  8
1
 62
7
 10
982.0156891111353
 20
1154.367014156276
 30
0
 11
982.0156891111376
 21
1166.085199522816
 31
0
  0
LINE
  8
1
 62
7
 10
949.2715720295804
 20
1148.01701415627
 30
0
 11
950.8718966720654
 21
1148.01701415627
 31
0
  0
LINE
  8
1
 62
7
 10
949.2715720295804
 20
1149.21701415627
 30
0
 11
950.8718966720654
 21
1149.21701415627
 31
0
  0
LINE
  8
1
 62
7
 10
979.2656891111376
 20
1111.521866225577
 30
0
 11
979.2656891111376
 21
1113.122084940958
 31
0
  0
LINE
  8
1
 62
7
 10
980.4656891111374
 20
1113.122084940958
 30
0
 11
980.4656891111374
 21
1111.521866225577
 31
0
  0
LINE
  8
1
 62
7
 10
979.2656891111376
 20
1137.533242235123
 30
0
 11
979.2656891111376
 21
1139.135980457353
 31
0
  0
LINE
  8
1
 62
7
 10
980.4656891111374
 20
1139.135980457353
 30
0
 11
980.4656891111374
 21
1137.533242235123
 31
0
  0
LINE
  8
1
 62
7
 10
995.8544351532756
 20
1148.01701415627
 30
0
 11
997.455458865173
 21
1148.01701415627
 31
0
  0
LINE
  8
1
 62
7
 10
995.8544351532756
 20
1149.21701415627
 30
0
 11
997.455458865173
 21
1149.21701415627
 31
0
  0
LINE
  8
1
 62
7
 10
979.2656891111376
 20
1172.709544118895
 30
0
 11
979.2656891111376
 21
1171.109012733542
 31
0
  0
LINE
  8
1
 62
7
 10
980.4656891111374
 20
1172.709544118895
 30
0
 11
980.4656891111374
 21
1171.109012733542
 31
0
  0
LINE
  8
1
 62
7
 10
977.7156891111374
 20
1166.085199522816
 30
0
 11
977.7156891111374
 21
1190.561948296164
 31
0
  0
LINE
  8
1
 62
7
 10
976.1156891111364
 20
1165.812871215457
 30
0
 11
976.1156891111375
 21
1190.449268458422
 31
0
  0
LINE
  8
1
 62
7
 10
982.0156891111376
 20
1166.085199522816
 30
0
 11
982.0156891111376
 21
1192.163971570078
 31
0
  0
LINE
  8
1
 62
7
 10
983.6156891111375
 20
1165.812871215457
 30
0
 11
983.6156891111375
 21
1190.449268458422
 31
0
  0
LINE
  8
1
 62
7
 10
962.6698320519499
 20
1152.36701415627
 30
0
 11
938.0334348089846
 21
1152.36701415627
 31
0
  0
LINE
  8
1
 62
7
 10
962.3975037445916
 20
1150.76701415627
 30
0
 11
937.9207549712442
 21
1150.76701415627
 31
0
  0
LINE
  8
1
 62
7
 10
962.3975037445916
 20
1146.46701415627
 30
0
 11
937.9207549712439
 21
1146.46701415627
 31
0
  0
LINE
  8
1
 62
7
 10
962.6698320519502
 20
1144.867014156269
 30
0
 11
938.0334348089846
 21
1144.86701415627
 31
0
  0
LINE
  8
1
 62
7
 10
977.7156891111372
 20
1131.148828789724
 30
0
 11
977.7156891111374
 21
1106.672080016376
 31
0
  0
LINE
  8
1
 62
7
 10
976.1156891111373
 20
1131.421157097083
 30
0
 11
976.1156891111361
 21
1142.867014156264
 31
0
  0
LINE
  8
1
 62
7
 10
982.0156891111374
 20
1131.148828789724
 30
0
 11
982.0156891111376
 21
1106.672080016376
 31
0
  0
LINE
  8
1
 62
7
 10
983.615689111138
 20
1131.421157097083
 30
0
 11
983.6156891111375
 21
1106.784759854116
 31
0
  0
LINE
  8
1
 62
7
 10
997.0615461703244
 20
1144.86701415627
 30
0
 11
1021.69794341329
 21
1144.86701415627
 31
0
  0
LINE
  8
1
 62
7
 10
997.3338744776827
 20
1146.46701415627
 30
0
 11
1021.810623251031
 21
1146.46701415627
 31
0
  0
LINE
  8
1
 62
7
 10
997.3338744776827
 20
1150.76701415627
 30
0
 11
1021.810623251031
 21
1150.76701415627
 31
0
  0
LINE
  8
1
 62
7
 10
1075.880044634977
 20
1152.36701415627
 30
0
 11
1068.886739992376
 21
1152.36701415627
 31
0
  0
LINE
  8
1
 62
7
 10
1075.850962513641
 20
1146.46701415627
 30
0
 11
1068.939745378942
 21
1146.46701415627
 31
0
  0
LINE
  8
1
 62
7
 10
976.1156891111375
 20
1052.82558120989
 30
0
 11
976.1156891111375
 21
1059.595963275032
 31
0
  0
LINE
  8
1
 62
7
 10
982.0156891111376
 20
1052.78431048728
 30
0
 11
982.0156891111376
 21
1059.542957888466
 31
0
  0
ARC
  8
1
 62
7
 10
1132.399540622395
 20
1145.66691663129
 30
0
 40
0.7999999999999545
 50
270
 51
0
  0
ARC
  8
1
 62
7
 10
1132.399540622395
 20
1151.56691663129
 30
0
 40
0.800000000000864
 50
0
 51
90
  0
ARC
  8
1
 62
7
 10
1135.499540622395
 20
1236.91691663129
 30
0
 40
0.7999999999999545
 50
0
 51
180
  0
ARC
  8
1
 62
7
 10
1135.499540622395
 20
1060.31691663129
 30
0
 40
0.799999999999045
 50
180
 51
0
  0
ARC
  8
1
 62
7
 10
1133.899540622396
 20
1151.56691663129
 30
0
 40
0.7999999999999545
 50
270
 51
90
  0
ARC
  8
1
 62
7
 10
1132.399540622395
 20
1151.56691663129
 30
0
 40
0.7999999999999545
 50
90
 51
180
  0
ARC
  8
1
 62
7
 10
1132.399540622396
 20
1247.316916631289
 30
0
 40
0.7999999999999545
 50
0
 51
180
  0
ARC
  8
1
 62
7
 10
1133.899540622396
 20
1145.66691663129
 30
0
 40
0.7999999999999545
 50
270
 51
90
  0
ARC
  8
1
 62
7
 10
1132.399540622395
 20
1145.66691663129
 30
0
 40
0.799999999999045
 50
180
 51
270
  0
ARC
  8
1
 62
7
 10
1132.399540622396
 20
1049.916916631291
 30
0
 40
0.7999999999999545
 50
180
 51
0
  0
ARC
  8
1
 62
7
 10
979.8656891111375
 20
1052.86708091751
 30
0
 40
3.75
 50
180
 51
0
  0
ARC
  8
1
 62
7
 10
979.8656891111375
 20
1052.86708091751
 30
0
 40
2.150000000000091
 50
270
 51
0
  0
ARC
  8
1
 62
7
 10
979.8656891111375
 20
1052.86708091751
 30
0
 40
2.150000000000091
 50
180
 51
270
  0
ARC
  8
1
 62
7
 10
1075.615689111137
 20
1148.61708091751
 30
0
 40
2.150000000000091
 50
270
 51
90
  0
ARC
  8
1
 62
7
 10
1075.615689111137
 20
1148.61708091751
 30
0
 40
3.75
 50
270
 51
90
  0
ARC
  8
1
 62
7
 10
979.8656891111375
 20
1244.34803285231
 30
0
 40
3.75
 50
0
 51
180
  0
ARC
  8
1
 62
7
 10
979.8656891111375
 20
1244.36708091751
 30
0
 40
2.150000000000091
 50
0
 51
180
  0
ARC
  8
1
 62
7
 10
884.1156891111375
 20
1148.61708091751
 30
0
 40
3.75
 50
90
 51
270
  0
ARC
  8
1
 62
7
 10
884.1156891111375
 20
1148.61708091751
 30
0
 40
2.149999999999864
 50
90
 51
270
  0
ARC
  8
1
 62
7
 10
979.8656891111375
 20
1148.61701415627
 30
0
 40
41.99999999999989
 50
177.0657192803302
 51
180
  0
ARC
  8
1
 62
7
 10
979.8656891111375
 20
1148.61701415627
 30
0
 40
43.59999999999962
 50
4.934058834334917
 51
85.06594116566514
  0
ARC
  8
1
 62
7
 10
979.8656891111375
 20
1148.61701415627
 30
0
 40
43.60000000000015
 50
87.17348841355465
 51
92.82651158644536
  0
ARC
  8
1
 62
7
 10
979.8656891111375
 20
1148.61701415627
 30
0
 40
43.60000000000007
 50
94.93405883433486
 51
175.0659411656652
  0
ARC
  8
1
 62
7
 10
979.8656891111375
 20
1148.61701415627
 30
0
 40
43.59999999999992
 50
177.1734884135546
 51
182.8265115864454
  0
ARC
  8
1
 62
7
 10
979.8656891111375
 20
1148.61701415627
 30
0
 40
43.60000000000007
 50
184.9340588343349
 51
265.0659411656652
  0
ARC
  8
1
 62
7
 10
979.8656891111375
 20
1148.61701415627
 30
0
 40
43.60000000000007
 50
274.9340588343349
 51
355.0659411656651
  0
ARC
  8
1
 62
7
 10
979.8656891111375
 20
1148.61701415627
 30
0
 40
43.59999999999996
 50
0.788498918723115
 51
2.826511586445396
  0
ARC
  8
1
 62
7
 10
979.8656891111375
 20
1148.61701415627
 30
0
 40
43.59999999999958
 50
357.1734884135547
 51
359.2115010812768
  0
ARC
  8
1
 62
7
 10
979.8656891111375
 20
1148.61701415627
 30
0
 40
42.00000000000001
 50
357.0657192803301
 51
359.181461021027
  0
ARC
  8
1
 62
7
 10
979.8656891111375
 20
1148.61701415627
 30
0
 40
42.00000000000104
 50
275.1225160997808
 51
354.877483900219
  0
ARC
  8
1
 62
7
 10
979.8656891111375
 20
1148.61701415627
 30
0
 40
41.99999999999992
 50
185.1225160997809
 51
264.8774839002193
  0
ARC
  8
1
 62
7
 10
979.8656891111375
 20
1148.61701415627
 30
0
 40
42
 50
180
 51
182.9342807196698
  0
ARC
  8
1
 62
7
 10
979.8656891111375
 20
1148.61701415627
 30
0
 40
41.999999999999
 50
95.12251609978102
 51
174.8774839002191
  0
ARC
  8
1
 62
7
 10
979.8656891111375
 20
1148.61701415627
 30
0
 40
42.00000000000058
 50
87.06571928033021
 51
92.93428071966977
  0
ARC
  8
1
 62
7
 10
979.8656891111375
 20
1148.61701415627
 30
0
 40
41.99999999999946
 50
5.122516099780973
 51
84.87748390021898
  0
ARC
  8
1
 62
7
 10
979.8656891111375
 20
1148.61701415627
 30
0
 40
42.00000000000046
 50
0.8185389789729624
 51
2.93428071966982
  0
ARC
  8
1
 62
7
 10
979.8656891111375
 20
1148.61701415627
 30
0
 40
50.0999999999996
 50
87.54044375797336
 51
89.31380659621259
  0
ARC
  8
1
 62
7
 10
979.8656891111375
 20
1148.61701415627
 30
0
 40
48.50000000000004
 50
87.4592513828083
 51
89.29116815152058
  0
ARC
  8
1
 62
7
 10
979.8656891111375
 20
1148.61701415627
 30
0
 40
75.5999999999996
 50
88.37033681000517
 51
89.54526681727994
  0
ARC
  8
1
 62
7
 10
979.8656891111375
 20
1148.61701415627
 30
0
 40
73.99999999999938
 50
88.33509103340732
 51
89.5354345352762
  0
ARC
  8
1
 62
7
 10
979.8656891111375
 20
1148.61701415627
 30
0
 40
54.99999999999994
 50
177.7596850739675
 51
179.3749427343365
  0
ARC
  8
1
 62
7
 10
979.8656891111375
 20
1148.61701415627
 30
0
 40
56.60000000000019
 50
177.8230464681754
 51
179.3926128692292
  0
ARC
  8
1
 62
7
 10
979.8656891111375
 20
1148.61701415627
 30
0
 40
81.0000000000001
 50
178.4790074631606
 51
179.5755829370896
  0
ARC
  8
1
 62
7
 10
979.8656891111375
 20
1148.61701415627
 30
0
 40
82.59999999999987
 50
178.5084765111271
 51
179.5838042368797
  0
ARC
  8
1
 62
7
 10
979.8656891111375
 20
1148.61701415627
 30
0
 40
63.10000000000048
 50
268.0473886827007
 51
269.4551824758694
  0
ARC
  8
1
 62
7
 10
979.8656891111375
 20
1148.61701415627
 30
0
 40
61.49999999999943
 50
267.9965685880427
 51
269.4410079173873
  0
ARC
  8
1
 62
7
 10
979.8656891111375
 20
1148.61701415627
 30
0
 40
89.09999999999957
 50
268.6173077038742
 51
269.614166918839
  0
ARC
  8
1
 62
7
 10
979.8656891111375
 20
1148.61701415627
 30
0
 40
87.50000000000014
 50
268.5920191427351
 51
269.6071115757641
  0
ARC
  8
1
 62
7
 10
979.8656891111375
 20
1148.61701415627
 30
0
 40
69.59999999999967
 50
358.2298056623924
 51
359.5060647482318
  0
ARC
  8
1
 62
7
 10
979.8656891111375
 20
1148.61701415627
 30
0
 40
68.00000000000048
 50
358.1881403011897
 51
359.4944424441488
  0
ARC
  8
1
 62
7
 10
979.8656891111375
 20
1148.61701415627
 30
0
 40
48.4999999999995
 50
90.70883184847943
 51
92.54074861719168
  0
ARC
  8
1
 62
7
 10
979.8656891111375
 20
1148.61701415627
 30
0
 40
50.10000000000008
 50
90.68619340378743
 51
92.45955624202662
  0
ARC
  8
1
 62
7
 10
979.8656891111375
 20
1148.61701415627
 30
0
 40
54.99999999999994
 50
87.75968507396746
 51
92.24031492603254
  0
ARC
  8
1
 62
7
 10
979.8656891111375
 20
1148.61701415627
 30
0
 40
56.59999999999951
 50
87.82304646817539
 51
92.17695353182461
  0
ARC
  8
1
 62
7
 10
979.8656891111375
 20
1148.61701415627
 30
0
 40
61.49999999999943
 50
87.99656858804272
 51
92.00343141195728
  0
ARC
  8
1
 62
7
 10
979.8656891111375
 20
1148.61701415627
 30
0
 40
63.10000000000048
 50
88.04738868270073
 51
91.95261131729927
  0
ARC
  8
1
 62
7
 10
979.8656891111375
 20
1148.61701415627
 30
0
 40
67.99999999999889
 50
88.18814030118966
 51
91.81185969881034
  0
ARC
  8
1
 62
7
 10
979.8656891111375
 20
1148.61701415627
 30
0
 40
69.60000000000012
 50
88.22980566239244
 51
91.77019433760756
  0
ARC
  8
1
 62
7
 10
979.8656891111375
 20
1148.61701415627
 30
0
 40
73.99999999999962
 50
90.46456546472381
 51
91.66490896659268
  0
ARC
  8
1
 62
7
 10
979.8656891111375
 20
1148.61701415627
 30
0
 40
75.59999999999901
 50
90.45473318272008
 51
91.62966318999482
  0
ARC
  8
1
 62
7
 10
979.8656891111375
 20
1148.61701415627
 30
0
 40
81.0000000000001
 50
88.4790074631606
 51
91.5209925368394
  0
ARC
  8
1
 62
7
 10
979.8656891111375
 20
1148.61701415627
 30
0
 40
82.60000000000078
 50
88.50847651112716
 51
91.49152348887284
  0
ARC
  8
1
 62
7
 10
979.8656891111375
 20
1148.61701415627
 30
0
 40
87.50000000000014
 50
88.59201914273515
 51
91.40798085726485
  0
ARC
  8
1
 62
7
 10
979.8656891111375
 20
1148.61701415627
 30
0
 40
89.09999999999957
 50
88.6173077038742
 51
91.3826922961258
  0
ARC
  8
1
 62
7
 10
979.8656891111375
 20
1148.61701415627
 30
0
 40
48.49999999999967
 50
4.434512039855666
 51
85.5654879601444
  0
ARC
  8
1
 62
7
 10
979.8656891111375
 20
1148.61701415627
 30
0
 40
50.0999999999999
 50
4.292620915035017
 51
85.70737908496501
  0
ARC
  8
1
 62
7
 10
979.8656891111375
 20
1148.61701415627
 30
0
 40
54.99999999999953
 50
3.909563524659311
 51
86.09043647534072
  0
ARC
  8
1
 62
7
 10
979.8656891111375
 20
1148.61701415627
 30
0
 40
56.59999999999964
 50
3.79888122223785
 51
86.20111877776219
  0
ARC
  8
1
 62
7
 10
979.8656891111375
 20
1148.61701415627
 30
0
 40
61.50000000000022
 50
3.495813632389851
 51
86.50418636761019
  0
ARC
  8
1
 62
7
 10
979.8656891111375
 20
1148.61701415627
 30
0
 40
63.10000000000008
 50
3.407065770650028
 51
86.59293422935001
  0
ARC
  8
1
 62
7
 10
979.8656891111375
 20
1148.61701415627
 30
0
 40
67.99999999999987
 50
3.161297461320213
 51
86.83870253867981
  0
ARC
  8
1
 62
7
 10
979.8656891111375
 20
1148.61701415627
 30
0
 40
69.60000000000045
 50
3.088552651250217
 51
86.91144734874976
  0
ARC
  8
1
 62
7
 10
979.8656891111375
 20
1148.61701415627
 30
0
 40
73.99999999999997
 50
2.904746489145452
 51
87.09525351085453
  0
ARC
  8
1
 62
7
 10
979.8656891111375
 20
1148.61701415627
 30
0
 40
75.59999999999992
 50
2.843219314036653
 51
87.15678068596337
  0
ARC
  8
1
 62
7
 10
979.8656891111375
 20
1148.61701415627
 30
0
 40
81.00000000000017
 50
2.653530867405844
 51
87.34646913259414
  0
ARC
  8
1
 62
7
 10
979.8656891111375
 20
1148.61701415627
 30
0
 40
82.60000000000011
 50
2.602095036277067
 51
87.39790496372295
  0
ARC
  8
1
 62
7
 10
979.8656891111375
 20
1148.61701415627
 30
0
 40
87.50000000000028
 50
2.456285723581969
 51
87.54371427641799
  0
ARC
  8
1
 62
7
 10
979.8656891111375
 20
1148.61701415627
 30
0
 40
89.10000000000039
 50
2.412151021217404
 51
87.58784897878259
  0
ARC
  8
1
 62
7
 10
979.8656891111375
 20
1148.61701415627
 30
0
 40
48.50000000000035
 50
94.43451203985561
 51
175.5654879601443
  0
ARC
  8
1
 62
7
 10
979.8656891111375
 20
1148.61701415627
 30
0
 40
50.10000000000035
 50
94.29262091503497
 51
175.707379084965
  0
ARC
  8
1
 62
7
 10
979.8656891111375
 20
1148.61701415627
 30
0
 40
54.99999999999999
 50
93.90956352465928
 51
176.0904364753407
  0
ARC
  8
1
 62
7
 10
979.8656891111375
 20
1148.61701415627
 30
0
 40
56.60000000000009
 50
93.79888122223781
 51
176.2011187777622
  0
ARC
  8
1
 62
7
 10
979.8656891111375
 20
1148.61701415627
 30
0
 40
63.10000000000075
 50
93.40706577064999
 51
176.59293422935
  0
ARC
  8
1
 62
7
 10
979.8656891111375
 20
1148.61701415627
 30
0
 40
68.00000000000033
 50
93.16129746132019
 51
176.8387025386798
  0
ARC
  8
1
 62
7
 10
979.8656891111375
 20
1148.61701415627
 30
0
 40
69.59999999999975
 50
93.08855265125024
 51
176.9114473487498
  0
ARC
  8
1
 62
7
 10
979.8656891111375
 20
1148.61701415627
 30
0
 40
73.99999999999952
 50
92.90474648914547
 51
177.0952535108546
  0
ARC
  8
1
 62
7
 10
979.8656891111375
 20
1148.61701415627
 30
0
 40
75.60000000000038
 50
92.84321931403663
 51
177.1567806859633
  0
ARC
  8
1
 62
7
 10
979.8656891111375
 20
1148.61701415627
 30
0
 40
80.9999999999997
 50
92.65353086740586
 51
177.3464691325941
  0
ARC
  8
1
 62
7
 10
979.8656891111375
 20
1148.61701415627
 30
0
 40
82.60000000000056
 50
92.60209503627705
 51
177.3979049637229
  0
ARC
  8
1
 62
7
 10
979.8656891111375
 20
1148.61701415627
 30
0
 40
87.49999999999869
 50
92.456285723582
 51
177.543714276418
  0
ARC
  8
1
 62
7
 10
979.8656891111375
 20
1148.61701415627
 30
0
 40
89.09999999999994
 50
92.41215102121741
 51
177.5878489787826
  0
ARC
  8
1
 62
7
 10
979.8656891111375
 20
1148.61701415627
 30
0
 40
48.50000000000004
 50
177.4592513828083
 51
182.5407486171917
  0
ARC
  8
1
 62
7
 10
979.8656891111375
 20
1148.61701415627
 30
0
 40
50.0999999999996
 50
177.5404437579734
 51
182.4595562420266
  0
ARC
  8
1
 62
7
 10
979.8656891111375
 20
1148.61701415627
 30
0
 40
54.99999999999991
 50
180.6250572656635
 51
182.2403149260325
  0
ARC
  8
1
 62
7
 10
979.8656891111375
 20
1148.61701415627
 30
0
 40
56.60000000000009
 50
180.6073871307709
 51
182.1769535318246
  0
ARC
  8
1
 62
7
 10
979.8656891111375
 20
1148.61701415627
 30
0
 40
61.49999999999989
 50
177.9965685880427
 51
182.0034314119573
  0
ARC
  8
1
 62
7
 10
979.8656891111375
 20
1148.61701415627
 30
0
 40
63.10000000000002
 50
178.0473886827007
 51
181.9526113172993
  0
ARC
  8
1
 62
7
 10
979.8656891111375
 20
1148.61701415627
 30
0
 40
68.00000000000003
 50
178.1881403011897
 51
181.8118596988103
  0
ARC
  8
1
 62
7
 10
979.8656891111375
 20
1148.61701415627
 30
0
 40
69.5999999999999
 50
178.2298056623924
 51
181.7701943376075
  0
ARC
  8
1
 62
7
 10
979.8656891111375
 20
1148.61701415627
 30
0
 40
73.99999999999983
 50
178.3350910334073
 51
181.6649089665927
  0
ARC
  8
1
 62
7
 10
979.8656891111375
 20
1148.61701415627
 30
0
 40
75.60000000000005
 50
178.3703368100052
 51
181.6296631899948
  0
ARC
  8
1
 62
7
 10
979.8656891111375
 20
1148.61701415627
 30
0
 40
81.0000000000001
 50
180.4244170629104
 51
181.5209925368394
  0
ARC
  8
1
 62
7
 10
979.8656891111375
 20
1148.61701415627
 30
0
 40
82.59999999999997
 50
180.4161957631204
 51
181.4915234888728
  0
ARC
  8
1
 62
7
 10
979.8656891111375
 20
1148.61701415627
 30
0
 40
87.49999999999992
 50
178.5920191427352
 51
181.4079808572649
  0
ARC
  8
1
 62
7
 10
979.8656891111375
 20
1148.61701415627
 30
0
 40
89.10000000000002
 50
178.6173077038742
 51
181.3826922961258
  0
ARC
  8
1
 62
7
 10
979.8656891111375
 20
1148.61701415627
 30
0
 40
61.49999999999886
 50
93.49581363238993
 51
176.5041863676102
  0
ARC
  8
1
 62
7
 10
979.8656891111375
 20
1148.61701415627
 30
0
 40
89.09999999999994
 50
182.4121510212174
 51
267.5878489787826
  0
ARC
  8
1
 62
7
 10
979.8656891111375
 20
1148.61701415627
 30
0
 40
87.50000000000006
 50
182.456285723582
 51
267.5437142764181
  0
ARC
  8
1
 62
7
 10
979.8656891111375
 20
1148.61701415627
 30
0
 40
82.59999999999988
 50
182.6020950362771
 51
267.397904963723
  0
ARC
  8
1
 62
7
 10
979.8656891111375
 20
1148.61701415627
 30
0
 40
80.99999999999994
 50
182.6535308674058
 51
267.3464691325942
  0
ARC
  8
1
 62
7
 10
979.8656891111375
 20
1148.61701415627
 30
0
 40
75.59999999999992
 50
182.8432193140367
 51
267.1567806859634
  0
ARC
  8
1
 62
7
 10
979.8656891111375
 20
1148.61701415627
 30
0
 40
73.99999999999974
 50
182.9047464891455
 51
267.0952535108546
  0
ARC
  8
1
 62
7
 10
979.8656891111375
 20
1148.61701415627
 30
0
 40
69.59999999999998
 50
183.0885526512502
 51
266.9114473487497
  0
ARC
  8
1
 62
7
 10
979.8656891111375
 20
1148.61701415627
 30
0
 40
68.0000000000001
 50
183.1612974613202
 51
266.8387025386798
  0
ARC
  8
1
 62
7
 10
979.8656891111375
 20
1148.61701415627
 30
0
 40
63.10000000000008
 50
183.40706577065
 51
266.59293422935
  0
ARC
  8
1
 62
7
 10
979.8656891111375
 20
1148.61701415627
 30
0
 40
61.49999999999999
 50
183.4958136323899
 51
266.5041863676102
  0
ARC
  8
1
 62
7
 10
979.8656891111375
 20
1148.61701415627
 30
0
 40
56.59999999999987
 50
183.7988812222378
 51
266.2011187777622
  0
ARC
  8
1
 62
7
 10
979.8656891111375
 20
1148.61701415627
 30
0
 40
54.99999999999976
 50
183.9095635246593
 51
266.0904364753408
  0
ARC
  8
1
 62
7
 10
979.8656891111375
 20
1148.61701415627
 30
0
 40
50.09999999999967
 50
184.292620915035
 51
265.707379084965
  0
ARC
  8
1
 62
7
 10
979.8656891111375
 20
1148.61701415627
 30
0
 40
48.50000000000012
 50
184.4345120398556
 51
265.5654879601444
  0
ARC
  8
1
 62
7
 10
979.8656891111375
 20
1148.61701415627
 30
0
 40
89.10000000000127
 50
270.385833081161
 51
271.3826922961258
  0
ARC
  8
1
 62
7
 10
979.8656891111375
 20
1148.61701415627
 30
0
 40
87.49999999999965
 50
270.3928884242359
 51
271.4079808572648
  0
ARC
  8
1
 62
7
 10
979.8656891111375
 20
1148.61701415627
 30
0
 40
82.60000000000078
 50
268.5084765111272
 51
271.4915234888728
  0
ARC
  8
1
 62
7
 10
979.8656891111375
 20
1148.61701415627
 30
0
 40
81.0000000000001
 50
268.4790074631606
 51
271.5209925368394
  0
ARC
  8
1
 62
7
 10
979.8656891111375
 20
1148.61701415627
 30
0
 40
75.59999999999937
 50
268.3703368100051
 51
271.6296631899948
  0
ARC
  8
1
 62
7
 10
979.8656891111375
 20
1148.61701415627
 30
0
 40
73.99999999999938
 50
268.3350910334073
 51
271.6649089665927
  0
ARC
  8
1
 62
7
 10
979.8656891111375
 20
1148.61701415627
 30
0
 40
69.60000000000012
 50
268.2298056623925
 51
271.7701943376075
  0
ARC
  8
1
 62
7
 10
979.8656891111375
 20
1148.61701415627
 30
0
 40
68.00000000000094
 50
268.1881403011897
 51
271.8118596988103
  0
ARC
  8
1
 62
7
 10
979.8656891111375
 20
1148.61701415627
 30
0
 40
63.10000000000022
 50
270.5448175241306
 51
271.9526113172992
  0
ARC
  8
1
 62
7
 10
979.8656891111375
 20
1148.61701415627
 30
0
 40
61.50000000000053
 50
270.5589920826127
 51
272.0034314119573
  0
ARC
  8
1
 62
7
 10
979.8656891111375
 20
1148.61701415627
 30
0
 40
56.59999999999928
 50
267.8230464681754
 51
272.1769535318246
  0
ARC
  8
1
 62
7
 10
979.8656891111375
 20
1148.61701415627
 30
0
 40
54.99999999999994
 50
267.7596850739675
 51
272.2403149260325
  0
ARC
  8
1
 62
7
 10
979.8656891111375
 20
1148.61701415627
 30
0
 40
50.0999999999996
 50
267.5404437579734
 51
272.4595562420266
  0
ARC
  8
1
 62
7
 10
979.8656891111375
 20
1148.61701415627
 30
0
 40
48.50000000000004
 50
267.4592513828083
 51
272.5407486171916
  0
ARC
  8
1
 62
7
 10
979.8656891111375
 20
1148.61701415627
 30
0
 40
48.5000000000005
 50
357.4592513828083
 51
2.540748617191663
  0
ARC
  8
1
 62
7
 10
979.8656891111375
 20
1148.61701415627
 30
0
 40
50.10000000000029
 50
357.5404437579734
 51
2.459556242026646
  0
ARC
  8
1
 62
7
 10
979.8656891111375
 20
1148.61701415627
 30
0
 40
54.99999999999949
 50
357.7596850739674
 51
2.240314926032554
  0
ARC
  8
1
 62
7
 10
979.8656891111375
 20
1148.61701415627
 30
0
 40
56.59999999999997
 50
357.8230464681755
 51
2.176953531824594
  0
ARC
  8
1
 62
7
 10
979.8656891111375
 20
1148.61701415627
 30
0
 40
61.49999999999989
 50
357.9965685880427
 51
2.003431411957273
  0
ARC
  8
1
 62
7
 10
979.8656891111375
 20
1148.61701415627
 30
0
 40
63.10000000000002
 50
358.0473886827007
 51
1.952611317299288
  0
ARC
  8
1
 62
7
 10
979.8656891111375
 20
1148.61701415627
 30
0
 40
68.00000000000048
 50
0.5055575558511865
 51
1.811859698810302
  0
ARC
  8
1
 62
7
 10
979.8656891111375
 20
1148.61701415627
 30
0
 40
69.60000000000022
 50
0.4939352517681299
 51
1.770194337607564
  0
ARC
  8
1
 62
7
 10
979.8656891111375
 20
1148.61701415627
 30
0
 40
73.99999999999983
 50
358.3350910334073
 51
1.664908966592681
  0
ARC
  8
1
 62
7
 10
979.8656891111375
 20
1148.61701415627
 30
0
 40
75.60000000000005
 50
358.3703368100052
 51
1.62966318999482
  0
ARC
  8
1
 62
7
 10
979.8656891111375
 20
1148.61701415627
 30
0
 40
80.99999999999965
 50
358.4790074631606
 51
1.520992536839406
  0
ARC
  8
1
 62
7
 10
979.8656891111375
 20
1148.61701415627
 30
0
 40
82.60000000000032
 50
358.5084765111271
 51
1.491523488872858
  0
ARC
  8
1
 62
7
 10
979.8656891111375
 20
1148.61701415627
 30
0
 40
87.49999999999969
 50
358.5920191427351
 51
1.407980857264851
  0
ARC
  8
1
 62
7
 10
979.8656891111375
 20
1148.61701415627
 30
0
 40
89.10000000000002
 50
358.6173077038742
 51
1.382692296125793
  0
ARC
  8
1
 62
7
 10
979.8656891111375
 20
1148.61701415627
 30
0
 40
48.50000000000035
 50
274.4345120398556
 51
355.5654879601443
  0
ARC
  8
1
 62
7
 10
979.8656891111375
 20
1148.61701415627
 30
0
 40
50.10000000000035
 50
274.292620915035
 51
355.707379084965
  0
ARC
  8
1
 62
7
 10
979.8656891111375
 20
1148.61701415627
 30
0
 40
54.99999999999999
 50
273.9095635246593
 51
356.0904364753407
  0
ARC
  8
1
 62
7
 10
979.8656891111375
 20
1148.61701415627
 30
0
 40
56.60000000000009
 50
273.7988812222378
 51
356.2011187777621
  0
ARC
  8
1
 62
7
 10
979.8656891111375
 20
1148.61701415627
 30
0
 40
61.50000000000067
 50
273.4958136323899
 51
356.5041863676102
  0
ARC
  8
1
 62
7
 10
979.8656891111375
 20
1148.61701415627
 30
0
 40
63.10000000000075
 50
273.40706577065
 51
356.5929342293499
  0
ARC
  8
1
 62
7
 10
979.8656891111375
 20
1148.61701415627
 30
0
 40
68.00000000000033
 50
273.1612974613202
 51
356.8387025386799
  0
ARC
  8
1
 62
7
 10
979.8656891111375
 20
1148.61701415627
 30
0
 40
69.59999999999975
 50
273.0885526512503
 51
356.9114473487498
  0
ARC
  8
1
 62
7
 10
979.8656891111375
 20
1148.61701415627
 30
0
 40
73.99999999999952
 50
272.9047464891455
 51
357.0952535108545
  0
ARC
  8
1
 62
7
 10
979.8656891111375
 20
1148.61701415627
 30
0
 40
75.60000000000038
 50
272.8432193140366
 51
357.1567806859634
  0
ARC
  8
1
 62
7
 10
979.8656891111375
 20
1148.61701415627
 30
0
 40
80.9999999999997
 50
272.6535308674059
 51
357.3464691325941
  0
ARC
  8
1
 62
7
 10
979.8656891111375
 20
1148.61701415627
 30
0
 40
82.60000000000056
 50
272.602095036277
 51
357.3979049637229
  0
ARC
  8
1
 62
7
 10
979.8656891111375
 20
1148.61701415627
 30
0
 40
87.50000000000075
 50
272.456285723582
 51
357.543714276418
  0
ARC
  8
1
 62
7
 10
979.8656891111375
 20
1148.61701415627
 30
0
 40
89.09999999999971
 50
272.4121510212174
 51
357.5878489787826
  0
ARC
  8
1
 62
7
 10
979.8656891111375
 20
1148.61701415627
 30
0
 40
37.1
 50
5.801259504023552
 51
84.19874049597637
  0
ARC
  8
1
 62
7
 10
979.8656891111375
 20
1148.61701415627
 30
0
 40
37.10000000000059
 50
95.80125950402382
 51
174.1987404959765
  0
ARC
  8
1
 62
7
 10
979.8656891111375
 20
1148.61701415627
 30
0
 40
37.10000000000034
 50
185.8012595040235
 51
264.198740495976
  0
ARC
  8
1
 62
7
 10
979.8656891111375
 20
1148.61701415627
 30
0
 40
37.10000000000052
 50
275.8012595040228
 51
354.1987404959763
  0
ARC
  8
1
 62
7
 10
979.8656891111375
 20
1148.61701415627
 30
0
 40
35.49999999999977
 50
6.063683870528749
 51
83.93631612947119
  0
ARC
  8
1
 62
7
 10
979.8656891111375
 20
1148.61701415627
 30
0
 40
30.60000000000018
 50
7.039236682467943
 51
82.96076331753194
  0
ARC
  8
1
 62
7
 10
979.8656891111375
 20
1148.61701415627
 30
0
 40
29.00000000000003
 50
7.429741610817806
 51
82.5702583891821
  0
ARC
  8
1
 62
7
 10
979.8656891111375
 20
1148.61701415627
 30
0
 40
24.10000000000013
 50
8.951692202742429
 51
81.04830779725741
  0
ARC
  8
1
 62
7
 10
979.8656891111375
 20
1148.61701415627
 30
0
 40
22.49999999999996
 50
9.594068226860477
 51
80.40593177313933
  0
ARC
  8
1
 62
7
 10
979.8656891111375
 20
1148.61701415627
 30
0
 40
17.60000000000007
 50
12.30221641067999
 51
77.69778358932291
  0
ARC
  8
1
 62
7
 10
979.8656891111375
 20
1148.61701415627
 30
0
 40
16.0000000000001
 50
13.5547840371789
 51
76.44521596282073
  0
ARC
  8
1
 62
7
 10
979.8656891111375
 20
1148.61701415627
 30
0
 40
11.09999999999993
 50
19.74519810056169
 51
70.25480189943752
  0
ARC
  8
1
 62
7
 10
979.8656891111375
 20
1148.61701415627
 30
0
 40
9.49999999999992
 50
23.2495625905869
 51
66.75043740941959
  0
ARC
  8
1
 62
7
 10
979.8656891111375
 20
1148.61701415627
 30
0
 40
37.09999999999978
 50
86.67776331248733
 51
93.32223668751338
  0
ARC
  8
1
 62
7
 10
979.8656891111375
 20
1148.61701415627
 30
0
 40
35.49999999999957
 50
86.5278491097102
 51
93.4721508902898
  0
ARC
  8
1
 62
7
 10
979.8656891111375
 20
1148.61701415627
 30
0
 40
30.59999999999971
 50
85.97099652024809
 51
94.02900347975317
  0
ARC
  8
1
 62
7
 10
979.8656891111375
 20
1148.61701415627
 30
0
 40
29
 50
85.74830851104289
 51
94.25169148895905
  0
ARC
  8
1
 62
7
 10
979.8656891111375
 20
1148.61701415627
 30
0
 40
24.09999999999977
 50
91.42659834144799
 51
95.118253700438
  0
ARC
  8
1
 62
7
 10
979.8656891111375
 20
1148.61701415627
 30
0
 40
22.50000000000007
 50
91.5280685946105
 51
95.48329627117867
  0
ARC
  8
1
 62
7
 10
979.8656891111375
 20
1148.61701415627
 30
0
 40
17.60000000000044
 50
82.98327371795693
 51
97.01672628204307
  0
ARC
  8
1
 62
7
 10
979.8656891111375
 20
1148.61701415627
 30
0
 40
16.00000000000052
 50
82.27751926970947
 51
97.72248073029135
  0
ARC
  8
1
 62
7
 10
979.8656891111375
 20
1148.61701415627
 30
0
 40
11.10000000000041
 50
78.83157708658017
 51
101.1684229134267
  0
ARC
  8
1
 62
7
 10
979.8656891111375
 20
1148.61701415627
 30
0
 40
9.49999999999948
 50
76.91973661959163
 51
103.0802633804084
  0
ARC
  8
1
 62
7
 10
979.8656891111375
 20
1148.61701415627
 30
0
 40
35.50000000000036
 50
96.06368387052901
 51
173.9363161294713
  0
ARC
  8
1
 62
7
 10
979.8656891111375
 20
1148.61701415627
 30
0
 40
35.50000000000033
 50
186.0636838705286
 51
263.936316129471
  0
ARC
  8
1
 62
7
 10
979.8656891111375
 20
1148.61701415627
 30
0
 40
35.50000000000029
 50
276.0636838705279
 51
353.9363161294713
  0
ARC
  8
1
 62
7
 10
979.8656891111375
 20
1148.61701415627
 30
0
 40
35.50000000000002
 50
176.5278491097102
 51
183.4721508902898
  0
ARC
  8
1
 62
7
 10
979.8656891111375
 20
1148.61701415627
 30
0
 40
35.50000000000004
 50
270.9684254821352
 51
273.4721508902894
  0
ARC
  8
1
 62
7
 10
979.8656891111375
 20
1148.61701415627
 30
0
 40
35.499999999999
 50
356.5278491097101
 51
3.472150890289856
  0
ARC
  8
1
 62
7
 10
979.8656891111375
 20
1148.61701415627
 30
0
 40
30.59999999999976
 50
97.03923668246846
 51
172.960763317532
  0
ARC
  8
1
 62
7
 10
979.8656891111375
 20
1148.61701415627
 30
0
 40
30.60000000000018
 50
187.039236682468
 51
262.9607633175315
  0
ARC
  8
1
 62
7
 10
979.8656891111375
 20
1148.61701415627
 30
0
 40
30.59999999999968
 50
277.0392366824672
 51
352.9607633175318
  0
ARC
  8
1
 62
7
 10
979.8656891111375
 20
1148.61701415627
 30
0
 40
30.60000000000039
 50
181.1235186577002
 51
184.0290034797535
  0
ARC
  8
1
 62
7
 10
979.8656891111375
 20
1148.61701415627
 30
0
 40
30.60000000000063
 50
265.9709965202478
 51
274.0290034797527
  0
ARC
  8
1
 62
7
 10
979.8656891111375
 20
1148.61701415627
 30
0
 40
30.60000000000005
 50
355.9709965202482
 51
4.029003479751865
  0
ARC
  8
1
 62
7
 10
979.8656891111375
 20
1148.61701415627
 30
0
 40
28.99999999999972
 50
97.42974161081834
 51
172.5702583891822
  0
ARC
  8
1
 62
7
 10
979.8656891111375
 20
1148.61701415627
 30
0
 40
29.00000000000015
 50
187.4297416108178
 51
262.5702583891816
  0
ARC
  8
1
 62
7
 10
979.8656891111375
 20
1148.61701415627
 30
0
 40
28.99999999999941
 50
277.4297416108171
 51
352.570258389182
  0
ARC
  8
1
 62
7
 10
979.8656891111375
 20
1148.61701415627
 30
0
 40
28.99999999999989
 50
181.1855145101391
 51
184.251691488959
  0
ARC
  8
1
 62
7
 10
979.8656891111375
 20
1148.61701415627
 30
0
 40
29.00000000000003
 50
265.7483085110425
 51
274.2516914889585
  0
ARC
  8
1
 62
7
 10
979.8656891111375
 20
1148.61701415627
 30
0
 40
28.99999999999956
 50
355.7483085110428
 51
4.251691488958979
  0
ARC
  8
1
 62
7
 10
979.8656891111375
 20
1148.61701415627
 30
0
 40
24.09999999999979
 50
98.95169220274418
 51
171.0483077972576
  0
ARC
  8
1
 62
7
 10
979.8656891111375
 20
1148.61701415627
 30
0
 40
24.10000000000028
 50
188.9516922027446
 51
261.0483077972569
  0
ARC
  8
1
 62
7
 10
979.8656891111375
 20
1148.61701415627
 30
0
 40
24.09999999999968
 50
278.9516922027426
 51
351.0483077972572
  0
ARC
  8
1
 62
7
 10
979.8656891111375
 20
1148.61701415627
 30
0
 40
24.10000000000065
 50
174.8817462995654
 51
185.1182537004391
  0
ARC
  8
1
 62
7
 10
979.8656891111375
 20
1148.61701415627
 30
0
 40
24.10000000000063
 50
264.881746299566
 51
275.1182537004375
  0
ARC
  8
1
 62
7
 10
979.8656891111375
 20
1148.61701415627
 30
0
 40
24.1000000000002
 50
354.8817462995652
 51
5.118253700437057
  0
ARC
  8
1
 62
7
 10
979.8656891111375
 20
1148.61701415627
 30
0
 40
22.49999999999963
 50
99.59406822686238
 51
170.4059317731396
  0
ARC
  8
1
 62
7
 10
979.8656891111375
 20
1148.61701415627
 30
0
 40
22.50000000000035
 50
189.5940682268627
 51
260.4059317731392
  0
ARC
  8
1
 62
7
 10
979.8656891111375
 20
1148.61701415627
 30
0
 40
22.50000000000042
 50
279.5940682268603
 51
350.4059317731395
  0
ARC
  8
1
 62
7
 10
979.8656891111375
 20
1148.61701415627
 30
0
 40
22.50000000000044
 50
174.5167037288213
 51
185.4832962711787
  0
ARC
  8
1
 62
7
 10
979.8656891111375
 20
1148.61701415627
 30
0
 40
22.50000000000046
 50
264.5167037288207
 51
275.4832962711781
  0
ARC
  8
1
 62
7
 10
979.8656891111375
 20
1148.61701415627
 30
0
 40
22.49999999999999
 50
354.5167037288212
 51
5.483296271178795
  0
ARC
  8
1
 62
7
 10
979.8656891111375
 20
1148.61701415627
 30
0
 40
17.60000000000011
 50
102.3022164106807
 51
167.6977835893232
  0
ARC
  8
1
 62
7
 10
979.8656891111375
 20
1148.61701415627
 30
0
 40
17.60000000000029
 50
192.3022164106799
 51
257.697783589322
  0
ARC
  8
1
 62
7
 10
979.8656891111375
 20
1148.61701415627
 30
0
 40
17.59999999999975
 50
282.3022164106787
 51
347.6977835893227
  0
ARC
  8
1
 62
7
 10
979.8656891111375
 20
1148.61701415627
 30
0
 40
17.60000000000022
 50
172.9832737179569
 51
187.0167262820432
  0
ARC
  8
1
 62
7
 10
979.8656891111375
 20
1148.61701415627
 30
0
 40
17.60000000000047
 50
262.9832737179562
 51
277.0167262820423
  0
ARC
  8
1
 62
7
 10
979.8656891111375
 20
1148.61701415627
 30
0
 40
17.59999999999949
 50
1.953643752921348
 51
7.016726282043439
  0
ARC
  8
1
 62
7
 10
979.8656891111375
 20
1148.61701415627
 30
0
 40
15.99999999999971
 50
103.5547840371801
 51
166.4452159628213
  0
ARC
  8
1
 62
7
 10
979.8656891111375
 20
1148.61701415627
 30
0
 40
16.00000000000032
 50
193.5547840371787
 51
256.4452159628199
  0
ARC
  8
1
 62
7
 10
979.8656891111375
 20
1148.61701415627
 30
0
 40
15.99999999999955
 50
283.5547840371777
 51
346.4452159628207
  0
ARC
  8
1
 62
7
 10
979.8656891111375
 20
1148.61701415627
 30
0
 40
16.00000000000032
 50
172.2775192697086
 51
187.7224807302914
  0
ARC
  8
1
 62
7
 10
979.8656891111375
 20
1148.61701415627
 30
0
 40
16.00000000000055
 50
262.2775192697087
 51
277.7224807302905
  0
ARC
  8
1
 62
7
 10
979.8656891111375
 20
1148.61701415627
 30
0
 40
15.99999999999962
 50
2.149095626863744
 51
7.722480730291784
  0
ARC
  8
1
 62
7
 10
979.8656891111375
 20
1148.61701415627
 30
0
 40
11.09999999999957
 50
109.7451981005636
 51
160.2548018994387
  0
ARC
  8
1
 62
7
 10
979.8656891111375
 20
1148.61701415627
 30
0
 40
11.10000000000014
 50
199.7451981005613
 51
250.254801899438
  0
ARC
  8
1
 62
7
 10
979.8656891111375
 20
1148.61701415627
 30
0
 40
11.1000000000002
 50
289.7451981005587
 51
340.2548018994376
  0
ARC
  8
1
 62
7
 10
979.8656891111375
 20
1148.61701415627
 30
0
 40
11.10000000000041
 50
168.8315770865802
 51
191.168422913426
  0
ARC
  8
1
 62
7
 10
979.8656891111375
 20
1148.61701415627
 30
0
 40
11.10000000000029
 50
273.098579339822
 51
281.1684229134256
  0
ARC
  8
1
 62
7
 10
979.8656891111375
 20
1148.61701415627
 30
0
 40
11.09999999999975
 50
348.8315770865794
 51
11.16842291342673
  0
ARC
  8
1
 62
7
 10
979.8656891111375
 20
1148.61701415627
 30
0
 40
9.500000000000146
 50
166.9197366195926
 51
193.0802633804074
  0
ARC
  8
1
 62
7
 10
979.8656891111375
 20
1148.61701415627
 30
0
 40
9.499999999999899
 50
273.6210909112025
 51
283.0802633804058
  0
ARC
  8
1
 62
7
 10
979.8656891111375
 20
1148.61701415627
 30
0
 40
9.49999999999948
 50
346.9197366195916
 51
13.08026338040838
  0
ARC
  8
1
 62
7
 10
979.8656891111375
 20
1148.61701415627
 30
0
 40
9.500000000000009
 50
113.2495625905882
 51
156.7504374094203
  0
ARC
  8
1
 62
7
 10
979.8656891111375
 20
1148.61701415627
 30
0
 40
9.500000000000128
 50
203.2495625905864
 51
246.7504374094183
  0
ARC
  8
1
 62
7
 10
979.8656891111375
 20
1148.61701415627
 30
0
 40
9.499999999999741
 50
293.2495625905844
 51
336.7504374094137
  0
ARC
  8
1
 62
7
 10
979.8656891111375
 20
1148.61701415627
 30
0
 40
37.10000000000014
 50
176.6777633124867
 51
183.3222366875133
  0
ARC
  8
1
 62
7
 10
979.8656891111375
 20
1148.61701415627
 30
0
 40
37.09999999999993
 50
270.9266567777686
 51
273.3222366875132
  0
ARC
  8
1
 62
7
 10
979.8656891111375
 20
1148.61701415627
 30
0
 40
37.10000000000037
 50
356.6777633124867
 51
3.322236687513329
  0
ARC
  8
1
 62
7
 10
979.8656891111375
 20
1148.61701415627
 30
0
 40
30.60000000000039
 50
175.9709965202482
 51
178.8764813422997
  0
ARC
  8
1
 62
7
 10
979.8656891111375
 20
1148.61701415627
 30
0
 40
29.00000000000023
 50
175.7483085110429
 51
178.8144854898608
  0
ARC
  8
1
 62
7
 10
979.8656891111375
 20
1148.61701415627
 30
0
 40
42.00000000000058
 50
267.0657192803303
 51
272.9342807196697
  0
ARC
  8
1
 62
7
 10
979.8656891111375
 20
1148.61701415627
 30
0
 40
43.60000000000015
 50
267.1734884135546
 51
272.8265115864454
  0
ARC
  8
1
 62
7
 10
979.8656891111375
 20
1148.61701415627
 30
0
 40
37.09999999999978
 50
266.6777633124872
 51
269.0733432222314
  0
ARC
  8
1
 62
7
 10
979.8656891111375
 20
1148.61701415627
 30
0
 40
35.49999999999959
 50
266.5278491097099
 51
269.0315745178647
  0
ARC
  8
1
 62
7
 10
979.8656891111375
 20
1148.61701415627
 30
0
 40
11.10000000000046
 50
258.831577086579
 51
266.901420660178
  0
ARC
  8
1
 62
7
 10
979.8656891111375
 20
1148.61701415627
 30
0
 40
9.500000000000417
 50
256.9197366195915
 51
266.3789090887975
  0
ARC
  8
1
 62
7
 10
979.8656891111375
 20
1148.61701415627
 30
0
 40
15.99999999999965
 50
352.2775192697082
 51
357.8509043731363
  0
ARC
  8
1
 62
7
 10
979.8656891111375
 20
1148.61701415627
 30
0
 40
17.59999999999954
 50
352.9832737179565
 51
358.0463562470786
  0
ARC
  8
1
 62
7
 10
979.8656891111375
 20
1148.61701415627
 30
0
 40
24.10000000000061
 50
84.88174629956649
 51
88.57340165855202
  0
ARC
  8
1
 62
7
 10
979.8656891111375
 20
1148.61701415627
 30
0
 40
22.50000000000044
 50
84.51670372882133
 51
88.4719314053895
  0
ARC
  8
1
 62
7
 10
1133.199540622396
 20
1239.845288458207
 30
0
 40
1.599999999999909
 50
180
 51
228.9685912664236
  0
ARC
  8
1
 62
7
 10
1133.099540622396
 20
1237.748791499865
 30
0
 40
1.599999999999909
 50
0
 51
49.08561677999538
  0
ARC
  8
1
 62
7
 10
1132.899540622395
 20
1237.633813299996
 30
0
 40
0.200000000000955
 50
0
 51
45
  0
ARC
  8
1
 62
7
 10
1133.199540622396
 20
1057.388544804373
 30
0
 40
1.600000000000054
 50
131.0314087335764
 51
180
  0
ARC
  8
1
 62
7
 10
1133.099540622396
 20
1059.485041762715
 30
0
 40
1.599999999999798
 50
310.9143832200047
 51
0
  0
ARC
  8
1
 62
7
 10
1132.899540622395
 20
1059.600019962584
 30
0
 40
0.2000000000009341
 50
315
 51
0
  0
ENDSEC
  0
EOF
