  0
SECTION
  2
HEADER
  9
$ACADVER
  1
AC1009
  9
$INSBASE
 10
0
 20
0
  9
$EXTMIN
 10
2109.614411443276
 20
864.5817174154322
  9
$EXTMAX
 10
2428.513851265554
 20
1115.134002872752
  9
$LIMMIN
 10
2109.614411443276
 20
864.5817174154322
  9
$LIMMAX
 10
2428.513851265554
 20
1115.134002872752
  9
$VIEWCTR
 10
10
 20
10
  9
$VIEWSIZE
 40
10
  9
$SNAPMODE
 70
0
  9
$SNAPUNIT
 10
1
 20
1
  9
$SNAPBASE
 10
0
 20
0
  9
$SNAPANG
 50
0
  9
$SNAPSTYLE
 70
0
  9
$SNAPISOPAIR
 70
0
  9
$GRIDMODE
 70
0
  9
$GRIDUNIT
 10
0
 20
0
  9
$ORTHOMODE
 70
0
  9
$REGENMODE
 70
1
  9
$FILLMODE
 70
1
  9
$QTEXTMODE
 70
0
  9
$DRAGMODE
 70
2
  9
$LTSCALE
 40
1
  9
$OSMODE
 70
0
  9
$ATTMODE
 70
1
  9
$TEXTSIZE
 40
3.5
  9
$TRACEWID
 40
0.5
  9
$TEXTSTYLE
  7
STANDARD
  9
$CLAYER
  8
0
  9
$CELTYPE
  6
BYLAYER
  9
$CECOLOR
 62
256
  9
$DIMSCALE
 40
1
  9
$DIMASZ
 40
0.18
  9
$DIMEXO
 40
0.0625
  9
$DIMDLI
 40
0.38
  9
$DIMRND
 40
0
  9
$DIMDLE
 40
0
  9
$DIMEXE
 40
0.18
  9
$DIMTP
 40
0
  9
$DIMTM
 40
0
  9
$DIMTXT
 40
0.18
  9
$DIMCEN
 40
0.09
  9
$DIMTSZ
 40
0
  9
$DIMTOL
 70
0
  9
$DIMLIM
 70
0
  9
$DIMTIH
 70
1
  9
$DIMTOH
 70
1
  9
$DIMSE1
 70
0
  9
$DIMSE2
 70
0
  9
$DIMTAD
 70
0
  9
$DIMZIN
 70
0
  9
$DIMBLK
  1

  9
$DIMASO
 70
1
  9
$DIMSHO
 70
1
  9
$DIMPOST
  1

  9
$DIMAPOST
  1

  9
$DIMALT
 70
0
  9
$DIMALTD
 70
2
  9
$DIMALTF
 40
25.4
  9
$DIMLFAC
 40
1
  9
$DIMTOFL
 70
0
  9
$DIMTVP
 40
0
  9
$DIMTIX
 70
0
  9
$DIMSOXD
 70
0
  9
$DIMSAH
 70
0
  9
$DIMBLK1
  1

  9
$DIMBLK2
  1

  9
$DIMSTYLE
  2
*UNNAMED
  9
$DIMCLRD
 70
0
  9
$DIMCLRE
 70
0
  9
$DIMCLRT
 70
0
  9
$DIMTFAC
 40
1
  9
$DIMGAP
 40
0.09
  9
$LUNITS
 70
2
  9
$LUPREC
 70
4
  9
$AXISMODE
 70
0
  9
$AXISUNIT
 10
0
 20
0
  9
$SKETCHINC
 40
0.1
  9
$FILLETRAD
 40
2
  9
$AUNITS
 70
0
  9
$AUPREC
 70
0
  9
$MENU
  1
ACAD
  9
$ELEVATION
 40
0
  9
$THICKNESS
 40
0
  9
$VIEWDIR
 10
0
 20
0
 30
1
  9
$LIMCHECK
 70
0
  9
$BLIPMODE
 70
1
  9
$CHAMFERA
 40
0
  9
$CHAMFERB
 40
0
  9
$FASTZOOM
 70
1
  9
$SKPOLY
 70
0
  9
$ANGBASE
 50
0
  9
$ANGDIR
 70
0
  9
$PDMODE
 70
0
  9
$PDSIZE
 40
0
  9
$PLINEWID
 40
0
  9
$COORDS
 70
2
  0
ENDSEC
  0
SECTION
  2
TABLES
  0
TABLE
  2
DIMSTYLE
 70
0
  0
ENDTAB
  0
TABLE
  2
LTYPE
 70
9
  0
LTYPE
  2
CONTINUOUS
 70
64
  3
Solid line
 72
65
 73
0
 40
0
  0
LTYPE
  2
BORDER
 70
64
  3
__ __ . __ __ .
 72
65
 73
6
 40
14.68615841286807
 49
4.196045260819449
 49
-2.098022630409724
 49
4.196045260819449
 49
-2.098022630409724
 49
0
 49
-2.098022630409724
  0
LTYPE
  2
CENTER
 70
64
  3
____ _ ____ _
 72
65
 73
4
 40
16.78418104327779
 49
10.49011315204862
 49
-2.098022630409724
 49
2.098022630409724
 49
-2.098022630409724
  0
LTYPE
  2
DASHDOT
 70
64
  3
__ . __ . __ .
 72
65
 73
4
 40
8.392090521638897
 49
4.196045260819449
 49
-2.098022630409724
 49
0
 49
-2.098022630409724
  0
LTYPE
  2
DASHED
 70
64
  3
__ __ __ __ __
 72
65
 73
2
 40
6.294067891229172
 49
4.196045260819449
 49
-2.098022630409724
  0
LTYPE
  2
DIVIDE
 70
64
  3
__ . . __ . . 
 72
65
 73
6
 40
10.49011315204862
 49
4.196045260819449
 49
-2.098022630409724
 49
0
 49
-2.098022630409724
 49
0
 49
-2.098022630409724
  0
LTYPE
  2
DOT
 70
64
  3
..............
 72
65
 73
4
 40
4.196045260819449
 49
0
 49
-2.098022630409724
 49
0
 49
-2.098022630409724
  0
LTYPE
  2
HIDDEN
 70
64
  3
_ _ _ _ _ _ _
 72
65
 73
2
 40
3.147033945614586
 49
2.098022630409724
 49
-1.049011315204862
  0
LTYPE
  2
PHANTOM
 70
64
  3
_____ _ _ _____ _ _ 
 72
65
 73
6
 40
20.98022630409724
 49
10.49011315204862
 49
-2.098022630409724
 49
2.098022630409724
 49
-2.098022630409724
 49
2.098022630409724
 49
-2.098022630409724
  0
ENDTAB
  0
TABLE
  2
LAYER
 70
3
  0
LAYER
  2
1
 70
0
 62
7
  6
CONTINUOUS
  0
LAYER
  2
0
 70
0
 62
7
  6
CONTINUOUS
  0
ENDTAB
  0
TABLE
  2
STYLE
 70
4
  0
STYLE
  2
STANDARD
 70
0
 40
0
 41
1
 50
0
 71
0
 42
3.5
  3
txt
  4

  0
STYLE
  2
SIMPLEX
 70
0
 40
0
 41
1
 50
0
 71
0
 42
3.5
  3
simplex
  4

  0
STYLE
  2
COMPLEX
 70
0
 40
0
 41
1
 50
0
 71
0
 42
3.5
  3
complex
  4

  0
STYLE
  2
ITALIC
 70
0
 40
0
 41
1
 50
0
 71
0
 42
3.5
  3
italic
  4

  0
ENDTAB
  0
TABLE
  2
VIEW
 70
0
  0
ENDTAB
  0
ENDSEC
  0
SECTION
  2
BLOCKS
  0
BLOCK
  8
0
  2
TOP_TOP_
 70
0
 10
-246.4699953173556
 20
-145.747100591716
 30
0
  0
LINE
  8
1
 62
7
 10
2421.057889275176
 20
998.2970523333902
 30
0
 11
2422.657889275176
 21
998.2970523333902
 31
0
  0
LINE
  8
1
 62
7
 10
2421.057889275176
 20
981.2970523333902
 30
0
 11
2422.657889275176
 21
981.2970523333902
 31
0
  0
LINE
  8
1
 62
7
 10
2421.057889275176
 20
950.8220523333901
 30
0
 11
2422.657889275176
 21
950.8220523333901
 31
0
  0
LINE
  8
1
 62
7
 10
2422.657889275176
 20
981.2970523333902
 30
0
 11
2422.657889275176
 21
899.7970523333902
 31
0
  0
LINE
  8
1
 62
7
 10
2423.857919217861
 20
986.7970523333902
 30
0
 11
2423.857919217861
 21
989.7970523333902
 31
0
  0
LINE
  8
1
 62
7
 10
2423.857889275177
 20
894.5185913643072
 30
0
 11
2421.325838467607
 21
898.9042320103622
 31
0
  0
LINE
  8
1
 62
7
 10
2421.057889275176
 20
899.9042320103622
 30
0
 11
2421.057889275176
 21
899.9627377583392
 31
0
  0
LINE
  8
1
 62
7
 10
2423.857889275177
 20
884.5401061241721
 30
0
 11
2423.857889275177
 21
894.5185913643072
 31
0
  0
LINE
  8
1
 62
7
 10
2425.457889275177
 20
884.5401061241721
 30
0
 11
2425.457889275177
 21
894.9473100721971
 31
0
  0
LINE
  8
1
 62
7
 10
2425.457889275177
 20
894.9473100721971
 30
0
 11
2422.657889275176
 21
899.7970523333902
 31
0
  0
LINE
  8
1
 62
7
 10
2419.457889275177
 20
903.1007776761032
 30
0
 11
2419.457889275177
 21
989.7970523333902
 31
0
  0
LINE
  8
1
 62
7
 10
2421.057889275176
 20
989.7970523333902
 30
0
 11
2421.057889275176
 21
899.9627377583392
 31
0
  0
LINE
  8
1
 62
7
 10
2425.457889275177
 20
989.7970523333902
 30
0
 11
2425.457889275177
 21
985.9970523333902
 31
0
  0
LINE
  8
1
 62
7
 10
2423.857889275177
 20
878.1022202584591
 30
0
 11
2423.857889275177
 21
884.5401061241721
 31
0
  0
LINE
  8
1
 62
7
 10
2425.457889275177
 20
878.1022202584591
 30
0
 11
2425.457889275177
 21
884.5401061241721
 31
0
  0
LINE
  8
1
 62
7
 10
2423.857919217861
 20
986.7970523333902
 30
0
 11
2421.857889275177
 21
986.7970523333902
 31
0
  0
LINE
  8
1
 62
7
 10
2423.857919217861
 20
986.0039738506202
 30
0
 11
2423.857919217861
 21
986.7970523333902
 31
0
  0
LINE
  8
1
 62
7
 10
2424.669017197694
 20
985.1970523333901
 30
0
 11
2421.857889275177
 21
985.1970523333901
 31
0
  0
LINE
  8
1
 62
7
 10
2423.857919217861
 20
989.7970523333902
 30
0
 11
2423.857919217861
 21
992.7970523333902
 31
0
  0
LINE
  8
1
 62
2
  6
CENTER
 10
2421.278806369558
 20
1097.69188440832
 30
0
 11
2428.404267422175
 21
1097.69188440832
 31
0
  0
LINE
  8
1
 62
2
  6
CENTER
 10
2415.684669135654
 20
989.7970523333902
 30
0
 11
2428.513851265554
 21
989.7970523333902
 31
0
  0
LINE
  8
1
 62
7
 10
2421.325838467607
 20
1080.689872656417
 30
0
 11
2423.857889275177
 21
1085.075513302472
 31
0
  0
LINE
  8
1
 62
7
 10
2421.057889275176
 20
1079.63136690844
 30
0
 11
2421.057889275176
 21
1079.689872656417
 31
0
  0
LINE
  8
1
 62
7
 10
2423.857889275177
 20
1085.075513302472
 30
0
 11
2423.857889275177
 21
1095.053998542607
 31
0
  0
LINE
  8
1
 62
7
 10
2425.457889275177
 20
1084.646794594583
 30
0
 11
2425.457889275177
 21
1095.053998542607
 31
0
  0
LINE
  8
1
 62
7
 10
2422.657889275176
 20
1079.79705233339
 30
0
 11
2425.457889275177
 21
1084.646794594583
 31
0
  0
LINE
  8
1
 62
7
 10
2419.457889275177
 20
1076.493326990676
 30
0
 11
2419.457889275177
 21
989.7970523333902
 31
0
  0
LINE
  8
1
 62
7
 10
2421.057889275176
 20
989.7970523333902
 30
0
 11
2421.057889275176
 21
1079.63136690844
 31
0
  0
LINE
  8
1
 62
7
 10
2422.657889275176
 20
1079.79705233339
 30
0
 11
2422.657889275176
 21
998.2970523333902
 31
0
  0
LINE
  8
1
 62
7
 10
2425.457889275177
 20
993.5970523333901
 30
0
 11
2425.457889275177
 21
989.7970523333902
 31
0
  0
LINE
  8
1
 62
7
 10
2423.857889275177
 20
1095.053998542607
 30
0
 11
2423.857889275177
 21
1101.49188440832
 31
0
  0
LINE
  8
1
 62
7
 10
2425.457889275177
 20
1095.053998542607
 30
0
 11
2425.457889275177
 21
1101.49188440832
 31
0
  0
LINE
  8
1
 62
7
 10
2421.857889275177
 20
992.7970523333902
 30
0
 11
2423.857919217861
 21
992.7970523333902
 31
0
  0
LINE
  8
1
 62
7
 10
2423.857919217861
 20
992.7970523333902
 30
0
 11
2423.857919217861
 21
993.5901308161601
 31
0
  0
LINE
  8
1
 62
7
 10
2421.857889275177
 20
994.3970523333901
 30
0
 11
2424.669017197694
 21
994.3970523333901
 31
0
  0
LINE
  8
1
 62
2
  6
DASHDOT
 10
2237.258827025999
 20
864.5817174154322
 30
0
 11
2237.258827025999
 21
1115.134002872752
 31
0
  0
LINE
  8
1
 62
2
  6
DASHDOT
 10
2129.283827026
 20
989.7970523333902
 30
0
 11
2109.614411443276
 21
989.7970523333902
 31
0
  0
LINE
  8
1
 62
2
  6
DASHDOT
 10
2365.081332916107
 20
989.7970523333902
 30
0
 11
2129.283827026
 21
989.7970523333902
 31
0
  0
LINE
  8
1
 62
7
 10
2222.561888569301
 20
986.7970523333902
 30
0
 11
2222.658827026
 21
986.7970523333902
 31
0
  0
LINE
  8
1
 62
7
  6
DASHED
 10
2222.99465744811
 20
985.1970523333901
 30
0
 11
2228.758827025999
 21
985.1970523333901
 31
0
  0
LINE
  8
1
 62
7
 10
2222.658827026
 20
985.1970523333901
 30
0
 11
2222.99465744811
 21
985.1970523333901
 31
0
  0
LINE
  8
1
 62
7
  6
DASHED
 10
2228.758827025999
 20
986.7970523333902
 30
0
 11
2228.758827025999
 21
985.1970523333901
 31
0
  0
LINE
  8
1
 62
7
  6
DASHED
 10
2222.658827026
 20
986.7970523333902
 30
0
 11
2228.758827025999
 21
986.7970523333902
 31
0
  0
LINE
  8
1
 62
7
 10
2234.258827025999
 20
975.1001138766912
 30
0
 11
2234.258827025999
 21
975.1970523333901
 31
0
  0
LINE
  8
1
 62
7
  6
DASHED
 10
2232.658827026
 20
975.5197976953302
 30
0
 11
2232.658827026
 21
981.2970523333902
 31
0
  0
LINE
  8
1
 62
7
  6
DASHED
 10
2232.658827026
 20
981.2970523333902
 30
0
 11
2234.258827025999
 21
981.2970523333902
 31
0
  0
LINE
  8
1
 62
7
  6
DASHED
 10
2234.258827025999
 20
975.1970523333901
 30
0
 11
2234.258827025999
 21
981.2970523333902
 31
0
  0
LINE
  8
1
 62
7
 10
2232.658827026
 20
975.1970523333901
 30
0
 11
2232.658827026
 21
975.5197976953302
 31
0
  0
LINE
  8
1
 62
7
  6
DASHED
 10
2240.258827025999
 20
1004.493990790089
 30
0
 11
2240.258827025999
 21
998.2970523333902
 31
0
  0
LINE
  8
1
 62
7
  6
DASHED
 10
2241.858827026
 20
998.2970523333902
 30
0
 11
2240.258827025999
 21
998.2970523333902
 31
0
  0
LINE
  8
1
 62
7
  6
DASHED
 10
2241.858827026
 20
1004.052465772056
 30
0
 11
2241.858827026
 21
998.2970523333902
 31
0
  0
LINE
  8
1
 62
7
 10
2241.858827026
 20
1004.39705233339
 30
0
 11
2241.858827026
 21
1004.052465772056
 31
0
  0
LINE
  8
1
 62
7
  6
DASHED
 10
2245.758827025999
 20
992.7970523333902
 30
0
 11
2251.955765482699
 21
992.7970523333902
 31
0
  0
LINE
  8
1
 62
7
  6
DASHED
 10
2251.53608166406
 20
994.3970523333901
 30
0
 11
2245.758827025999
 21
994.3970523333901
 31
0
  0
LINE
  8
1
 62
7
  6
DASHED
 10
2245.758827025999
 20
994.3970523333901
 30
0
 11
2245.758827025999
 21
992.7970523333902
 31
0
  0
LINE
  8
1
 62
7
 10
2251.858827026
 20
994.3970523333901
 30
0
 11
2251.53608166406
 21
994.3970523333901
 31
0
  0
LINE
  8
1
 62
7
 10
2288.249022161927
 20
990.7970523333902
 30
0
 11
2286.648704531416
 21
990.7970523333902
 31
0
  0
LINE
  8
1
 62
7
 10
2288.249022161927
 20
988.7970523333902
 30
0
 11
2286.648704531416
 21
988.7970523333902
 31
0
  0
LINE
  8
1
 62
7
 10
2302.251134263088
 20
988.7970523333902
 30
0
 11
2300.650940100104
 21
988.7970523333902
 31
0
  0
LINE
  8
1
 62
7
 10
2302.251134263088
 20
990.7970523333902
 30
0
 11
2300.650940100104
 21
990.7970523333902
 31
0
  0
LINE
  8
1
 62
7
 10
2194.270456505591
 20
990.7970523333902
 30
0
 11
2195.870906082807
 21
990.7970523333902
 31
0
  0
LINE
  8
1
 62
7
 10
2194.270456505591
 20
988.7970523333902
 30
0
 11
2195.870906082807
 21
988.7970523333902
 31
0
  0
LINE
  8
1
 62
7
 10
2180.2675996309
 20
988.7970523333902
 30
0
 11
2181.867853032036
 21
988.7970523333902
 31
0
  0
LINE
  8
1
 62
7
 10
2180.2675996309
 20
990.7970523333902
 30
0
 11
2181.867853032036
 21
990.7970523333902
 31
0
  0
LINE
  8
1
 62
7
 10
2164.765723905772
 20
990.7970523333902
 30
0
 11
2166.365879562941
 21
990.7970523333902
 31
0
  0
LINE
  8
1
 62
7
 10
2164.765723905772
 20
988.7970523333902
 30
0
 11
2166.365879562941
 21
988.7970523333902
 31
0
  0
LINE
  8
1
 62
7
 10
2164.820922583643
 20
992.7970523333902
 30
0
 11
2158.916246011586
 21
992.7970523333902
 31
0
  0
LINE
  8
1
 62
7
 10
2172.328094703008
 20
992.7970523333902
 30
0
 11
2166.422325136085
 21
992.7970523333902
 31
0
  0
LINE
  8
1
 62
7
 10
2180.337829142969
 20
992.7970523333902
 30
0
 11
2173.929844719318
 21
992.7970523333902
 31
0
  0
LINE
  8
1
 62
7
 10
2186.347138780569
 20
992.7970523333902
 30
0
 11
2181.940114098095
 21
992.7970523333902
 31
0
  0
LINE
  8
1
 62
7
 10
2194.363605846946
 20
992.7970523333902
 30
0
 11
2187.950004286047
 21
992.7970523333902
 31
0
  0
LINE
  8
1
 62
7
 10
2194.50558153516
 20
994.3970523333901
 30
0
 11
2188.073463349394
 21
994.3970523333901
 31
0
  0
LINE
  8
1
 62
7
 10
2186.46670165208
 20
994.3970523333901
 30
0
 11
2182.050132058631
 21
994.3970523333901
 31
0
  0
LINE
  8
1
 62
7
 10
2180.444744264769
 20
994.3970523333901
 30
0
 11
2174.025924198437
 21
994.3970523333901
 31
0
  0
LINE
  8
1
 62
7
 10
2172.421800567347
 20
994.3970523333901
 30
0
 11
2166.508208654143
 21
994.3970523333901
 31
0
  0
LINE
  8
1
 62
7
 10
2164.904905224897
 20
994.3970523333901
 30
0
 11
2158.993892348968
 21
994.3970523333901
 31
0
  0
LINE
  8
1
 62
7
 10
2198.283827026
 20
992.7970523333902
 30
0
 11
2198.283827026
 21
994.3970523333901
 31
0
  0
LINE
  8
1
 62
7
 10
2198.283827026
 20
992.7970523333902
 30
0
 11
2195.967665744195
 21
992.7970523333902
 31
0
  0
LINE
  8
1
 62
7
 10
2198.283827026
 20
994.3970523333901
 30
0
 11
2196.115176240004
 21
994.3970523333901
 31
0
  0
LINE
  8
1
 62
7
 10
2240.258827025999
 20
938.8853640879593
 30
0
 11
2240.258827025999
 21
934.4783394054853
 31
0
  0
LINE
  8
1
 62
7
 10
2240.258827025999
 20
932.8760544503591
 30
0
 11
2240.258827025999
 21
926.4680700267081
 31
0
  0
LINE
  8
1
 62
7
 10
2240.258827025999
 20
924.8663200103993
 30
0
 11
2240.258827025999
 21
918.9605504434742
 31
0
  0
LINE
  8
1
 62
7
 10
2240.258827025999
 20
917.3591478910332
 30
0
 11
2240.258827025999
 21
911.4544713189762
 31
0
  0
LINE
  8
1
 62
7
 10
2241.858827026
 20
917.4431305322883
 30
0
 11
2241.858827026
 21
911.5321176563582
 31
0
  0
LINE
  8
1
 62
7
 10
2241.858827026
 20
924.9600258747382
 30
0
 11
2241.858827026
 21
919.0464339615342
 31
0
  0
LINE
  8
1
 62
7
 10
2241.858827026
 20
932.9829695721592
 30
0
 11
2241.858827026
 21
926.5641495058271
 31
0
  0
LINE
  8
1
 62
7
 10
2241.858827026
 20
939.0049269594701
 30
0
 11
2241.858827026
 21
934.5883573660212
 31
0
  0
LINE
  8
1
 62
7
 10
2241.858827026
 20
947.0438068425501
 30
0
 11
2241.858827026
 21
940.6116886567841
 31
0
  0
LINE
  8
1
 62
7
 10
2240.258827025999
 20
946.9018311543352
 30
0
 11
2240.258827025999
 21
940.4882295934381
 31
0
  0
LINE
  8
1
 62
7
  6
CENTER
 10
2241.858827026
 20
950.8220523333901
 30
0
 11
2240.258827025999
 21
950.8220523333901
 31
0
  0
LINE
  8
1
 62
7
 10
2241.858827026
 20
950.8220523333901
 30
0
 11
2241.858827026
 21
948.6534015473942
 31
0
  0
LINE
  8
1
 62
7
 10
2240.258827025999
 20
950.8220523333901
 30
0
 11
2240.258827025999
 21
948.5058910515861
 31
0
  0
LINE
  8
1
 62
7
 10
2309.612748827101
 20
985.1970523333901
 30
0
 11
2315.523761703031
 21
985.1970523333901
 31
0
  0
LINE
  8
1
 62
7
 10
2302.095853484651
 20
985.1970523333901
 30
0
 11
2308.009445397855
 21
985.1970523333901
 31
0
  0
LINE
  8
1
 62
7
 10
2294.072909787231
 20
985.1970523333901
 30
0
 11
2300.491729853563
 21
985.1970523333901
 31
0
  0
LINE
  8
1
 62
7
 10
2309.696731468357
 20
986.7970523333902
 30
0
 11
2315.601408040414
 21
986.7970523333902
 31
0
  0
LINE
  8
1
 62
7
 10
2302.189559348992
 20
986.7970523333902
 30
0
 11
2308.095328915914
 21
986.7970523333902
 31
0
  0
LINE
  8
1
 62
7
 10
2294.179824909031
 20
986.7970523333902
 30
0
 11
2300.587809332682
 21
986.7970523333902
 31
0
  0
LINE
  8
1
 62
7
 10
2288.17051527143
 20
986.7970523333902
 30
0
 11
2292.577539953904
 21
986.7970523333902
 31
0
  0
LINE
  8
1
 62
7
 10
2288.05095239992
 20
985.1970523333901
 30
0
 11
2292.467521993369
 21
985.1970523333901
 31
0
  0
LINE
  8
1
 62
7
 10
2280.01207251684
 20
985.1970523333901
 30
0
 11
2286.444190702606
 21
985.1970523333901
 31
0
  0
LINE
  8
1
 62
7
 10
2280.154048205055
 20
986.7970523333902
 30
0
 11
2286.567649765952
 21
986.7970523333902
 31
0
  0
LINE
  8
1
 62
7
 10
2276.233827026
 20
985.1970523333901
 30
0
 11
2278.402477811996
 21
985.1970523333901
 31
0
  0
LINE
  8
1
 62
7
 10
2276.233827026
 20
986.7970523333902
 30
0
 11
2278.549988307804
 21
986.7970523333902
 31
0
  0
LINE
  8
1
 62
7
 10
2234.258827025999
 20
1062.234956775747
 30
0
 11
2234.258827025999
 21
1068.139633347804
 31
0
  0
LINE
  8
1
 62
7
 10
2232.658827026
 20
1062.150974134492
 30
0
 11
2232.658827026
 21
1068.061987010421
 31
0
  0
LINE
  8
1
 62
7
 10
2232.658827026
 20
1054.634078792042
 30
0
 11
2232.658827026
 21
1060.547670705246
 31
0
  0
LINE
  8
1
 62
7
 10
2234.258827025999
 20
1054.727784656381
 30
0
 11
2234.258827025999
 21
1060.633554223305
 31
0
  0
LINE
  8
1
 62
7
 10
2234.258827025999
 20
1046.718050216421
 30
0
 11
2234.258827025999
 21
1053.126034640072
 31
0
  0
LINE
  8
1
 62
7
 10
2232.658827026
 20
1046.611135094621
 30
0
 11
2232.658827026
 21
1053.029955160953
 31
0
  0
LINE
  8
1
 62
7
 10
2234.258827025999
 20
1040.708740578821
 30
0
 11
2234.258827025999
 21
1045.115765261295
 31
0
  0
LINE
  8
1
 62
7
 10
2232.658827026
 20
1040.58917770731
 30
0
 11
2232.658827026
 21
1045.005747300759
 31
0
  0
LINE
  8
1
 62
7
 10
2232.658827026
 20
1032.55029782423
 30
0
 11
2232.658827026
 21
1038.982416009996
 31
0
  0
LINE
  8
1
 62
7
 10
2234.258827025999
 20
1032.692273512444
 30
0
 11
2234.258827025999
 21
1039.105875073342
 31
0
  0
LINE
  8
1
 62
7
 10
2234.258827025999
 20
1028.77205233339
 30
0
 11
2234.258827025999
 21
1031.088213615195
 31
0
  0
LINE
  8
1
 62
7
 10
2232.658827026
 20
1028.77205233339
 30
0
 11
2232.658827026
 21
1030.940703119386
 31
0
  0
LINE
  8
1
 62
7
 10
2276.233827026
 20
986.7970523333902
 30
0
 11
2276.233827026
 21
985.1970523333901
 31
0
  0
LINE
  8
1
 62
7
 10
2241.858827026
 20
950.8220523333901
 30
0
 11
2240.258827025999
 21
950.8220523333901
 31
0
  0
LINE
  8
1
 62
7
 10
2232.658827026
 20
1028.77205233339
 30
0
 11
2234.258827025999
 21
1028.77205233339
 31
0
  0
LINE
  8
1
 62
7
 10
2331.576048385209
 20
992.7970523333902
 30
0
 11
2326.486718493294
 21
992.7970523333902
 31
0
  0
LINE
  8
1
 62
7
 10
2331.627160737065
 20
994.3970523333901
 30
0
 11
2326.523227316046
 21
994.3970523333901
 31
0
  0
LINE
  8
1
 62
7
 10
2240.258827025999
 20
895.4798309741811
 30
0
 11
2240.258827025999
 21
900.5691608660961
 31
0
  0
LINE
  8
1
 62
7
 10
2241.858827026
 20
895.4287186223251
 30
0
 11
2241.858827026
 21
900.5326520433421
 31
0
  0
LINE
  8
1
 62
7
 10
2142.941605666791
 20
986.7970523333902
 30
0
 11
2148.030935558706
 21
986.7970523333902
 31
0
  0
LINE
  8
1
 62
7
 10
2142.890493314934
 20
985.1970523333901
 30
0
 11
2147.994426735952
 21
985.1970523333901
 31
0
  0
LINE
  8
1
 62
7
 10
2234.258827025999
 20
1079.024943800683
 30
0
 11
2234.258827025999
 21
1077.245608639369
 31
0
  0
LINE
  8
1
 62
7
 10
2232.658827026
 20
1079.061452623437
 30
0
 11
2232.658827026
 21
1077.176054387659
 31
0
  0
LINE
  8
1
 62
7
 10
2234.258827025999
 20
1084.114273692598
 30
0
 11
2234.258827025999
 21
1079.024943800683
 31
0
  0
LINE
  8
1
 62
7
 10
2232.658827026
 20
1084.165386044455
 30
0
 11
2232.658827026
 21
1079.061452623437
 31
0
  0
LINE
  8
1
 62
7
 10
2216.575258668485
 20
986.7970523333902
 30
0
 11
2222.561888569301
 21
986.7970523333902
 31
0
  0
LINE
  8
1
 62
7
 10
2215.234068230499
 20
985.1970523333901
 30
0
 11
2209.23383817676
 21
985.1970523333901
 31
0
  0
LINE
  8
1
 62
7
 10
2209.017722231747
 20
986.7970523333902
 30
0
 11
2214.959723905022
 21
986.7970523333902
 31
0
  0
LINE
  8
1
 62
7
 10
2207.613591321084
 20
985.1970523333901
 30
0
 11
2201.654754225265
 21
985.1970523333901
 31
0
  0
LINE
  8
1
 62
7
 10
2201.484394815272
 20
986.7970523333902
 30
0
 11
2207.409203912802
 21
986.7970523333902
 31
0
  0
LINE
  8
1
 62
7
 10
2200.042029743053
 20
985.1970523333901
 30
0
 11
2196.115176240004
 21
985.1970523333901
 31
0
  0
LINE
  8
1
 62
7
 10
2195.967665744195
 20
986.7970523333902
 30
0
 11
2199.879019642869
 21
986.7970523333902
 31
0
  0
LINE
  8
1
 62
7
 10
2194.50558153516
 20
985.1970523333901
 30
0
 11
2188.073463349394
 21
985.1970523333901
 31
0
  0
LINE
  8
1
 62
7
 10
2187.950004286047
 20
986.7970523333902
 30
0
 11
2194.363605846946
 21
986.7970523333902
 31
0
  0
LINE
  8
1
 62
7
 10
2186.46670165208
 20
985.1970523333901
 30
0
 11
2182.050132058631
 21
985.1970523333901
 31
0
  0
LINE
  8
1
 62
7
 10
2181.940114098095
 20
986.7970523333902
 30
0
 11
2186.347138780569
 21
986.7970523333902
 31
0
  0
LINE
  8
1
 62
7
 10
2180.444744264769
 20
985.1970523333901
 30
0
 11
2174.025924198437
 21
985.1970523333901
 31
0
  0
LINE
  8
1
 62
7
 10
2173.929844719318
 20
986.7970523333902
 30
0
 11
2180.337829142969
 21
986.7970523333902
 31
0
  0
LINE
  8
1
 62
7
 10
2172.421800567347
 20
985.1970523333901
 30
0
 11
2166.508208654143
 21
985.1970523333901
 31
0
  0
LINE
  8
1
 62
7
 10
2164.904905224897
 20
985.1970523333901
 30
0
 11
2161.283827026
 21
985.1970523333901
 31
0
  0
LINE
  8
1
 62
7
 10
2166.422325136084
 20
986.7970523333902
 30
0
 11
2172.328094703008
 21
986.7970523333902
 31
0
  0
LINE
  8
1
 62
7
 10
2158.916246011586
 20
986.7970523333902
 30
0
 11
2161.283827026
 21
986.7970523333902
 31
0
  0
LINE
  8
1
 62
7
 10
2158.993892348968
 20
985.1970523333901
 30
0
 11
2161.283827026
 21
985.1970523333901
 31
0
  0
LINE
  8
1
 62
7
 10
2151.482081925709
 20
985.1970523333901
 30
0
 11
2157.391186519973
 21
985.1970523333901
 31
0
  0
LINE
  8
1
 62
7
 10
2151.411229505743
 20
986.7970523333902
 30
0
 11
2157.315096815307
 21
986.7970523333902
 31
0
  0
LINE
  8
1
 62
7
 10
2151.482081925711
 20
994.3970523333901
 30
0
 11
2157.391186519973
 21
994.3970523333901
 31
0
  0
LINE
  8
1
 62
7
 10
2151.411229505743
 20
992.7970523333902
 30
0
 11
2157.315096815307
 21
992.7970523333902
 31
0
  0
LINE
  8
1
 62
7
 10
2161.283827026
 20
986.7970523333902
 30
0
 11
2164.820922583643
 21
986.7970523333902
 31
0
  0
LINE
  8
1
 62
7
 10
2222.658827026
 20
985.1970523333901
 30
0
 11
2216.871330858005
 21
985.1970523333901
 31
0
  0
LINE
  8
1
 62
7
 10
2129.283827026
 20
994.3970523333901
 30
0
 11
2149.879824971731
 21
994.3970523333901
 31
0
  0
LINE
  8
1
 62
7
 10
2129.283827026
 20
992.7970523333902
 30
0
 11
2149.810270720021
 21
992.7970523333902
 31
0
  0
LINE
  8
1
 62
7
 10
2129.283827026
 20
986.7970523333902
 30
0
 11
2149.810270720021
 21
986.7970523333902
 31
0
  0
LINE
  8
1
 62
7
 10
2129.283827026
 20
985.1970523333901
 30
0
 11
2149.879824971731
 21
985.1970523333901
 31
0
  0
LINE
  8
1
 62
7
 10
2232.658827026
 20
924.9600258747371
 30
0
 11
2232.658827026
 21
919.0464339615342
 31
0
  0
LINE
  8
1
 62
7
 10
2232.658827026
 20
932.9829695721592
 30
0
 11
2232.658827026
 21
926.5641495058271
 31
0
  0
LINE
  8
1
 62
7
 10
2232.658827026
 20
939.0049269594701
 30
0
 11
2232.658827026
 21
934.5883573660212
 31
0
  0
LINE
  8
1
 62
7
 10
2232.658827026
 20
947.0438068425501
 30
0
 11
2232.658827026
 21
940.6116886567841
 31
0
  0
LINE
  8
1
 62
7
 10
2232.658827026
 20
952.5802550504432
 30
0
 11
2232.658827026
 21
948.6534015473942
 31
0
  0
LINE
  8
1
 62
7
 10
2232.658827026
 20
960.1518166284741
 30
0
 11
2232.658827026
 21
954.192979532655
 31
0
  0
LINE
  8
1
 62
7
 10
2232.658827026
 20
967.7722935378893
 30
0
 11
2232.658827026
 21
961.7720634841512
 31
0
  0
LINE
  8
1
 62
7
 10
2234.258827025999
 20
969.1134839758752
 30
0
 11
2234.258827025999
 21
975.1001138766912
 31
0
  0
LINE
  8
1
 62
7
 10
2234.258827025999
 20
961.5559475391362
 30
0
 11
2234.258827025999
 21
967.4979492124121
 31
0
  0
LINE
  8
1
 62
7
 10
2234.258827025999
 20
954.0226201226612
 30
0
 11
2234.258827025999
 21
959.9474292201921
 31
0
  0
LINE
  8
1
 62
7
 10
2234.258827025999
 20
948.5058910515852
 30
0
 11
2234.258827025999
 21
952.4172449502582
 31
0
  0
LINE
  8
1
 62
7
 10
2234.258827025999
 20
940.4882295934381
 30
0
 11
2234.258827025999
 21
946.9018311543352
 31
0
  0
LINE
  8
1
 62
7
 10
2234.258827025999
 20
934.4783394054853
 30
0
 11
2234.258827025999
 21
938.8853640879593
 31
0
  0
LINE
  8
1
 62
7
 10
2234.258827025999
 20
926.4680700267081
 30
0
 11
2234.258827025999
 21
932.8760544503591
 31
0
  0
LINE
  8
1
 62
7
 10
2232.658827026
 20
902.4180502791201
 30
0
 11
2232.658827026
 21
881.8220523333901
 31
0
  0
LINE
  8
1
 62
7
 10
2234.258827025999
 20
903.9494548131331
 30
0
 11
2234.258827025999
 21
909.8533221226971
 31
0
  0
LINE
  8
1
 62
7
 10
2234.258827025999
 20
911.4544713189762
 30
0
 11
2234.258827025999
 21
917.3591478910332
 31
0
  0
LINE
  8
1
 62
7
 10
2232.658827026
 20
909.9294118273622
 30
0
 11
2232.658827026
 21
904.0203072331001
 31
0
  0
LINE
  8
1
 62
7
 10
2232.658827026
 20
917.4431305322883
 30
0
 11
2232.658827026
 21
911.5321176563582
 31
0
  0
LINE
  8
1
 62
7
 10
2234.258827025999
 20
918.9605504434742
 30
0
 11
2234.258827025999
 21
924.8663200103981
 31
0
  0
LINE
  8
1
 62
7
 10
2240.258827025999
 20
903.9494548131331
 30
0
 11
2240.258827025999
 21
909.8533221226971
 31
0
  0
LINE
  8
1
 62
7
 10
2241.858827026
 20
904.0203072331012
 30
0
 11
2241.858827026
 21
909.9294118273622
 31
0
  0
LINE
  8
1
 62
7
 10
2232.658827026
 20
975.1970523333901
 30
0
 11
2232.658827026
 21
969.4095561653951
 31
0
  0
LINE
  8
1
 62
7
 10
2234.258827025999
 20
881.8220523333901
 30
0
 11
2234.258827025999
 21
902.3484960274111
 31
0
  0
LINE
  8
1
 62
7
 10
2240.258827025999
 20
881.8220523333901
 30
0
 11
2240.258827025999
 21
902.3484960274111
 31
0
  0
LINE
  8
1
 62
7
 10
2241.858827026
 20
881.8220523333901
 30
0
 11
2241.858827026
 21
902.4180502791201
 31
0
  0
LINE
  8
1
 62
7
 10
2257.942395383515
 20
992.7970523333902
 30
0
 11
2251.955765482699
 21
992.7970523333902
 31
0
  0
LINE
  8
1
 62
7
 10
2259.2835858215
 20
994.3970523333901
 30
0
 11
2265.283815875239
 21
994.3970523333901
 31
0
  0
LINE
  8
1
 62
7
 10
2265.499931820253
 20
992.7970523333902
 30
0
 11
2259.557930146978
 21
992.7970523333902
 31
0
  0
LINE
  8
1
 62
7
 10
2266.904062730915
 20
994.3970523333901
 30
0
 11
2272.862899826735
 21
994.3970523333901
 31
0
  0
LINE
  8
1
 62
7
 10
2273.033259236728
 20
992.7970523333902
 30
0
 11
2267.108450139199
 21
992.7970523333902
 31
0
  0
LINE
  8
1
 62
7
 10
2274.475624308948
 20
994.3970523333901
 30
0
 11
2278.402477811996
 21
994.3970523333901
 31
0
  0
LINE
  8
1
 62
7
 10
2278.549988307805
 20
992.7970523333902
 30
0
 11
2274.638634409131
 21
992.7970523333902
 31
0
  0
LINE
  8
1
 62
7
 10
2280.01207251684
 20
994.3970523333901
 30
0
 11
2286.444190702606
 21
994.3970523333901
 31
0
  0
LINE
  8
1
 62
7
 10
2286.567649765952
 20
992.7970523333902
 30
0
 11
2280.154048205054
 21
992.7970523333902
 31
0
  0
LINE
  8
1
 62
7
 10
2288.05095239992
 20
994.3970523333901
 30
0
 11
2292.467521993369
 21
994.3970523333901
 31
0
  0
LINE
  8
1
 62
7
 10
2292.577539953904
 20
992.7970523333902
 30
0
 11
2288.17051527143
 21
992.7970523333902
 31
0
  0
LINE
  8
1
 62
7
 10
2294.072909787231
 20
994.3970523333901
 30
0
 11
2300.491729853563
 21
994.3970523333901
 31
0
  0
LINE
  8
1
 62
7
 10
2300.587809332682
 20
992.7970523333902
 30
0
 11
2294.179824909031
 21
992.7970523333902
 31
0
  0
LINE
  8
1
 62
7
 10
2302.095853484651
 20
994.3970523333901
 30
0
 11
2308.009445397855
 21
994.3970523333901
 31
0
  0
LINE
  8
1
 62
7
 10
2309.612748827101
 20
994.3970523333901
 30
0
 11
2313.233827026
 21
994.3970523333901
 31
0
  0
LINE
  8
1
 62
7
 10
2308.095328915914
 20
992.7970523333902
 30
0
 11
2302.189559348992
 21
992.7970523333902
 31
0
  0
LINE
  8
1
 62
7
 10
2315.601408040414
 20
992.7970523333902
 30
0
 11
2313.233827026
 21
992.7970523333902
 31
0
  0
LINE
  8
1
 62
7
 10
2315.523761703031
 20
994.3970523333901
 30
0
 11
2313.233827026
 21
994.3970523333901
 31
0
  0
LINE
  8
1
 62
7
 10
2323.03557212629
 20
994.3970523333901
 30
0
 11
2317.126467532026
 21
994.3970523333901
 31
0
  0
LINE
  8
1
 62
7
 10
2323.106424546257
 20
992.7970523333902
 30
0
 11
2317.202557236693
 21
992.7970523333902
 31
0
  0
LINE
  8
1
 62
7
 10
2323.035572126289
 20
985.1970523333901
 30
0
 11
2317.126467532026
 21
985.1970523333901
 31
0
  0
LINE
  8
1
 62
7
 10
2323.106424546257
 20
986.7970523333902
 30
0
 11
2317.202557236693
 21
986.7970523333902
 31
0
  0
LINE
  8
1
 62
7
 10
2241.858827026
 20
1054.634078792042
 30
0
 11
2241.858827026
 21
1060.547670705246
 31
0
  0
LINE
  8
1
 62
7
 10
2241.858827026
 20
1046.611135094621
 30
0
 11
2241.858827026
 21
1053.029955160953
 31
0
  0
LINE
  8
1
 62
7
 10
2241.858827026
 20
1040.58917770731
 30
0
 11
2241.858827026
 21
1045.005747300759
 31
0
  0
LINE
  8
1
 62
7
 10
2241.858827026
 20
1032.550297824229
 30
0
 11
2241.858827026
 21
1038.982416009996
 31
0
  0
LINE
  8
1
 62
7
 10
2241.858827026
 20
1027.013849616337
 30
0
 11
2241.858827026
 21
1030.940703119386
 31
0
  0
LINE
  8
1
 62
7
 10
2241.858827026
 20
1019.442288038305
 30
0
 11
2241.858827026
 21
1025.401125134124
 31
0
  0
LINE
  8
1
 62
7
 10
2241.858827026
 20
1011.821811128891
 30
0
 11
2241.858827026
 21
1017.822041182629
 31
0
  0
LINE
  8
1
 62
7
 10
2240.258827025999
 20
1010.480620690905
 30
0
 11
2240.258827025999
 21
1004.493990790089
 31
0
  0
LINE
  8
1
 62
7
 10
2240.258827025999
 20
1018.038157127643
 30
0
 11
2240.258827025999
 21
1012.096155454367
 31
0
  0
LINE
  8
1
 62
7
 10
2240.258827025999
 20
1025.571484544119
 30
0
 11
2240.258827025999
 21
1019.646675446589
 31
0
  0
LINE
  8
1
 62
7
 10
2240.258827025999
 20
1031.088213615195
 30
0
 11
2240.258827025999
 21
1027.176859716521
 31
0
  0
LINE
  8
1
 62
7
 10
2240.258827025999
 20
1039.105875073342
 30
0
 11
2240.258827025999
 21
1032.692273512444
 31
0
  0
LINE
  8
1
 62
7
 10
2240.258827025999
 20
1045.115765261295
 30
0
 11
2240.258827025999
 21
1040.708740578821
 31
0
  0
LINE
  8
1
 62
7
 10
2240.258827025999
 20
1053.126034640072
 30
0
 11
2240.258827025999
 21
1046.718050216421
 31
0
  0
LINE
  8
1
 62
7
 10
2241.858827026
 20
1077.176054387659
 30
0
 11
2241.858827026
 21
1097.77205233339
 31
0
  0
LINE
  8
1
 62
7
 10
2240.258827025999
 20
1075.644649853647
 30
0
 11
2240.258827025999
 21
1069.740782544083
 31
0
  0
LINE
  8
1
 62
7
 10
2240.258827025999
 20
1068.139633347804
 30
0
 11
2240.258827025999
 21
1062.234956775747
 31
0
  0
LINE
  8
1
 62
7
 10
2241.858827026
 20
1069.664692839417
 30
0
 11
2241.858827026
 21
1075.573797433679
 31
0
  0
LINE
  8
1
 62
7
 10
2241.858827026
 20
1062.150974134492
 30
0
 11
2241.858827026
 21
1068.061987010421
 31
0
  0
LINE
  8
1
 62
7
 10
2240.258827025999
 20
1060.633554223305
 30
0
 11
2240.258827025999
 21
1054.727784656381
 31
0
  0
LINE
  8
1
 62
7
 10
2234.258827025999
 20
1075.644649853647
 30
0
 11
2234.258827025999
 21
1069.740782544083
 31
0
  0
LINE
  8
1
 62
7
 10
2232.658827026
 20
1075.573797433679
 30
0
 11
2232.658827026
 21
1069.664692839417
 31
0
  0
LINE
  8
1
 62
7
 10
2313.233827026
 20
992.7970523333902
 30
0
 11
2309.696731468357
 21
992.7970523333902
 31
0
  0
LINE
  8
1
 62
7
 10
2251.858827026
 20
994.3970523333901
 30
0
 11
2257.646323193994
 21
994.3970523333901
 31
0
  0
LINE
  8
1
 62
7
 10
2241.858827026
 20
1004.39705233339
 30
0
 11
2241.858827026
 21
1010.184548501384
 31
0
  0
LINE
  8
1
 62
7
 10
2345.233827026
 20
985.1970523333901
 30
0
 11
2324.637829080269
 21
985.1970523333901
 31
0
  0
LINE
  8
1
 62
7
 10
2345.233827026
 20
986.7970523333902
 30
0
 11
2324.707383331979
 21
986.7970523333902
 31
0
  0
LINE
  8
1
 62
7
 10
2345.233827026
 20
992.7970523333902
 30
0
 11
2324.707383331979
 21
992.7970523333902
 31
0
  0
LINE
  8
1
 62
7
 10
2345.233827026
 20
994.3970523333901
 30
0
 11
2324.637829080269
 21
994.3970523333901
 31
0
  0
LINE
  8
1
 62
7
 10
2240.258827025999
 20
1097.77205233339
 30
0
 11
2240.258827025999
 21
1077.245608639369
 31
0
  0
LINE
  8
1
 62
7
 10
2234.258827025999
 20
1097.77205233339
 30
0
 11
2234.258827025999
 21
1084.114273692598
 31
0
  0
LINE
  8
1
 62
7
 10
2232.658827026
 20
1097.77205233339
 30
0
 11
2232.658827026
 21
1084.165386044455
 31
0
  0
LINE
  8
1
 62
7
 10
2217.896554145622
 20
969.0205658906391
 30
0
 11
2216.764518760072
 21
967.8885305050892
 31
0
  0
LINE
  8
1
 62
7
 10
2216.482340583249
 20
970.4347794530122
 30
0
 11
2215.350305197699
 21
969.3027440674621
 31
0
  0
LINE
  8
1
 62
7
 10
2151.364647944994
 20
988.7970523333902
 30
0
 11
2149.764541498314
 21
988.7970523333902
 31
0
  0
LINE
  8
1
 62
7
 10
2151.364647944994
 20
990.7970523333902
 30
0
 11
2149.764541498314
 21
990.7970523333902
 31
0
  0
LINE
  8
1
 62
7
 10
2315.652449215563
 20
990.7970523333902
 30
0
 11
2317.25257678184
 21
990.7970523333902
 31
0
  0
LINE
  8
1
 62
7
 10
2315.652449215563
 20
988.7970523333902
 30
0
 11
2317.25257678184
 21
988.7970523333902
 31
0
  0
LINE
  8
1
 62
7
 10
2261.927003494464
 20
1015.879442364227
 30
0
 11
2263.058794772192
 21
1017.011233641955
 31
0
  0
LINE
  8
1
 62
7
 10
2263.341217056836
 20
1014.465228801854
 30
0
 11
2264.473008334565
 21
1015.597020079582
 31
0
  0
LINE
  8
1
 62
7
 10
2252.727539410914
 20
1003.851551155931
 30
0
 11
2253.860115132438
 21
1004.984126877456
 31
0
  0
LINE
  8
1
 62
7
 10
2251.31332584854
 20
1005.265764718304
 30
0
 11
2252.445901570066
 21
1006.398340439828
 31
0
  0
ARC
  8
1
 62
7
 10
2420.257889275176
 20
903.1007776761032
 30
0
 40
0.7999999999988177
 50
180
 51
0
  0
ARC
  8
1
 62
7
 10
2420.257889275176
 20
1076.493326990676
 30
0
 40
0.8000000000001819
 50
0
 51
180
  0
ARC
  8
1
 62
7
 10
2423.057889275176
 20
899.9042320103622
 30
0
 40
2
 50
180
 51
209.9999999999973
  0
ARC
  8
1
 62
7
 10
2424.657889275176
 20
878.1022202584591
 30
0
 40
0.7999999999988177
 50
180
 51
0
  0
ARC
  8
1
 62
7
 10
2424.657889275176
 20
985.9970523333902
 30
0
 40
0.8000000000008534
 50
179.5042766588982
 51
0
  0
ARC
  8
1
 62
7
 10
2421.857889275177
 20
985.9970523333902
 30
0
 40
0.7999999999999545
 50
90
 51
180
  0
ARC
  8
1
 62
7
 10
2421.857889275177
 20
985.9970523333902
 30
0
 40
0.8000000000010914
 50
180
 51
270
  0
ARC
  8
1
 62
7
 10
2423.057889275176
 20
1079.689872656417
 30
0
 40
2.000000000000164
 50
150.0000000000027
 51
180
  0
ARC
  8
1
 62
7
 10
2424.657889275176
 20
1101.49188440832
 30
0
 40
0.8000000000010914
 50
0
 51
180
  0
ARC
  8
1
 62
7
 10
2424.657889275176
 20
993.5970523333901
 30
0
 40
0.8000000000010914
 50
0
 51
180.4957233411018
  0
ARC
  8
1
 62
7
 10
2421.857889275177
 20
993.5970523333901
 30
0
 40
0.8000000000010914
 50
180
 51
270
  0
ARC
  8
1
 62
7
 10
2421.857889275177
 20
993.5970523333901
 30
0
 40
0.7999999999999545
 50
90
 51
180
  0
ARC
  8
1
 62
7
 10
2237.258827025999
 20
1097.77205233339
 30
0
 40
3
 50
0
 51
180
  0
ARC
  8
1
 62
7
 10
2237.258827025999
 20
989.7970523333902
 30
0
 40
15.00000000000099
 50
11.53695903281471
 51
78.46304096718433
  0
ARC
  8
1
 62
7
 10
2237.258827025999
 20
989.7970523333902
 30
0
 40
14.99999999999977
 50
78.46304096718433
 51
11.53695903281471
  0
ARC
  8
1
 62
7
 10
2237.258827025999
 20
989.7970523333902
 30
0
 40
49.40000000000039
 50
46.15991281991039
 51
358.8400871800885
  0
ARC
  8
1
 62
7
 10
2237.258827025999
 20
989.7970523333902
 30
0
 40
51.00000000000087
 50
46.12351865770005
 51
358.8764813422996
  0
ARC
  8
1
 62
7
 10
2237.258827025999
 20
989.7970523333902
 30
0
 40
63.40000000000011
 50
45.90375639567854
 51
359.0962436043214
  0
ARC
  8
1
 62
7
 10
2237.258827025999
 20
989.7970523333902
 30
0
 40
65.00000000000121
 50
0.8815083068059427
 51
44.11849169319332
  0
ARC
  8
1
 62
7
 10
2237.258827025999
 20
989.7970523333902
 30
0
 40
64.99999999999953
 50
44.11849169319332
 51
359.1184916931941
  0
ARC
  8
1
 62
7
 10
2237.258827025999
 20
989.7970523333902
 30
0
 40
41.39999999999898
 50
181.3840906390815
 51
44.99999999999989
  0
ARC
  8
1
 62
7
 10
2237.258827025999
 20
989.7970523333902
 30
0
 40
41.39999999999971
 50
44.99999999999989
 51
178.6159093609185
  0
ARC
  8
1
 62
7
 10
2237.258827025999
 20
989.7970523333902
 30
0
 40
43.0000000000005
 50
44.99999999999785
 51
178.6674198757206
  0
ARC
  8
1
 62
7
 10
2237.258827025999
 20
989.7970523333902
 30
0
 40
42.99999999999854
 50
181.3325801242794
 51
44.99999999999785
  0
ARC
  8
1
 62
7
 10
2237.258827025999
 20
989.7970523333902
 30
0
 40
57.0000000000003
 50
44.99999999999903
 51
178.9947593145667
  0
ARC
  8
1
 62
7
 10
2237.258827025999
 20
989.7970523333902
 30
0
 40
55.39999999999911
 50
181.0342760169809
 51
44.99999999999817
  0
ARC
  8
1
 62
7
 10
2237.258827025999
 20
989.7970523333902
 30
0
 40
55.40000000000038
 50
44.99999999999817
 51
178.9657239830191
  0
ARC
  8
1
 62
7
 10
2237.258827025999
 20
989.7970523333902
 30
0
 40
70.89999999999947
 50
44.99999999999987
 51
179.1918521952549
  0
ARC
  8
1
 62
7
 10
2237.258827025999
 20
989.7970523333902
 30
0
 40
72.500000000001
 50
44.99999999999923
 51
179.2096883252486
  0
ARC
  8
1
 62
7
 10
2237.258827025999
 20
989.7970523333902
 30
0
 40
72.49999999999888
 50
180.7903116747513
 51
44.99999999999923
  0
ARC
  8
1
 62
7
 10
2237.258827025999
 20
989.7970523333902
 30
0
 40
70.89999999999945
 50
180.8081478047452
 51
44.99999999999987
  0
ARC
  8
1
 62
7
 10
2237.258827025999
 20
989.7970523333902
 30
0
 40
56.99999999999967
 50
223.9947593145667
 51
226.0052406854342
  0
ARC
  8
1
 62
7
 10
2237.758827025999
 20
989.9839946731322
 30
0
 40
62.91119014825429
 50
44.29084750908912
 51
46.1122924114889
  0
ARC
  8
1
 62
7
 10
2237.508827025999
 20
989.8905235032612
 30
0
 40
50.75511613003034
 50
43.99602748810035
 51
46.25380535317557
  0
ARC
  8
1
 62
7
 10
2237.008827025999
 20
989.7970523333902
 30
0
 40
49.58062133579607
 50
43.63997932586926
 51
45.9515043041953
  0
ARC
  8
1
 62
7
 10
2237.258827025999
 20
989.7970523333902
 30
0
 40
28.4000000000001
 50
227.0178741429614
 51
222.9821258570415
  0
ARC
  8
1
 62
7
 10
2237.258827025999
 20
989.7970523333902
 30
0
 40
29.99999999999973
 50
226.9102131717112
 51
223.0897868282919
  0
ARC
  8
1
 62
7
 10
2237.258827025999
 20
989.7970523333902
 30
0
 40
56.99999999999887
 50
226.0052406854342
 51
44.99999999999903
  0
ARC
  8
1
 62
7
 10
2237.258827025999
 20
989.7970523333902
 30
0
 40
80.00000000000094
 50
0.7162158961949325
 51
359.283784103805
  0
ARC
  8
1
 62
7
 10
2237.258827025999
 20
989.7970523333902
 30
0
 40
78.40000000000084
 50
0.7308333319769403
 51
359.2691666680231
  0
ARC
  8
1
 62
7
 10
2237.258827025999
 20
989.7970523333902
 30
0
 40
63.40000000000097
 50
0.9037563956786553
 51
44.09624360432047
  0
ARC
  8
1
 62
7
 10
2237.258827025999
 20
989.7970523333902
 30
0
 40
51.00000000000009
 50
1.123518657700417
 51
43.87648134229867
  0
ARC
  8
1
 62
7
 10
2237.258827025999
 20
989.7970523333902
 30
0
 40
49.40000000000116
 50
1.159912819911471
 51
43.8400871800885
  0
ARC
  8
1
 62
7
 10
2237.258827025999
 20
989.7970523333902
 30
0
 40
37.50000000000049
 50
46.52806859460927
 51
43.47193140538816
  0
ARC
  8
1
 62
7
 10
2237.258827025999
 20
989.7970523333902
 30
0
 40
35.9000000000003
 50
46.59618917804447
 51
43.40381082195408
  0
ARC
  8
1
 62
7
 10
2237.258827025999
 20
989.7970523333902
 30
0
 40
22.49999999999997
 50
47.54731818256632
 51
42.4526818174296
  0
ARC
  8
1
 62
7
 10
2237.258827025999
 20
989.7970523333902
 30
0
 40
20.89999999999987
 50
47.7424719381638
 51
42.25752806183386
  0
ARC
  8
1
 62
7
 10
2237.258827025999
 20
989.7970523333902
 30
0
 40
56.999999999999
 50
181.0052406854333
 51
223.9947593145667
  0
ARC
  8
1
 62
7
 10
2237.258827025999
 20
989.7970523333902
 30
0
 40
85.89999999999854
 50
180.6670206489327
 51
179.3329793510673
  0
ARC
  8
1
 62
7
 10
2237.258827025999
 20
989.7970523333902
 30
0
 40
87.50000000000034
 50
180.6548231639024
 51
179.3451768360976
  0
ARC
  8
1
 62
7
 10
2129.283827026
 20
989.7970523333902
 30
0
 40
4.599999999999909
 50
90
 51
270
  0
ARC
  8
1
 62
7
 10
2129.283827026
 20
989.7970523333902
 30
0
 40
3
 50
90
 51
270
  0
ARC
  8
1
 62
7
 10
2237.258827025999
 20
881.8220523333901
 30
0
 40
3
 50
180
 51
0
  0
ARC
  8
1
 62
7
 10
2237.258827025999
 20
881.8220523333901
 30
0
 40
4.599999999999
 50
180
 51
0
  0
ARC
  8
1
 62
7
 10
2345.233827026
 20
989.7970523333902
 30
0
 40
4.600000000000136
 50
270
 51
90
  0
ARC
  8
1
 62
7
 10
2345.233827026
 20
989.7970523333902
 30
0
 40
3
 50
270
 51
90
  0
ARC
  8
1
 62
7
 10
2237.258827025999
 20
1097.77205233339
 30
0
 40
4.600000000001273
 50
0
 51
180
  0
ARC
  8
1
 62
7
 10
2237.258827025999
 20
989.7970523333902
 30
0
 40
22.5000000000012
 50
2.547318182570253
 51
6.148906288341719
  0
POLYLINE
  8
1
 62
7
 66
1
  0
VERTEX
  8
1
 10
2326.523227316046
 20
986.7970523333902
 30
0
 42
-0.002044748922083585
  0
VERTEX
  8
1
 10
2326.594539748754
 20
986.7563954688147
 30
0
 42
-0.00613327592686181
  0
VERTEX
  8
1
 10
2326.66518321998
 20
986.7145742977585
 30
0
 42
-0.01020252137372125
  0
VERTEX
  8
1
 10
2326.73448876824
 20
986.6704245137414
 30
0
 42
-0.01418591582453233
  0
VERTEX
  8
1
 10
2326.801787432053
 20
986.6227818102824
 30
0
 42
-0.01794238677877
  0
VERTEX
  8
1
 10
2326.866410249936
 20
986.5704818809011
 30
0
 42
-0.03212424005653496
  0
VERTEX
  8
1
 10
2326.962904659534
 20
986.4747507170582
 30
0
 42
-0.03450919073439666
  0
VERTEX
  8
1
 10
2327.046570441305
 20
986.3662292613194
 30
0
 42
-0.0388557700913483
  0
VERTEX
  8
1
 10
2327.113247751141
 20
986.2472149679852
 30
0
 42
-0.04485983911711133
  0
VERTEX
  8
1
 10
2327.158776744936
 20
986.1200052913566
 30
0
 42
-0.108573055056047
  0
VERTEX
  8
1
 10
2327.16934630052
 20
985.841166508652
 30
0
 42
-0.04849646038833091
  0
VERTEX
  8
1
 10
2327.129603549634
 20
985.6980157808142
 30
0
 42
-0.04630023598125523
  0
VERTEX
  8
1
 10
2327.063427704916
 20
985.5641495930358
 30
0
 42
-0.04802821524992988
  0
VERTEX
  8
1
 10
2326.974477145353
 20
985.4462720361316
 30
0
 42
-0.05376798633399391
  0
VERTEX
  8
1
 10
2326.866410249936
 20
985.3510872009163
 30
0
 42
-0.03052298836163089
  0
VERTEX
  8
1
 10
2326.796676168439
 20
985.3084814005338
 30
0
 42
-0.02379140642672281
  0
VERTEX
  8
1
 10
2326.722805907054
 20
985.2737414847359
 30
0
 42
-0.01676039098192956
  0
VERTEX
  8
1
 10
2326.645833510753
 20
985.2449009823769
 30
0
 42
-0.009893307225067679
  0
VERTEX
  8
1
 10
2326.56679302451
 20
985.2199934223104
 30
0
 42
-0.003264280124042588
  0
VERTEX
  8
1
 10
2326.486718493294
 20
985.1970523333901
 30
0
  0
SEQEND
  8
1
  0
POLYLINE
  8
1
 62
7
 66
1
  0
VERTEX
  8
1
 10
2331.627160737065
 20
986.7970523333902
 30
0
 42
-0.002837939095983281
  0
VERTEX
  8
1
 10
2331.689597310688
 20
986.7742198777901
 30
0
 42
-0.008643799492619932
  0
VERTEX
  8
1
 10
2331.751028270006
 20
986.7501480721959
 30
0
 42
-0.01480637131697137
  0
VERTEX
  8
1
 10
2331.810448000717
 20
986.723597566614
 30
0
 42
-0.0214279018704574
  0
VERTEX
  8
1
 10
2331.866850888515
 20
986.6933290110504
 30
0
 42
-0.02833043652936478
  0
VERTEX
  8
1
 10
2331.919231319097
 20
986.6581030555112
 30
0
 42
-0.06158765838318147
  0
VERTEX
  8
1
 10
2332.012581210494
 20
986.5662480365842
 30
0
 42
-0.05141935180960216
  0
VERTEX
  8
1
 10
2332.084800080875
 20
986.4529314755719
 30
0
 42
-0.04250288537124573
  0
VERTEX
  8
1
 10
2332.136535704324
 20
986.3235326872357
 30
0
 42
-0.03619738170029694
  0
VERTEX
  8
1
 10
2332.168435854929
 20
986.1834309863365
 30
0
 42
-0.0988607257036745
  0
VERTEX
  8
1
 10
2332.148980775184
 20
985.7472082954344
 30
0
 42
-0.04107226189023557
  0
VERTEX
  8
1
 10
2332.102939080211
 20
985.6138179029426
 30
0
 42
-0.04839721917826392
  0
VERTEX
  8
1
 10
2332.036258377891
 20
985.494791463002
 30
0
 42
-0.09285940882252661
  0
VERTEX
  8
1
 10
2331.883832211478
 20
985.3444249609397
 30
0
 42
-0.02529477544149717
  0
VERTEX
  8
1
 10
2331.812644823925
 20
985.3012212912016
 30
0
 42
-0.01735261062983175
  0
VERTEX
  8
1
 10
2331.736521520074
 20
985.2634694896212
 30
0
 42
-0.01006218936008904
  0
VERTEX
  8
1
 10
2331.657107605358
 20
985.2293522668126
 30
0
 42
-0.003290890156941407
  0
VERTEX
  8
1
 10
2331.576048385209
 20
985.1970523333901
 30
0
  0
SEQEND
  8
1
  0
POLYLINE
  8
1
 62
7
 66
1
  0
VERTEX
  8
1
 10
2326.523227316046
 20
994.3970523333901
 30
0
 42
-0.002044748922083585
  0
VERTEX
  8
1
 10
2326.594539748754
 20
994.3563954688146
 30
0
 42
-0.006133275925665834
  0
VERTEX
  8
1
 10
2326.66518321998
 20
994.3145742977586
 30
0
 42
-0.01020252137486401
  0
VERTEX
  8
1
 10
2326.73448876824
 20
994.2704245137413
 30
0
 42
-0.01418591582564878
  0
VERTEX
  8
1
 10
2326.801787432053
 20
994.2227818102824
 30
0
 42
-0.01794238677982305
  0
VERTEX
  8
1
 10
2326.866410249936
 20
994.1704818809012
 30
0
 42
-0.03212424005866912
  0
VERTEX
  8
1
 10
2326.962904659534
 20
994.0747507170584
 30
0
 42
-0.03450919072638999
  0
VERTEX
  8
1
 10
2327.046570441305
 20
993.9662292613193
 30
0
 42
-0.03885577009264789
  0
VERTEX
  8
1
 10
2327.113247751141
 20
993.8472149679852
 30
0
 42
-0.04485983911037696
  0
VERTEX
  8
1
 10
2327.158776744936
 20
993.7200052913565
 30
0
 42
-0.1085730550528929
  0
VERTEX
  8
1
 10
2327.169346300519
 20
993.4411665086519
 30
0
 42
-0.0484964603853622
  0
VERTEX
  8
1
 10
2327.129603549634
 20
993.2980157808141
 30
0
 42
-0.04630023598449067
  0
VERTEX
  8
1
 10
2327.063427704916
 20
993.1641495930358
 30
0
 42
-0.04802821525174972
  0
VERTEX
  8
1
 10
2326.974477145353
 20
993.0462720361314
 30
0
 42
-0.05376798633348997
  0
VERTEX
  8
1
 10
2326.866410249936
 20
992.9510872009162
 30
0
 42
-0.03052298836230731
  0
VERTEX
  8
1
 10
2326.796676168438
 20
992.9084814005337
 30
0
 42
-0.02379140643069921
  0
VERTEX
  8
1
 10
2326.722805907054
 20
992.8737414847359
 30
0
 42
-0.01676039097936995
  0
VERTEX
  8
1
 10
2326.645833510753
 20
992.8449009823769
 30
0
 42
-0.009893307226368931
  0
VERTEX
  8
1
 10
2326.56679302451
 20
992.8199934223105
 30
0
 42
-0.003264280124042588
  0
VERTEX
  8
1
 10
2326.486718493294
 20
992.7970523333902
 30
0
  0
SEQEND
  8
1
  0
POLYLINE
  8
1
 62
7
 66
1
  0
VERTEX
  8
1
 10
2331.627160737065
 20
994.3970523333901
 30
0
 42
-0.002837939095983281
  0
VERTEX
  8
1
 10
2331.689597310688
 20
994.37421987779
 30
0
 42
-0.008643799492619932
  0
VERTEX
  8
1
 10
2331.751028270006
 20
994.3501480721958
 30
0
 42
-0.01480637131697137
  0
VERTEX
  8
1
 10
2331.810448000717
 20
994.3235975666139
 30
0
 42
-0.0214279018704574
  0
VERTEX
  8
1
 10
2331.866850888515
 20
994.2933290110503
 30
0
 42
-0.02833043652936478
  0
VERTEX
  8
1
 10
2331.919231319097
 20
994.2581030555111
 30
0
 42
-0.06158765838318147
  0
VERTEX
  8
1
 10
2332.012581210494
 20
994.1662480365841
 30
0
 42
-0.05141935180960216
  0
VERTEX
  8
1
 10
2332.084800080875
 20
994.0529314755718
 30
0
 42
-0.04250288537124573
  0
VERTEX
  8
1
 10
2332.136535704324
 20
993.9235326872356
 30
0
 42
-0.03619738170029694
  0
VERTEX
  8
1
 10
2332.168435854929
 20
993.7834309863364
 30
0
 42
-0.0988607257036745
  0
VERTEX
  8
1
 10
2332.148980775184
 20
993.3472082954343
 30
0
 42
-0.04107226189023557
  0
VERTEX
  8
1
 10
2332.102939080211
 20
993.2138179029425
 30
0
 42
-0.04839721917908318
  0
VERTEX
  8
1
 10
2332.036258377891
 20
993.0947914630019
 30
0
 42
-0.09285940882252661
  0
VERTEX
  8
1
 10
2331.883832211478
 20
992.9444249609396
 30
0
 42
-0.02529477544037724
  0
VERTEX
  8
1
 10
2331.812644823925
 20
992.9012212912016
 30
0
 42
-0.01735261062979
  0
VERTEX
  8
1
 10
2331.736521520074
 20
992.8634694896213
 30
0
 42
-0.01006218936128787
  0
VERTEX
  8
1
 10
2331.657107605358
 20
992.8293522668128
 30
0
 42
-0.003290890156941407
  0
VERTEX
  8
1
 10
2331.576048385209
 20
992.7970523333902
 30
0
  0
SEQEND
  8
1
  0
POLYLINE
  8
1
 62
7
 66
1
  0
VERTEX
  8
1
 10
2234.258827025999
 20
900.5326520433421
 30
0
 42
-0.002044748925374411
  0
VERTEX
  8
1
 10
2234.218170161424
 20
900.4613396106346
 30
0
 42
-0.00613327593070266
  0
VERTEX
  8
1
 10
2234.176348990368
 20
900.3906961394094
 30
0
 42
-0.01020252137484991
  0
VERTEX
  8
1
 10
2234.13219920635
 20
900.3213905911496
 30
0
 42
-0.0141859158305746
  0
VERTEX
  8
1
 10
2234.084556502892
 20
900.254091927337
 30
0
 42
-0.01794238677183187
  0
VERTEX
  8
1
 10
2234.032256573511
 20
900.1894691094542
 30
0
 42
-0.03212424006059279
  0
VERTEX
  8
1
 10
2233.936525409668
 20
900.0929746998564
 30
0
 42
-0.03450919073264854
  0
VERTEX
  8
1
 10
2233.82800395393
 20
900.0093089180855
 30
0
 42
-0.03885577009091644
  0
VERTEX
  8
1
 10
2233.708989660595
 20
899.9426316082488
 30
0
 42
-0.04485983911366861
  0
VERTEX
  8
1
 10
2233.581779983967
 20
899.8971026144538
 30
0
 42
-0.1085730550558244
  0
VERTEX
  8
1
 10
2233.302941201263
 20
899.88653305887
 30
0
 42
-0.04849646038705493
  0
VERTEX
  8
1
 10
2233.159790473424
 20
899.9262758097548
 30
0
 42
-0.04630023597844874
  0
VERTEX
  8
1
 10
2233.025924285646
 20
899.9924516544736
 30
0
 42
-0.04802821525183856
  0
VERTEX
  8
1
 10
2232.908046728742
 20
900.0814022140365
 30
0
 42
-0.05376798633094686
  0
VERTEX
  8
1
 10
2232.812861893526
 20
900.1894691094542
 30
0
 42
-0.03052298837053664
  0
VERTEX
  8
1
 10
2232.770256093143
 20
900.2592031909521
 30
0
 42
-0.02379140642542165
  0
VERTEX
  8
1
 10
2232.735516177346
 20
900.333073452337
 30
0
 42
-0.01676039097707704
  0
VERTEX
  8
1
 10
2232.706675674987
 20
900.4100458486371
 30
0
 42
-0.009893307226544905
  0
VERTEX
  8
1
 10
2232.681768114921
 20
900.4890863348808
 30
0
 42
-0.003264280128538303
  0
VERTEX
  8
1
 10
2232.658827026
 20
900.5691608660961
 30
0
  0
SEQEND
  8
1
  0
POLYLINE
  8
1
 62
7
 66
1
  0
VERTEX
  8
1
 10
2234.258827025999
 20
895.4287186223251
 30
0
 42
-0.002837939095140726
  0
VERTEX
  8
1
 10
2234.235994570399
 20
895.3662820487025
 30
0
 42
-0.008643799493606771
  0
VERTEX
  8
1
 10
2234.211922764805
 20
895.3048510893838
 30
0
 42
-0.0148063713208419
  0
VERTEX
  8
1
 10
2234.185372259222
 20
895.2454313586734
 30
0
 42
-0.02142790188348052
  0
VERTEX
  8
1
 10
2234.155103703659
 20
895.1890284708752
 30
0
 42
-0.02833043652633054
  0
VERTEX
  8
1
 10
2234.11987774812
 20
895.1366480402933
 30
0
 42
-0.0615876583766676
  0
VERTEX
  8
1
 10
2234.028022729193
 20
895.0432981488958
 30
0
 42
-0.05141935181188258
  0
VERTEX
  8
1
 10
2233.914706168181
 20
894.9710792785152
 30
0
 42
-0.04250288537246717
  0
VERTEX
  8
1
 10
2233.785307379845
 20
894.9193436550654
 30
0
 42
-0.03619738169885204
  0
VERTEX
  8
1
 10
2233.645205678945
 20
894.8874435044608
 30
0
 42
-0.09886072570613537
  0
VERTEX
  8
1
 10
2233.208982988044
 20
894.9068985842059
 30
0
 42
-0.04107226189636511
  0
VERTEX
  8
1
 10
2233.075592595552
 20
894.9529402791789
 30
0
 42
-0.04839721917745659
  0
VERTEX
  8
1
 10
2232.956566155612
 20
895.0196209814998
 30
0
 42
-0.09285940882145409
  0
VERTEX
  8
1
 10
2232.80619965355
 20
895.1720471479123
 30
0
 42
-0.02529477544671302
  0
VERTEX
  8
1
 10
2232.762995983811
 20
895.243234535465
 30
0
 42
-0.0173526106310616
  0
VERTEX
  8
1
 10
2232.725244182231
 20
895.3193578393159
 30
0
 42
-0.01006218936344502
  0
VERTEX
  8
1
 10
2232.691126959423
 20
895.3987717540323
 30
0
 42
-0.003290890158895879
  0
VERTEX
  8
1
 10
2232.658827026
 20
895.4798309741811
 30
0
  0
SEQEND
  8
1
  0
POLYLINE
  8
1
 62
7
 66
1
  0
VERTEX
  8
1
 10
2241.858827026
 20
900.5326520433421
 30
0
 42
-0.002044748925374411
  0
VERTEX
  8
1
 10
2241.818170161425
 20
900.4613396106346
 30
0
 42
-0.006133275921134176
  0
VERTEX
  8
1
 10
2241.776348990368
 20
900.3906961394094
 30
0
 42
-0.01020252137015273
  0
VERTEX
  8
1
 10
2241.732199206351
 20
900.3213905911496
 30
0
 42
-0.01418591582515196
  0
VERTEX
  8
1
 10
2241.684556502892
 20
900.2540919273368
 30
0
 42
-0.01794238678555131
  0
VERTEX
  8
1
 10
2241.632256573511
 20
900.1894691094542
 30
0
 42
-0.03212424005583703
  0
VERTEX
  8
1
 10
2241.536525409668
 20
900.0929746998564
 30
0
 42
-0.03450919073236676
  0
VERTEX
  8
1
 10
2241.428003953929
 20
900.0093089180853
 30
0
 42
-0.03885577009461851
  0
VERTEX
  8
1
 10
2241.308989660594
 20
899.9426316082486
 30
0
 42
-0.04485983911599654
  0
VERTEX
  8
1
 10
2241.181779983966
 20
899.8971026144538
 30
0
 42
-0.1085730550575311
  0
VERTEX
  8
1
 10
2240.902941201262
 20
899.8865330588702
 30
0
 42
-0.04849646038953288
  0
VERTEX
  8
1
 10
2240.759790473423
 20
899.9262758097552
 30
0
 42
-0.04630023597961864
  0
VERTEX
  8
1
 10
2240.625924285645
 20
899.9924516544739
 30
0
 42
-0.04802821524920632
  0
VERTEX
  8
1
 10
2240.508046728741
 20
900.0814022140369
 30
0
 42
-0.05376798632961385
  0
VERTEX
  8
1
 10
2240.412861893526
 20
900.1894691094542
 30
0
 42
-0.03052298835923292
  0
VERTEX
  8
1
 10
2240.370256093143
 20
900.2592031909521
 30
0
 42
-0.02379140643052649
  0
VERTEX
  8
1
 10
2240.335516177345
 20
900.333073452337
 30
0
 42
-0.01676039097707704
  0
VERTEX
  8
1
 10
2240.306675674986
 20
900.4100458486371
 30
0
 42
-0.00989330723173973
  0
VERTEX
  8
1
 10
2240.28176811492
 20
900.4890863348808
 30
0
 42
-0.003264280118041782
  0
VERTEX
  8
1
 10
2240.258827025999
 20
900.5691608660961
 30
0
  0
SEQEND
  8
1
  0
POLYLINE
  8
1
 62
7
 66
1
  0
VERTEX
  8
1
 10
2241.858827026
 20
895.4287186223251
 30
0
 42
-0.002837939095140726
  0
VERTEX
  8
1
 10
2241.8359945704
 20
895.3662820487025
 30
0
 42
-0.008643799493606771
  0
VERTEX
  8
1
 10
2241.811922764806
 20
895.3048510893838
 30
0
 42
-0.0148063713208419
  0
VERTEX
  8
1
 10
2241.785372259224
 20
895.2454313586734
 30
0
 42
-0.02142790187095901
  0
VERTEX
  8
1
 10
2241.75510370366
 20
895.1890284708752
 30
0
 42
-0.02833043652248264
  0
VERTEX
  8
1
 10
2241.719877748121
 20
895.1366480402933
 30
0
 42
-0.06158765837878859
  0
VERTEX
  8
1
 10
2241.628022729194
 20
895.0432981488959
 30
0
 42
-0.05141935181266947
  0
VERTEX
  8
1
 10
2241.514706168181
 20
894.9710792785154
 30
0
 42
-0.04250288537433544
  0
VERTEX
  8
1
 10
2241.385307379846
 20
894.9193436550655
 30
0
 42
-0.03619738169851448
  0
VERTEX
  8
1
 10
2241.245205678947
 20
894.8874435044609
 30
0
 42
-0.09886072570623229
  0
VERTEX
  8
1
 10
2240.808982988045
 20
894.9068985842057
 30
0
 42
-0.04107226189644234
  0
VERTEX
  8
1
 10
2240.675592595553
 20
894.9529402791789
 30
0
 42
-0.04839721917831185
  0
VERTEX
  8
1
 10
2240.556566155612
 20
895.0196209814998
 30
0
 42
-0.09285940882074407
  0
VERTEX
  8
1
 10
2240.406199653549
 20
895.1720471479123
 30
0
 42
-0.02529477543738223
  0
VERTEX
  8
1
 10
2240.362995983811
 20
895.243234535465
 30
0
 42
-0.0173526106310616
  0
VERTEX
  8
1
 10
2240.325244182231
 20
895.3193578393159
 30
0
 42
-0.01006218936344502
  0
VERTEX
  8
1
 10
2240.291126959422
 20
895.3987717540323
 30
0
 42
-0.003290890154041556
  0
VERTEX
  8
1
 10
2240.258827025999
 20
895.4798309741811
 30
0
  0
SEQEND
  8
1
  0
POLYLINE
  8
1
 62
7
 66
1
  0
VERTEX
  8
1
 10
2147.994426735952
 20
992.7970523333902
 30
0
 42
-0.002044748924859654
  0
VERTEX
  8
1
 10
2147.923114303244
 20
992.8377091979659
 30
0
 42
-0.006133275928133397
  0
VERTEX
  8
1
 10
2147.85247083202
 20
992.8795303690217
 30
0
 42
-0.0102025213802411
  0
VERTEX
  8
1
 10
2147.783165283759
 20
992.9236801530391
 30
0
 42
-0.01418591582456018
  0
VERTEX
  8
1
 10
2147.715866619947
 20
992.9713228564979
 30
0
 42
-0.01794238677660123
  0
VERTEX
  8
1
 10
2147.651243802064
 20
993.0236227858791
 30
0
 42
-0.03212424005947348
  0
VERTEX
  8
1
 10
2147.554749392466
 20
993.1193539497223
 30
0
 42
-0.03450919072682988
  0
VERTEX
  8
1
 10
2147.471083610695
 20
993.2278754054612
 30
0
 42
-0.03885577009506892
  0
VERTEX
  8
1
 10
2147.404406300859
 20
993.3468896987952
 30
0
 42
-0.04485983911732219
  0
VERTEX
  8
1
 10
2147.358877307063
 20
993.4740993754239
 30
0
 42
-0.1085730550574854
  0
VERTEX
  8
1
 10
2147.34830775148
 20
993.7529381581284
 30
0
 42
-0.0484964603852665
  0
VERTEX
  8
1
 10
2147.388050502364
 20
993.896088885966
 30
0
 42
-0.04630023597872038
  0
VERTEX
  8
1
 10
2147.454226347083
 20
994.0299550737445
 30
0
 42
-0.04802821524723439
  0
VERTEX
  8
1
 10
2147.543176906646
 20
994.1478326306487
 30
0
 42
-0.05376798633085814
  0
VERTEX
  8
1
 10
2147.651243802064
 20
994.2430174658641
 30
0
 42
-0.03052298837178456
  0
VERTEX
  8
1
 10
2147.720977883562
 20
994.2856232662467
 30
0
 42
-0.02379140643072598
  0
VERTEX
  8
1
 10
2147.794848144947
 20
994.3203631820443
 30
0
 42
-0.01676039098378827
  0
VERTEX
  8
1
 10
2147.871820541247
 20
994.3492036844033
 30
0
 42
-0.009893307221768162
  0
VERTEX
  8
1
 10
2147.950861027491
 20
994.3741112444698
 30
0
 42
-0.003264280124042421
  0
VERTEX
  8
1
 10
2148.030935558706
 20
994.3970523333901
 30
0
  0
SEQEND
  8
1
  0
POLYLINE
  8
1
 62
7
 66
1
  0
VERTEX
  8
1
 10
2142.890493314934
 20
992.7970523333902
 30
0
 42
-0.002837939100722639
  0
VERTEX
  8
1
 10
2142.828056741312
 20
992.8198847889905
 30
0
 42
-0.008643799491749506
  0
VERTEX
  8
1
 10
2142.766625781993
 20
992.8439565945844
 30
0
 42
-0.01480637131279518
  0
VERTEX
  8
1
 10
2142.707206051283
 20
992.8705071001664
 30
0
 42
-0.02142790187271585
  0
VERTEX
  8
1
 10
2142.650803163485
 20
992.9007756557298
 30
0
 42
-0.02833043652218303
  0
VERTEX
  8
1
 10
2142.598422732903
 20
992.9360016112692
 30
0
 42
-0.06158765837931343
  0
VERTEX
  8
1
 10
2142.505072841506
 20
993.0278566301964
 30
0
 42
-0.05141935181614978
  0
VERTEX
  8
1
 10
2142.432853971126
 20
993.1411731912085
 30
0
 42
-0.04250288537440037
  0
VERTEX
  8
1
 10
2142.381118347676
 20
993.2705719795447
 30
0
 42
-0.03619738169696395
  0
VERTEX
  8
1
 10
2142.349218197071
 20
993.4106736804438
 30
0
 42
-0.09886072570337619
  0
VERTEX
  8
1
 10
2142.368673276816
 20
993.846896371346
 30
0
 42
-0.0410722618963769
  0
VERTEX
  8
1
 10
2142.414714971789
 20
993.9802867638376
 30
0
 42
-0.04839721917403029
  0
VERTEX
  8
1
 10
2142.48139567411
 20
994.0993132037784
 30
0
 42
-0.09285940882038421
  0
VERTEX
  8
1
 10
2142.633821840522
 20
994.2496797058408
 30
0
 42
-0.0252947754419952
  0
VERTEX
  8
1
 10
2142.705009228075
 20
994.2928833755786
 30
0
 42
-0.01735261062889611
  0
VERTEX
  8
1
 10
2142.781132531925
 20
994.3306351771589
 30
0
 42
-0.0100621893602753
  0
VERTEX
  8
1
 10
2142.860546446642
 20
994.3647523999675
 30
0
 42
-0.003290890159362164
  0
VERTEX
  8
1
 10
2142.941605666791
 20
994.3970523333901
 30
0
  0
SEQEND
  8
1
  0
POLYLINE
  8
1
 62
7
 66
1
  0
VERTEX
  8
1
 10
2147.994426735952
 20
985.1970523333901
 30
0
 42
-0.002044748924859654
  0
VERTEX
  8
1
 10
2147.923114303244
 20
985.2377091979657
 30
0
 42
-0.006133275925723678
  0
VERTEX
  8
1
 10
2147.85247083202
 20
985.2795303690218
 30
0
 42
-0.01020252138373484
  0
VERTEX
  8
1
 10
2147.783165283759
 20
985.3236801530391
 30
0
 42
-0.01418591582564869
  0
VERTEX
  8
1
 10
2147.715866619947
 20
985.371322856498
 30
0
 42
-0.01794238677872782
  0
VERTEX
  8
1
 10
2147.651243802064
 20
985.4236227858792
 30
0
 42
-0.03212424005947348
  0
VERTEX
  8
1
 10
2147.554749392466
 20
985.5193539497224
 30
0
 42
-0.03450919072629823
  0
VERTEX
  8
1
 10
2147.471083610695
 20
985.6278754054612
 30
0
 42
-0.03885577009457712
  0
VERTEX
  8
1
 10
2147.404406300859
 20
985.7468896987953
 30
0
 42
-0.04485983911699693
  0
VERTEX
  8
1
 10
2147.358877307063
 20
985.8740993754238
 30
0
 42
-0.1085730550571495
  0
VERTEX
  8
1
 10
2147.34830775148
 20
986.1529381581285
 30
0
 42
-0.04849646038568292
  0
VERTEX
  8
1
 10
2147.388050502364
 20
986.2960888859661
 30
0
 42
-0.04630023597872038
  0
VERTEX
  8
1
 10
2147.454226347083
 20
986.4299550737446
 30
0
 42
-0.04802821524723439
  0
VERTEX
  8
1
 10
2147.543176906646
 20
986.5478326306488
 30
0
 42
-0.05376798633085814
  0
VERTEX
  8
1
 10
2147.651243802064
 20
986.6430174658642
 30
0
 42
-0.03052298837178456
  0
VERTEX
  8
1
 10
2147.720977883562
 20
986.6856232662468
 30
0
 42
-0.02379140642820524
  0
VERTEX
  8
1
 10
2147.794848144947
 20
986.7203631820444
 30
0
 42
-0.01676039098378827
  0
VERTEX
  8
1
 10
2147.871820541247
 20
986.7492036844034
 30
0
 42
-0.009893307221768162
  0
VERTEX
  8
1
 10
2147.950861027491
 20
986.7741112444699
 30
0
 42
-0.003264280124042421
  0
VERTEX
  8
1
 10
2148.030935558706
 20
986.7970523333902
 30
0
  0
SEQEND
  8
1
  0
POLYLINE
  8
1
 62
7
 66
1
  0
VERTEX
  8
1
 10
2142.890493314934
 20
985.1970523333901
 30
0
 42
-0.002837939100722639
  0
VERTEX
  8
1
 10
2142.828056741312
 20
985.2198847889904
 30
0
 42
-0.008643799491747175
  0
VERTEX
  8
1
 10
2142.766625781993
 20
985.2439565945845
 30
0
 42
-0.01480637131118423
  0
VERTEX
  8
1
 10
2142.707206051283
 20
985.2705071001664
 30
0
 42
-0.02142790187269136
  0
VERTEX
  8
1
 10
2142.650803163485
 20
985.30077565573
 30
0
 42
-0.02833043652065089
  0
VERTEX
  8
1
 10
2142.598422732903
 20
985.3360016112692
 30
0
 42
-0.06158765837385368
  0
VERTEX
  8
1
 10
2142.505072841506
 20
985.4278566301966
 30
0
 42
-0.0514193518128264
  0
VERTEX
  8
1
 10
2142.432853971126
 20
985.5411731912086
 30
0
 42
-0.04250288537124575
  0
VERTEX
  8
1
 10
2142.381118347676
 20
985.6705719795448
 30
0
 42
-0.03619738169716297
  0
VERTEX
  8
1
 10
2142.349218197071
 20
985.810673680444
 30
0
 42
-0.09886072570408762
  0
VERTEX
  8
1
 10
2142.368673276817
 20
986.2468963713459
 30
0
 42
-0.04107226190011198
  0
VERTEX
  8
1
 10
2142.414714971789
 20
986.3802867638377
 30
0
 42
-0.04839721917320725
  0
VERTEX
  8
1
 10
2142.48139567411
 20
986.4993132037785
 30
0
 42
-0.09285940882038421
  0
VERTEX
  8
1
 10
2142.633821840522
 20
986.6496797058409
 30
0
 42
-0.0252947754419952
  0
VERTEX
  8
1
 10
2142.705009228075
 20
986.6928833755787
 30
0
 42
-0.01735261062889611
  0
VERTEX
  8
1
 10
2142.781132531925
 20
986.730635177159
 30
0
 42
-0.0100621893602753
  0
VERTEX
  8
1
 10
2142.860546446642
 20
986.7647523999676
 30
0
 42
-0.003290890159362164
  0
VERTEX
  8
1
 10
2142.941605666791
 20
986.7970523333902
 30
0
  0
SEQEND
  8
1
  0
POLYLINE
  8
1
 62
7
 66
1
  0
VERTEX
  8
1
 10
2240.258827025999
 20
1079.061452623437
 30
0
 42
-0.002044748921246029
  0
VERTEX
  8
1
 10
2240.299483890575
 20
1079.132765056145
 30
0
 42
-0.006133275930746183
  0
VERTEX
  8
1
 10
2240.341305061631
 20
1079.203408527369
 30
0
 42
-0.01020252137553399
  0
VERTEX
  8
1
 10
2240.385454845648
 20
1079.27271407563
 30
0
 42
-0.01418591582877157
  0
VERTEX
  8
1
 10
2240.433097549107
 20
1079.340012739443
 30
0
 42
-0.01794238677419896
  0
VERTEX
  8
1
 10
2240.485397478488
 20
1079.404635557325
 30
0
 42
-0.03212424005767568
  0
VERTEX
  8
1
 10
2240.581128642331
 20
1079.501129966923
 30
0
 42
-0.03450919073271545
  0
VERTEX
  8
1
 10
2240.68965009807
 20
1079.584795748694
 30
0
 42
-0.03885577008968178
  0
VERTEX
  8
1
 10
2240.808664391405
 20
1079.651473058531
 30
0
 42
-0.04485983911754875
  0
VERTEX
  8
1
 10
2240.935874068034
 20
1079.697002052326
 30
0
 42
-0.1085730550586285
  0
VERTEX
  8
1
 10
2241.214712850739
 20
1079.70757160791
 30
0
 42
-0.04849646038507709
  0
VERTEX
  8
1
 10
2241.357863578576
 20
1079.667828857025
 30
0
 42
-0.04630023598026289
  0
VERTEX
  8
1
 10
2241.491729766354
 20
1079.601653012306
 30
0
 42
-0.0480282152527085
  0
VERTEX
  8
1
 10
2241.609607323259
 20
1079.512702452743
 30
0
 42
-0.0537679863295012
  0
VERTEX
  8
1
 10
2241.704792158474
 20
1079.404635557325
 30
0
 42
-0.03052298836392786
  0
VERTEX
  8
1
 10
2241.747397958857
 20
1079.334901475827
 30
0
 42
-0.02379140641935675
  0
VERTEX
  8
1
 10
2241.782137874654
 20
1079.261031214442
 30
0
 42
-0.01676039098553869
  0
VERTEX
  8
1
 10
2241.810978377013
 20
1079.184058818142
 30
0
 42
-0.009893307220446866
  0
VERTEX
  8
1
 10
2241.83588593708
 20
1079.105018331899
 30
0
 42
-0.003264280122549599
  0
VERTEX
  8
1
 10
2241.858827026
 20
1079.024943800683
 30
0
  0
SEQEND
  8
1
  0
POLYLINE
  8
1
 62
7
 66
1
  0
VERTEX
  8
1
 10
2240.258827025999
 20
1084.165386044455
 30
0
 42
-0.00283793910269752
  0
VERTEX
  8
1
 10
2240.2816594816
 20
1084.227822618078
 30
0
 42
-0.008643799499289539
  0
VERTEX
  8
1
 10
2240.305731287193
 20
1084.289253577397
 30
0
 42
-0.014806371315124
  0
VERTEX
  8
1
 10
2240.332281792775
 20
1084.348673308107
 30
0
 42
-0.02142790187745124
  0
VERTEX
  8
1
 10
2240.362550348339
 20
1084.405076195905
 30
0
 42
-0.02833043652447521
  0
VERTEX
  8
1
 10
2240.397776303878
 20
1084.457456626487
 30
0
 42
-0.06158765838252774
  0
VERTEX
  8
1
 10
2240.489631322805
 20
1084.550806517884
 30
0
 42
-0.05141935180985974
  0
VERTEX
  8
1
 10
2240.602947883817
 20
1084.623025388265
 30
0
 42
-0.0425028853717777
  0
VERTEX
  8
1
 10
2240.732346672154
 20
1084.674761011714
 30
0
 42
-0.03619738170115593
  0
VERTEX
  8
1
 10
2240.872448373053
 20
1084.706661162318
 30
0
 42
-0.09886072570652438
  0
VERTEX
  8
1
 10
2241.308671063955
 20
1084.687206082573
 30
0
 42
-0.04107226189421476
  0
VERTEX
  8
1
 10
2241.442061456447
 20
1084.6411643876
 30
0
 42
-0.04839721917321748
  0
VERTEX
  8
1
 10
2241.561087896388
 20
1084.574483685279
 30
0
 42
-0.09285940882036965
  0
VERTEX
  8
1
 10
2241.711454398451
 20
1084.422057518867
 30
0
 42
-0.02529477543142323
  0
VERTEX
  8
1
 10
2241.754658068189
 20
1084.350870131314
 30
0
 42
-0.01735261062152134
  0
VERTEX
  8
1
 10
2241.792409869769
 20
1084.274746827463
 30
0
 42
-0.01006218935313607
  0
VERTEX
  8
1
 10
2241.826527092578
 20
1084.195332912747
 30
0
 42
-0.003290890159349285
  0
VERTEX
  8
1
 10
2241.858827026
 20
1084.114273692598
 30
0
  0
SEQEND
  8
1
  0
POLYLINE
  8
1
 62
7
 66
1
  0
VERTEX
  8
1
 10
2232.658827026
 20
1079.061452623437
 30
0
 42
-0.002044748930871259
  0
VERTEX
  8
1
 10
2232.699483890576
 20
1079.132765056145
 30
0
 42
-0.006133275930746183
  0
VERTEX
  8
1
 10
2232.741305061632
 20
1079.203408527369
 30
0
 42
-0.01020252137553399
  0
VERTEX
  8
1
 10
2232.785454845649
 20
1079.27271407563
 30
0
 42
-0.01418591582900943
  0
VERTEX
  8
1
 10
2232.833097549108
 20
1079.340012739442
 30
0
 42
-0.01794238677781767
  0
VERTEX
  8
1
 10
2232.885397478489
 20
1079.404635557325
 30
0
 42
-0.03212424005637426
  0
VERTEX
  8
1
 10
2232.981128642332
 20
1079.501129966923
 30
0
 42
-0.0345091907341309
  0
VERTEX
  8
1
 10
2233.089650098071
 20
1079.584795748694
 30
0
 42
-0.03885577009755581
  0
VERTEX
  8
1
 10
2233.208664391405
 20
1079.651473058531
 30
0
 42
-0.04485983911697027
  0
VERTEX
  8
1
 10
2233.335874068033
 20
1079.697002052326
 30
0
 42
-0.108573055052947
  0
VERTEX
  8
1
 10
2233.614712850738
 20
1079.707571607911
 30
0
 42
-0.04849646038628808
  0
VERTEX
  8
1
 10
2233.757863578576
 20
1079.667828857025
 30
0
 42
-0.0463002359783846
  0
VERTEX
  8
1
 10
2233.891729766354
 20
1079.601653012306
 30
0
 42
-0.04802821525246903
  0
VERTEX
  8
1
 10
2234.009607323259
 20
1079.512702452743
 30
0
 42
-0.05376798633029152
  0
VERTEX
  8
1
 10
2234.104792158474
 20
1079.404635557325
 30
0
 42
-0.03052298837060707
  0
VERTEX
  8
1
 10
2234.147397958857
 20
1079.334901475827
 30
0
 42
-0.02379140642581235
  0
VERTEX
  8
1
 10
2234.182137874654
 20
1079.261031214442
 30
0
 42
-0.01676039098221119
  0
VERTEX
  8
1
 10
2234.210978377013
 20
1079.184058818142
 30
0
 42
-0.009893307220460302
  0
VERTEX
  8
1
 10
2234.235885937079
 20
1079.105018331899
 30
0
 42
-0.003264280122549599
  0
VERTEX
  8
1
 10
2234.258827025999
 20
1079.024943800683
 30
0
  0
SEQEND
  8
1
  0
POLYLINE
  8
1
 62
7
 66
1
  0
VERTEX
  8
1
 10
2232.658827026
 20
1084.165386044455
 30
0
 42
-0.00283793909628704
  0
VERTEX
  8
1
 10
2232.6816594816
 20
1084.227822618078
 30
0
 42
-0.008643799492824672
  0
VERTEX
  8
1
 10
2232.705731287194
 20
1084.289253577397
 30
0
 42
-0.0148063713280536
  0
VERTEX
  8
1
 10
2232.732281792776
 20
1084.348673308107
 30
0
 42
-0.02142790187716823
  0
VERTEX
  8
1
 10
2232.76255034834
 20
1084.405076195905
 30
0
 42
-0.02833043652493032
  0
VERTEX
  8
1
 10
2232.797776303879
 20
1084.457456626487
 30
0
 42
-0.06158765838252774
  0
VERTEX
  8
1
 10
2232.889631322806
 20
1084.550806517884
 30
0
 42
-0.05141935181154262
  0
VERTEX
  8
1
 10
2233.002947883818
 20
1084.623025388265
 30
0
 42
-0.04250288536934748
  0
VERTEX
  8
1
 10
2233.132346672154
 20
1084.674761011714
 30
0
 42
-0.0361973817007982
  0
VERTEX
  8
1
 10
2233.272448373053
 20
1084.706661162318
 30
0
 42
-0.09886072570301295
  0
VERTEX
  8
1
 10
2233.708671063956
 20
1084.687206082574
 30
0
 42
-0.04107226189483798
  0
VERTEX
  8
1
 10
2233.842061456448
 20
1084.6411643876
 30
0
 42
-0.04839721917783592
  0
VERTEX
  8
1
 10
2233.961087896389
 20
1084.574483685279
 30
0
 42
-0.09285940882271483
  0
VERTEX
  8
1
 10
2234.11145439845
 20
1084.422057518867
 30
0
 42
-0.02529477544533789
  0
VERTEX
  8
1
 10
2234.154658068188
 20
1084.350870131314
 30
0
 42
-0.01735261063110945
  0
VERTEX
  8
1
 10
2234.192409869768
 20
1084.274746827463
 30
0
 42
-0.01006218935801621
  0
VERTEX
  8
1
 10
2234.226527092576
 20
1084.195332912747
 30
0
 42
-0.003290890159349285
  0
VERTEX
  8
1
 10
2234.258827025999
 20
1084.114273692598
 30
0
  0
SEQEND
  8
1
  0
ENDBLK
  8
0
  0
ENDSEC
  0
SECTION
  2
ENTITIES
  0
INSERT
  8
0
  2
TOP_TOP_
 10
0
 20
0
 30
0
 41
0.5
 42
0.5
 43
0.5
  0
ENDSEC
  0
EOF
