  0
SECTION
  2
HEADER
  9
$ACADVER
  1
AC1003
  9
$INSBASE
 10
0.000000
 20
0.000000
  9
$EXTMIN
 10
0.000000
 20
0.000000
  9
$EXTMAX
 10
420.000000
 20
297.000000
  9
$LIMMIN
 10
0.000000
 20
0.000000
  9
$LIMMAX
 10
420.000000
 20
297.000000
  9
$VIEWCTR
 10
210.000000
 20
148.500000
  9
$VIEWSIZE
 40
297.000000
  9
$PEXTMIN
 10
0.000000
 20
0.000000
 30
0.000000
  9
$PEXTMAX
 10
420.000000
 20
297.000000
 30
0.000000
  9
$SNAPMODE
 70
     0
  9
$SNAPUNIT
 10
1.000000
 20
1.000000
  9
$SNAPBASE
 10
0.000000
 20
0.000000
  9
$SNAPANG
 50
0.000000
  9
$SNAPISOPAIR
 70
     0
  9
$SNAPSTYLE
 70
     0
  9
$GRIDMODE
 70
     0
  9
$GRIDUNIT
 10
0.000000
 20
0.000000
  9
$ORTHOMODE
 70
     0
  9
$REGENMODE
 70
     1
  9
$FILLMODE
 70
     1
  9
$QTEXTMODE
 70
     0
  9
$DRAGMODE
 70
     2
  9
$LTSCALE
 40
0.250000
  9
$OSMODE
 70
     0
  9
$ATTMODE
 70
     1
  9
$TEXTSIZE
 40
0.200000
  9
$TRACEWID
 40
0.050000
  9
$TEXTSTYLE
  7
STANDARD
  9
$CLAYER
  8
0
  9
$CELTYPE
  6
BYLAYER
  9
$CECOLOR
 62
   256
  9
$DIMSCALE
 40
1.000000
  9
$DIMASZ
 40
1.000000
  9
$DIMEXO
 40
0.000000
  9
$DIMDLI
 40
0.500000
  9
$DIMRND
 40
0.000000
  9
$DIMDLE
 40
0.000000
  9
$DIMEXE
 40
0.000000
  9
$DIMTP
 40
0.000000
  9
$DIMTM
 40
0.000000
  9
$DIMTXT
 40
0.180000
  9
$DIMCEN
 40
0.000000
  9
$DIMTSZ
 40
0.000000
  9
$DIMTOL
 70
     0
  9
$DIMLIM
 70
     0
  9
$DIMTIH
 70
     1
  9
$DIMTOH
 70
     1
  9
$DIMSE1
 70
     0
  9
$DIMSE2
 70
     0
  9
$DIMTAD
 70
     0
  9
$DIMZIN
 70
     0
  9
$DIMBLK
  1

  9
$DIMASO
 70
     0
  9
$DIMSHO
 70
     0
  9
$DIMPOST
  1

  9
$DIMAPOST
  1

  9
$DIMALT
 70
     0
  9
$DIMALTD
 70
     0
  9
$DIMALTF
 40
25.400000
  9
$DIMLFAC
 40
1.000000
  9
$DIMTOFL
 70
     0
  9
$DIMTVP
 40
0.000000
  9
$DIMTIX
 70
     0
  9
$DIMSOXD
 70
     0
  9
$DIMSAH
 70
     0
  9
$DIMBLKL
  1

  9
$DIMBLKR
  1

  9
$LUNITS
 70
     2
  9
$LUPREC
 70
     2
  9
$AXISMODE
 70
     0
  9
$AXISUNIT
 10
1.000000
 20
1.000000
  9
$SKETCHINC
 40
0.000000
  9
$FILLETRAD
 40
0.000000
  9
$AUNITS
 70
     1
  9
$AUPREC
 70
     2
  9
$MENU
  1
ACAD
  9
$ELEVATION
 40
0.000000
  9
$THICKNESS
 40
0.000000
  9
$VIEWDIR
 10
0.000000
 20
0.000000
 30
1.000000
  9
$LIMCHECK
 70
     1
  9
$BLIPMODE
 70
     1
  9
$CHAMFERA
 40
0.000000
  9
$CHAMFERB
 40
0.000000
  9
$FASTZOOM
 70
     1
  9
$SKPOLY
 70
     0
  9
$TDCREATE
 40
0.000000
  9
$TDUPDATE
 40
0.000000
  9
$TDINDWG
 40
0.000000
  9
$TDUSRTIMER
 40
0.000000
  9
$USRTIMER
 70
     1
  9
$ANGBASE
 50
0.000000
  9
$ANGDIR
 70
     0
  9
$PDMODE
 70
     0
  9
$PDSIZE
 40
0.000000
  9
$PLINEWID
 40
0.000000
  9
$COORDS
 70
     2
  9
$USERI1
 70
     0
  9
$USERI2
 70
     0
  9
$USERI3
 70
     0
  9
$USERI4
 70
     0
  9
$USERI5
 70
     0
  9
$USERR1
 40
0.000000
  9
$USERR2
 40
0.000000
  9
$USERR3
 40
0.000000
  9
$USERR4
 40
0.000000
  9
$USERR5
 40
0.000000
  0
ENDSEC
  0
SECTION
  2
TABLES
  0
TABLE
  2
LTYPE
 70
     5
  0
LTYPE
  2
CONTINUOUS
 70
    64
  3
Solid line
 72
    65
 73
     0
 40
0.0
  0
LTYPE
  2
HIDDEN
 70
    64
  3
------------------------
 72
    65
 73
     2
 40
12.6
 49
8.4
 49
-4.2
  0
LTYPE
  2
DOT
 70
    64
  3
････････････････････････
 72
    65
 73
     2
 40
8.0
 49
6.0
 49
-2.0
  0
LTYPE
  2
DASHDOT
 70
    64
  3
--･--･--･--･--･--･--･--
 72
    65
 73
     4
 40
50.5
 49
30.0
 49
-9.0
 49
2.5
 49
-9.0
  0
LTYPE
  2
DIVIDE
 70
    64
  3
--･･--･･--･･--･･--･･--
 72
    65
 73
     6
 40
58.0
 49
30.0
 49
-9.0
 49
2.5
 49
-5.0
 49
2.5
 49
-9.0
  0
ENDTAB
  0
TABLE
  2
LAYER
 70
1
  0
LAYER
  2
1
 70
64
 62
7
  6
CONTINUOUS
  0
ENDTAB
  0
TABLE
  2
STYLE
 70
     2
  0
STYLE
  2
STANDARD
 70
    64
 40
0.0
 41
1.0
 50
0.0
 71
     0
 42
0.2
  3
TXT
  4

  0
STYLE
  2
KANJI
 70
    64
 40
0.0
 41
1.0
 50
0.0
 71
     0
 42
0.2
  3
TXT
  4
BIGFONT
  0
ENDTAB
  0
TABLE
  2
VIEW
 70
     0
  0
ENDTAB
  0
ENDSEC
  0
SECTION
  2
BLOCKS
  0
ENDSEC
  0
SECTION
  2
ENTITIES
  0
LINE
  8
1
 62
7
  6
CONTINUOUS
 10
68.605815
 20
208.690745
 11
91.965820
 21
208.690745
  0
LINE
  8
1
 62
7
  6
DOT
 10
199.306378
 20
135.600076
 11
203.369070
 21
135.600076
  0
LINE
  8
1
 62
7
  6
DOT
 10
206.369070
 20
176.100076
 11
206.369070
 21
103.100076
  0
LINE
  8
1
 62
7
  6
DOT
 10
206.369070
 20
179.600076
 11
212.869070
 21
179.600076
  0
LINE
  8
1
 62
7
  6
DOT
 10
203.369070
 20
143.100076
 11
203.369070
 21
106.100076
  0
LINE
  8
1
 62
7
  6
DOT
 10
206.369070
 20
99.600076
 11
212.869070
 21
99.600076
  0
LINE
  8
1
 62
7
  6
DOT
 10
206.369070
 20
103.100076
 11
206.369070
 21
99.600076
  0
LINE
  8
1
 62
7
  6
DOT
 10
203.369070
 20
103.450076
 11
203.719070
 21
103.100076
  0
LINE
  8
1
 62
7
  6
DOT
 10
206.369070
 20
103.100076
 11
203.719070
 21
103.100076
  0
LINE
  8
1
 62
7
  6
DOT
 10
203.369070
 20
106.100076
 11
203.369070
 21
103.450076
  0
LINE
  8
1
 62
7
  6
DOT
 10
206.369070
 20
179.600076
 11
206.369070
 21
176.100076
  0
LINE
  8
1
 62
7
  6
DOT
 10
203.369070
 20
175.750076
 11
203.719070
 21
176.100076
  0
LINE
  8
1
 62
7
  6
DOT
 10
203.719070
 20
176.100076
 11
206.369070
 21
176.100076
  0
LINE
  8
1
 62
7
  6
DOT
 10
203.369070
 20
175.750076
 11
203.369070
 21
173.100076
  0
LINE
  8
1
 62
7
  6
DOT
 10
203.369070
 20
173.100076
 11
203.369070
 21
143.100076
  0
LINE
  8
1
 62
7
  6
DOT
 10
190.195101
 20
139.600076
 11
208.538655
 21
139.600076
  0
LINE
  8
1
 62
7
  6
DOT
 10
203.369070
 20
143.600076
 11
196.287758
 21
143.600076
  0
LINE
  8
1
 62
7
  6
DOT
 10
212.869070
 20
179.600076
 11
212.869070
 21
177.600076
  0
LINE
  8
1
 62
7
  6
DOT
 10
212.869070
 20
177.600076
 11
212.869070
 21
99.600076
  0
LINE
  8
1
 62
7
  6
CONTINUOUS
 10
359.725257
 20
111.986306
 11
368.974752
 21
121.235801
  0
LINE
  8
1
 62
7
  6
CONTINUOUS
 10
304.304189
 20
121.235801
 11
313.553684
 21
111.986306
  0
LINE
  8
1
 62
7
  6
CONTINUOUS
 10
346.518464
 20
175.450076
 11
326.760477
 21
175.450076
  0
LINE
  8
1
 62
7
  6
CONTINUOUS
 10
368.974752
 20
157.964351
 11
355.003745
 21
171.935357
  0
LINE
  8
1
 62
7
  6
CONTINUOUS
 10
372.489470
 20
129.721083
 11
372.489470
 21
149.479070
  0
LINE
  8
1
 62
7
  6
CONTINUOUS
 10
326.760477
 20
103.750076
 11
346.518464
 21
103.750076
  0
LINE
  8
1
 62
7
  6
CONTINUOUS
 10
300.789470
 20
149.479070
 11
300.789470
 21
129.721083
  0
LINE
  8
1
 62
7
  6
CONTINUOUS
 10
318.275196
 20
171.935357
 11
304.304189
 21
157.964351
  0
LINE
  8
1
 62
7
  6
CONTINUOUS
 10
71.899969
 20
100.350076
 11
71.899969
 21
102.800076
  0
LINE
  8
1
 62
7
  6
CONTINUOUS
 10
256.369070
 20
172.169918
 11
256.369070
 21
163.600076
  0
LINE
  8
1
 62
7
  6
CONTINUOUS
 10
212.869070
 20
178.100076
 11
212.869063
 21
179.350076
  0
LINE
  8
1
 62
7
  6
CONTINUOUS
 10
212.869063
 20
179.350076
 11
216.169070
 21
179.292474
  0
LINE
  8
1
 62
7
  6
CONTINUOUS
 10
217.169070
 20
178.292474
 11
217.169070
 21
176.434496
  0
LINE
  8
1
 62
7
  6
CONTINUOUS
 10
212.869063
 20
179.350076
 11
212.869070
 21
178.100076
  0
LINE
  8
1
 62
7
  6
CONTINUOUS
 10
212.869070
 20
99.850076
 11
216.469070
 21
99.912914
  0
LINE
  8
1
 62
7
  6
CONTINUOUS
 10
254.369070
 20
105.030235
 11
226.869070
 21
104.069913
  0
LINE
  8
1
 62
7
  6
CONTINUOUS
 10
256.369070
 20
115.600076
 11
256.369070
 21
107.030235
  0
LINE
  8
1
 62
7
  6
CONTINUOUS
 10
224.869070
 20
100.256046
 11
224.869070
 21
102.069913
  0
LINE
  8
1
 62
7
  6
CONTINUOUS
 10
212.869070
 20
101.350076
 11
212.869070
 21
99.850076
  0
LINE
  8
1
 62
7
  6
CONTINUOUS
 10
216.469070
 20
99.912914
 11
224.669070
 21
100.056046
  0
LINE
  8
1
 62
7
  6
CONTINUOUS
 10
254.369070
 20
174.169918
 11
218.152190
 21
175.434639
  0
LINE
  8
1
 62
7
  6
CONTINUOUS
 10
212.869070
 20
101.350076
 11
212.869070
 21
178.100076
  0
LINE
  8
1
 62
7
  6
CONTINUOUS
 10
263.943486
 20
139.600076
 11
208.538655
 21
139.600076
  0
LINE
  8
1
 62
7
  6
CONTINUOUS
 10
92.599969
 20
173.788482
 11
92.599969
 21
177.328490
  0
LINE
  8
1
 62
7
  6
CONTINUOUS
 10
92.599969
 20
177.328490
 11
92.599969
 21
173.788482
  0
LINE
  8
1
 62
7
  6
CONTINUOUS
 10
366.166602
 20
110.405382
 11
365.646018
 21
109.884799
  0
LINE
  8
1
 62
7
  6
CONTINUOUS
 10
376.388039
 20
109.988986
 11
376.388039
 21
107.628251
  0
LINE
  8
1
 62
7
  6
CONTINUOUS
 10
366.197082
 20
99.850076
 11
368.611296
 21
99.850076
  0
LINE
  8
1
 62
7
  6
CONTINUOUS
 10
366.904189
 20
101.557183
 11
366.000383
 21
102.460989
  0
LINE
  8
1
 62
7
  6
CONTINUOUS
 10
376.389470
 20
107.628251
 11
376.389470
 21
107.345408
  0
LINE
  8
1
 62
7
  6
CONTINUOUS
 10
374.682364
 20
109.335357
 11
373.778558
 21
110.239163
  0
LINE
  8
1
 62
7
  6
CONTINUOUS
 10
368.894138
 20
99.850076
 11
368.611296
 21
99.850076
  0
LINE
  8
1
 62
7
  6
CONTINUOUS
 10
372.836334
 20
110.993996
 11
371.590452
 21
109.748114
  0
LINE
  8
1
 62
7
  6
CONTINUOUS
 10
374.627086
 20
109.390635
 11
373.287508
 21
108.051058
  0
LINE
  8
1
 62
7
  6
CONTINUOUS
 10
366.491432
 20
104.649094
 11
365.245550
 21
103.403212
  0
LINE
  8
1
 62
7
  6
CONTINUOUS
 10
368.188489
 20
102.952038
 11
366.848911
 21
101.612461
  0
LINE
  8
1
 62
7
  6
CONTINUOUS
 10
376.389470
 20
106.850076
 11
376.389470
 21
107.345408
  0
LINE
  8
1
 62
7
  6
CONTINUOUS
 10
368.894138
 20
99.850076
 11
369.389470
 21
99.850076
  0
LINE
  8
1
 62
7
  6
CONTINUOUS
 10
369.889470
 20
98.357442
 11
369.889470
 21
110.995345
  0
LINE
  8
1
 62
7
  6
CONTINUOUS
 10
365.142843
 20
106.350076
 11
374.654232
 21
106.350076
  0
LINE
  8
1
 62
7
  6
CONTINUOUS
 10
307.444777
 20
110.072944
 11
306.924193
 21
110.593528
  0
LINE
  8
1
 62
7
  6
CONTINUOUS
 10
307.028380
 20
99.851507
 11
304.667645
 21
99.851507
  0
LINE
  8
1
 62
7
  6
CONTINUOUS
 10
296.889470
 20
110.042464
 11
296.889470
 21
107.628251
  0
LINE
  8
1
 62
7
  6
CONTINUOUS
 10
298.596577
 20
109.335357
 11
299.500383
 21
110.239163
  0
LINE
  8
1
 62
7
  6
CONTINUOUS
 10
304.667645
 20
99.850076
 11
304.384802
 21
99.850076
  0
LINE
  8
1
 62
7
  6
CONTINUOUS
 10
306.374752
 20
101.557183
 11
307.278558
 21
102.460989
  0
LINE
  8
1
 62
7
  6
CONTINUOUS
 10
296.889470
 20
107.345408
 11
296.889470
 21
107.628251
  0
LINE
  8
1
 62
7
  6
CONTINUOUS
 10
308.033390
 20
103.403212
 11
306.787508
 21
104.649094
  0
LINE
  8
1
 62
7
  6
CONTINUOUS
 10
306.430030
 20
101.612461
 11
305.090452
 21
102.952038
  0
LINE
  8
1
 62
7
  6
CONTINUOUS
 10
301.688489
 20
109.748114
 11
300.442607
 21
110.993996
  0
LINE
  8
1
 62
7
  6
CONTINUOUS
 10
299.991432
 20
108.051058
 11
298.651855
 21
109.390635
  0
LINE
  8
1
 62
7
  6
CONTINUOUS
 10
303.889470
 20
99.850076
 11
304.384802
 21
99.850076
  0
LINE
  8
1
 62
7
  6
CONTINUOUS
 10
296.889470
 20
107.345408
 11
296.889470
 21
106.850076
  0
LINE
  8
1
 62
7
  6
CONTINUOUS
 10
297.509179
 20
106.350076
 11
308.034740
 21
106.350076
  0
LINE
  8
1
 62
7
  6
CONTINUOUS
 10
303.389470
 20
111.096703
 11
303.389470
 21
101.585315
  0
LINE
  8
1
 62
7
  6
CONTINUOUS
 10
307.112339
 20
168.794770
 11
307.632922
 21
169.315354
  0
LINE
  8
1
 62
7
  6
CONTINUOUS
 10
296.890901
 20
169.211166
 11
296.890901
 21
171.571901
  0
LINE
  8
1
 62
7
  6
CONTINUOUS
 10
307.081859
 20
179.350076
 11
304.667645
 21
179.350076
  0
LINE
  8
1
 62
7
  6
CONTINUOUS
 10
306.374752
 20
177.642969
 11
307.278558
 21
176.739163
  0
LINE
  8
1
 62
7
  6
CONTINUOUS
 10
296.889470
 20
171.571901
 11
296.889470
 21
171.854744
  0
LINE
  8
1
 62
7
  6
CONTINUOUS
 10
298.596577
 20
169.864795
 11
299.500383
 21
168.960989
  0
LINE
  8
1
 62
7
  6
CONTINUOUS
 10
304.384802
 20
179.350076
 11
304.667645
 21
179.350076
  0
LINE
  8
1
 62
7
  6
CONTINUOUS
 10
300.442607
 20
168.206156
 11
301.688489
 21
169.452038
  0
LINE
  8
1
 62
7
  6
CONTINUOUS
 10
298.651855
 20
169.809517
 11
299.991432
 21
171.149094
  0
LINE
  8
1
 62
7
  6
CONTINUOUS
 10
306.787508
 20
174.551058
 11
308.033390
 21
175.796940
  0
LINE
  8
1
 62
7
  6
CONTINUOUS
 10
305.090452
 20
176.248114
 11
306.430030
 21
177.587692
  0
LINE
  8
1
 62
7
  6
CONTINUOUS
 10
296.889470
 20
172.350076
 11
296.889470
 21
171.854744
  0
LINE
  8
1
 62
7
  6
CONTINUOUS
 10
304.384802
 20
179.350076
 11
303.889470
 21
179.350076
  0
LINE
  8
1
 62
7
  6
CONTINUOUS
 10
303.389470
 20
178.630657
 11
303.389470
 21
168.204807
  0
LINE
  8
1
 62
7
  6
CONTINUOUS
 10
308.136097
 20
172.850076
 11
298.624709
 21
172.850076
  0
LINE
  8
1
 62
7
  6
CONTINUOUS
 10
365.834164
 20
169.127208
 11
366.354748
 21
168.606624
  0
LINE
  8
1
 62
7
  6
CONTINUOUS
 10
366.250560
 20
179.348645
 11
368.611296
 21
179.348645
  0
LINE
  8
1
 62
7
  6
CONTINUOUS
 10
376.389470
 20
169.157688
 11
376.389470
 21
171.571901
  0
LINE
  8
1
 62
7
  6
CONTINUOUS
 10
374.682364
 20
169.864795
 11
373.778558
 21
168.960989
  0
LINE
  8
1
 62
7
  6
CONTINUOUS
 10
368.611296
 20
179.350076
 11
368.894138
 21
179.350076
  0
LINE
  8
1
 62
7
  6
CONTINUOUS
 10
366.000383
 20
176.739163
 11
373.778558
 21
168.960989
  0
LINE
  8
1
 62
7
  6
CONTINUOUS
 10
366.904189
 20
177.642969
 11
366.000383
 21
176.739163
  0
LINE
  8
1
 62
7
  6
CONTINUOUS
 10
376.389470
 20
171.854744
 11
376.389470
 21
171.571901
  0
LINE
  8
1
 62
7
  6
CONTINUOUS
 10
365.245550
 20
175.796940
 11
366.491432
 21
174.551058
  0
LINE
  8
1
 62
7
  6
CONTINUOUS
 10
366.848911
 20
177.587692
 11
368.188489
 21
176.248114
  0
LINE
  8
1
 62
7
  6
CONTINUOUS
 10
371.590452
 20
169.452038
 11
372.836334
 21
168.206156
  0
LINE
  8
1
 62
7
  6
CONTINUOUS
 10
373.287508
 20
171.149094
 11
374.627086
 21
169.809517
  0
LINE
  8
1
 62
7
  6
CONTINUOUS
 10
369.389470
 20
179.350076
 11
368.894138
 21
179.350076
  0
LINE
  8
1
 62
7
  6
CONTINUOUS
 10
376.389470
 20
171.854744
 11
376.389470
 21
172.350076
  0
LINE
  8
1
 62
7
  6
CONTINUOUS
 10
376.389470
 20
106.850076
 11
376.389470
 21
169.157688
  0
LINE
  8
1
 62
7
  6
CONTINUOUS
 10
357.939470
 20
99.850076
 11
369.389470
 21
99.850076
  0
LINE
  8
1
 62
7
  6
CONTINUOUS
 10
303.889470
 20
99.850076
 11
315.139470
 21
99.850076
  0
LINE
  8
1
 62
7
  6
CONTINUOUS
 10
296.889470
 20
172.350076
 11
296.889470
 21
106.850076
  0
LINE
  8
1
 62
7
  6
CONTINUOUS
 10
366.197082
 20
179.350076
 11
303.889470
 21
179.350076
  0
LINE
  8
1
 62
7
  6
CONTINUOUS
 10
336.639470
 20
139.600076
 11
294.954701
 21
139.600076
  0
LINE
  8
1
 62
7
  6
CONTINUOUS
 10
336.639470
 20
174.600076
 11
336.639470
 21
178.224120
  0
LINE
  8
1
 62
7
  6
CONTINUOUS
 10
336.639470
 20
174.600076
 11
336.639470
 21
139.600076
  0
LINE
  8
1
 62
7
  6
CONTINUOUS
 10
336.639470
 20
174.600076
 11
336.639470
 21
139.600076
  0
LINE
  8
1
 62
7
  6
CONTINUOUS
 10
314.139470
 20
104.100076
 11
314.139470
 21
110.572093
  0
LINE
  8
1
 62
7
  6
CONTINUOUS
 10
359.139470
 20
110.572093
 11
359.139470
 21
104.100076
  0
LINE
  8
1
 62
7
  6
CONTINUOUS
 10
359.139470
 20
105.100076
 11
359.139470
 21
104.100076
  0
LINE
  8
1
 62
7
  6
CONTINUOUS
 10
336.639470
 20
101.605728
 11
336.639470
 21
174.600076
  0
LINE
  8
1
 62
7
  6
CONTINUOUS
 10
314.139470
 20
100.850076
 11
314.139470
 21
105.100076
  0
LINE
  8
1
 62
7
  6
CONTINUOUS
 10
354.739496
 20
99.850076
 11
315.139470
 21
99.850076
  0
LINE
  8
1
 62
7
  6
CONTINUOUS
 10
354.739496
 20
99.850076
 11
315.139470
 21
99.850076
  0
LINE
  8
1
 62
7
  6
CONTINUOUS
 10
359.139470
 20
104.100076
 11
359.139470
 21
100.850076
  0
LINE
  8
1
 62
7
  6
CONTINUOUS
 10
357.939470
 20
99.850076
 11
354.739496
 21
99.850076
  0
LINE
  8
1
 62
7
  6
CONTINUOUS
 10
357.939470
 20
99.850076
 11
354.739496
 21
99.850076
  0
LINE
  8
1
 62
7
  6
CONTINUOUS
 10
315.739445
 20
99.850076
 11
315.139470
 21
99.850076
  0
LINE
  8
1
 62
7
  6
CONTINUOUS
 10
315.739445
 20
99.850076
 11
315.139470
 21
99.850076
  0
LINE
  8
1
 62
7
  6
CONTINUOUS
 10
374.654232
 20
172.850076
 11
365.244201
 21
172.850076
  0
LINE
  8
1
 62
7
  6
CONTINUOUS
 10
369.889470
 20
168.103449
 11
369.889470
 21
177.614838
  0
LINE
  8
1
 62
7
  6
CONTINUOUS
 10
336.639470
 20
139.600076
 11
336.639470
 21
97.202635
  0
LINE
  8
1
 62
7
  6
CONTINUOUS
 10
377.750454
 20
139.600076
 11
336.639470
 21
139.600076
  0
LINE
  8
1
 62
7
  6
CONTINUOUS
 10
336.639470
 20
178.754115
 11
336.639470
 21
178.224120
  0
LINE
  8
1
 62
7
  6
CONTINUOUS
 10
336.639470
 20
178.754115
 11
336.639470
 21
174.600076
  0
LINE
  8
1
 62
7
  6
CONTINUOUS
 10
336.639470
 20
178.224120
 11
336.639470
 21
174.600076
  0
LINE
  8
1
 62
7
  6
CONTINUOUS
 10
54.661080
 20
106.350076
 11
63.995238
 21
106.350076
  0
LINE
  8
1
 62
7
  6
CONTINUOUS
 10
59.349969
 20
111.096703
 11
59.349969
 21
101.585315
  0
LINE
  8
1
 62
7
  6
CONTINUOUS
 10
121.204700
 20
106.350076
 11
130.538857
 21
106.350076
  0
LINE
  8
1
 62
7
  6
CONTINUOUS
 10
125.849969
 20
101.585315
 11
125.849969
 21
111.096703
  0
LINE
  8
1
 62
7
  6
CONTINUOUS
 10
130.538857
 20
172.850076
 11
121.204700
 21
172.850076
  0
LINE
  8
1
 62
7
  6
CONTINUOUS
 10
125.849969
 20
168.103449
 11
125.849969
 21
177.614838
  0
LINE
  8
1
 62
7
  6
CONTINUOUS
 10
52.849969
 20
172.350076
 11
52.849969
 21
106.850076
  0
LINE
  8
1
 62
7
  6
CONTINUOUS
 10
59.849969
 20
99.850076
 11
65.099969
 21
99.850076
  0
LINE
  8
1
 62
7
  6
CONTINUOUS
 10
120.099969
 20
99.850076
 11
125.349969
 21
99.850076
  0
LINE
  8
1
 62
7
  6
CONTINUOUS
 10
132.349969
 20
106.850076
 11
132.349969
 21
172.350076
  0
LINE
  8
1
 62
7
  6
CONTINUOUS
 10
125.349969
 20
179.350076
 11
59.849969
 21
179.350076
  0
LINE
  8
1
 62
7
  6
CONTINUOUS
 10
133.944284
 20
139.600076
 11
92.599969
 21
139.600076
  0
LINE
  8
1
 62
7
  6
CONTINUOUS
 10
92.599969
 20
178.224120
 11
92.599969
 21
174.600076
  0
LINE
  8
1
 62
7
  6
CONTINUOUS
 10
92.599969
 20
139.600076
 11
92.599969
 21
174.600076
  0
LINE
  8
1
 62
7
  6
CONTINUOUS
 10
92.599969
 20
139.600076
 11
92.599969
 21
174.600076
  0
LINE
  8
1
 62
7
  6
CONTINUOUS
 10
92.599969
 20
174.600076
 11
92.599969
 21
101.605728
  0
LINE
  8
1
 62
7
  6
CONTINUOUS
 10
115.321643
 20
99.850076
 11
113.799969
 21
99.850076
  0
LINE
  8
1
 62
7
  6
CONTINUOUS
 10
115.321643
 20
99.850076
 11
74.499944
 21
99.850076
  0
LINE
  8
1
 62
7
  6
CONTINUOUS
 10
71.399969
 20
99.850076
 11
69.930040
 21
99.850076
  0
LINE
  8
1
 62
7
  6
CONTINUOUS
 10
74.499944
 20
99.850076
 11
69.930040
 21
99.850076
  0
LINE
  8
1
 62
7
  6
CONTINUOUS
 10
115.321643
 20
99.850076
 11
114.721669
 21
99.850076
  0
LINE
  8
1
 62
7
  6
CONTINUOUS
 10
115.321643
 20
99.850076
 11
114.721669
 21
99.850076
  0
LINE
  8
1
 62
7
  6
CONTINUOUS
 10
63.995238
 20
172.850076
 11
54.661080
 21
172.850076
  0
LINE
  8
1
 62
7
  6
CONTINUOUS
 10
59.349969
 20
177.614838
 11
59.349969
 21
168.103449
  0
LINE
  8
1
 62
7
  6
CONTINUOUS
 10
92.599969
 20
98.982347
 11
92.599969
 21
139.600076
  0
LINE
  8
1
 62
7
  6
CONTINUOUS
 10
92.599969
 20
139.600076
 11
56.205515
 21
139.600076
  0
LINE
  8
1
 62
7
  6
CONTINUOUS
 10
92.599969
 20
178.224120
 11
92.599969
 21
180.433895
  0
LINE
  8
1
 62
7
  6
CONTINUOUS
 10
92.599969
 20
174.600076
 11
92.599969
 21
180.433895
  0
LINE
  8
1
 62
7
  6
CONTINUOUS
 10
92.599969
 20
174.600076
 11
92.599969
 21
178.224120
  0
LINE
  8
1
 62
7
  6
CONTINUOUS
 10
113.299969
 20
102.011701
 11
113.299969
 21
112.428947
  0
LINE
  8
1
 62
7
  6
CONTINUOUS
 10
71.899969
 20
102.800076
 11
71.899969
 21
112.428947
  0
LINE
  8
1
 62
7
  6
CONTINUOUS
 10
64.827194
 20
178.100076
 11
120.372743
 21
178.100076
  0
LINE
  8
1
 62
7
  6
CONTINUOUS
 10
131.099969
 20
167.372851
 11
131.099969
 21
111.827302
  0
LINE
  8
1
 62
7
  6
CONTINUOUS
 10
119.099969
 20
101.100076
 11
119.099969
 21
99.850076
  0
LINE
  8
1
 62
7
  6
CONTINUOUS
 10
54.099969
 20
167.372851
 11
54.099969
 21
111.827302
  0
LINE
  8
1
 62
7
  6
CONTINUOUS
 10
66.099969
 20
101.100076
 11
66.099969
 21
99.850076
  0
LINE
  8
1
 62
7
  6
CONTINUOUS
 10
106.699969
 20
100.800076
 11
106.699969
 21
99.850076
  0
LINE
  8
1
 62
7
  6
CONTINUOUS
 10
77.699969
 20
100.800076
 11
77.699969
 21
99.850076
  0
LINE
  8
1
 62
7
  6
CONTINUOUS
 10
77.699969
 20
100.800076
 11
73.899969
 21
100.800076
  0
LINE
  8
1
 62
7
  6
CONTINUOUS
 10
336.639470
 20
133.800076
 11
336.639470
 21
182.852864
  0
LINE
  8
1
 62
7
  6
CONTINUOUS
 10
113.299969
 20
100.350076
 11
113.299969
 21
100.515443
  0
LINE
  8
1
 62
7
  6
CONTINUOUS
 10
113.299969
 20
102.011701
 11
113.299969
 21
100.515443
  0
LINE
  8
1
 62
7
  6
CONTINUOUS
 10
115.321643
 20
99.850076
 11
119.099969
 21
99.850076
  0
LINE
  8
1
 62
7
  6
CONTINUOUS
 10
119.099969
 20
99.850076
 11
120.099969
 21
99.850076
  0
LINE
  8
1
 62
7
  6
CONTINUOUS
 10
113.299969
 20
99.850076
 11
74.499944
 21
99.850076
  0
LINE
  8
1
 62
7
  6
CONTINUOUS
 10
66.099969
 20
99.850076
 11
69.930040
 21
99.850076
  0
LINE
  8
1
 62
7
  6
CONTINUOUS
 10
65.099969
 20
99.850076
 11
66.099969
 21
99.850076
  0
LINE
  8
1
 62
7
  6
CONTINUOUS
 10
74.499944
 20
99.850076
 11
71.899969
 21
99.850076
  0
LINE
  8
1
 62
7
  6
CONTINUOUS
 10
366.000383
 20
168.960989
 11
373.778558
 21
176.739163
  0
LINE
  8
1
 62
7
  6
CONTINUOUS
 10
111.299969
 20
100.800076
 11
106.699969
 21
100.800076
  0
LINE
  8
1
 62
7
  6
CONTINUOUS
 10
256.369070
 20
115.600076
 11
256.369070
 21
163.600076
  0
LINE
  8
1
 62
7
  6
CONTINUOUS
 10
264.170643
 20
139.600076
 11
215.765811
 21
139.600076
  0
LINE
  8
1
 62
7
  6
CONTINUOUS
 10
82.691914
 20
173.562436
 11
102.532744
 21
173.562436
  0
LINE
  8
1
 62
7
  6
CONTINUOUS
 10
109.603811
 20
170.633504
 11
123.633397
 21
156.603919
  0
LINE
  8
1
 62
7
  6
CONTINUOUS
 10
126.562329
 20
149.532851
 11
126.562329
 21
129.692021
  0
LINE
  8
1
 62
7
  6
CONTINUOUS
 10
123.633397
 20
122.620953
 11
109.603811
 21
108.591368
  0
LINE
  8
1
 62
7
  6
CONTINUOUS
 10
102.532744
 20
105.662436
 11
82.691914
 21
105.662436
  0
LINE
  8
1
 62
7
  6
CONTINUOUS
 10
75.620846
 20
108.591368
 11
61.591261
 21
122.620953
  0
LINE
  8
1
 62
7
  6
CONTINUOUS
 10
58.662329
 20
129.692021
 11
58.662329
 21
149.532851
  0
LINE
  8
1
 62
7
  6
CONTINUOUS
 10
61.591261
 20
156.603919
 11
75.620846
 21
170.633504
  0
LINE
  8
1
 62
7
  6
CONTINUOUS
 10
355.003745
 20
107.264795
 11
359.725257
 21
111.986306
  0
LINE
  8
1
 62
7
  6
CONTINUOUS
 10
313.553684
 20
111.986306
 11
318.275196
 21
107.264795
  0
LINE
  8
1
 62
7
  6
CONTINUOUS
 10
120.372743
 20
101.100076
 11
119.099969
 21
101.100076
  0
LINE
  8
1
 62
7
  6
CONTINUOUS
 10
66.099969
 20
101.100076
 11
64.827194
 21
101.100076
  0
LINE
  8
1
 62
7
  6
CONTINUOUS
 10
214.069070
 20
99.871022
 11
214.069070
 21
109.044207
  0
LINE
  8
1
 62
7
  6
CONTINUOUS
 10
217.169070
 20
109.044207
 11
214.069070
 21
109.044207
  0
LINE
  8
1
 62
7
  6
CONTINUOUS
 10
217.169070
 20
170.155538
 11
214.069070
 21
170.155538
  0
LINE
  8
1
 62
7
  6
CONTINUOUS
 10
214.069070
 20
170.155538
 11
214.069070
 21
179.329130
  0
LINE
  8
1
 62
7
  6
CONTINUOUS
 10
217.169070
 20
122.350076
 11
256.369070
 21
122.350076
  0
LINE
  8
1
 62
7
  6
CONTINUOUS
 10
256.369070
 20
156.850076
 11
217.169070
 21
156.850076
  0
LINE
  8
1
 62
7
  6
CONTINUOUS
 10
224.869070
 20
111.795686
 11
224.869070
 21
102.069913
  0
LINE
  8
1
 62
7
  6
CONTINUOUS
 10
217.169070
 20
111.795686
 11
224.869070
 21
111.795686
  0
LINE
  8
1
 62
7
  6
CONTINUOUS
 10
217.169070
 20
99.912914
 11
217.169070
 21
176.434496
  0
LINE
  8
1
 62
7
  6
HIDDEN
 10
82.713133
 20
159.186288
 11
82.713133
 21
155.186288
  0
LINE
  8
1
 62
7
  6
HIDDEN
 10
82.713133
 20
155.186288
 11
102.713133
 21
155.186288
  0
LINE
  8
1
 62
7
  6
HIDDEN
 10
102.713133
 20
155.186288
 11
102.713133
 21
159.186288
  0
LINE
  8
1
 62
7
  6
HIDDEN
 10
102.713133
 20
159.186288
 11
82.713133
 21
159.186288
  0
LINE
  8
1
 62
7
  6
DIVIDE
 10
105.618779
 20
127.600076
 11
79.618779
 21
127.600076
  0
LINE
  8
1
 62
7
  6
DIVIDE
 10
105.618779
 20
122.600076
 11
105.618779
 21
127.600076
  0
LINE
  8
1
 62
7
  6
DIVIDE
 10
79.618779
 20
122.600076
 11
105.618779
 21
122.600076
  0
LINE
  8
1
 62
7
  6
DIVIDE
 10
79.618779
 20
127.600076
 11
79.618779
 21
122.600076
  0
LINE
  8
1
 62
7
  6
CONTINUOUS
 10
50.000000
 20
69.000000
 11
117.604290
 21
69.000000
  0
LINE
  8
1
 62
7
  6
CONTINUOUS
 10
50.000000
 20
62.000000
 11
117.604290
 21
62.000000
  0
LINE
  8
1
 62
7
  6
CONTINUOUS
 10
50.000000
 20
55.000000
 11
117.604290
 21
55.000000
  0
CIRCLE
  8
1
 62
7
  6
CONTINUOUS
 10
86.427653
 20
222.806052
 40
2.200000
  0
CIRCLE
  8
1
 62
7
  6
CONTINUOUS
 10
86.427653
 20
222.806052
 40
4.600000
  0
ARC
  8
1
 62
7
  6
CONTINUOUS
 10
369.889470
 20
106.350076
 40
5.500000
 50
45.000000
 51
-135.000000
  0
ARC
  8
1
 62
7
  6
CONTINUOUS
 10
303.389470
 20
106.350076
 40
5.500000
 50
-45.000000
 51
135.000000
  0
ARC
  8
1
 62
7
  6
CONTINUOUS
 10
303.389470
 20
172.850076
 40
5.500000
 50
-135.000000
 51
45.000000
  0
ARC
  8
1
 62
7
  6
CONTINUOUS
 10
369.889470
 20
172.850076
 40
5.500000
 50
135.000000
 51
-45.000000
  0
ARC
  8
1
 62
7
  6
CONTINUOUS
 10
125.849969
 20
172.850076
 40
6.750000
 50
139.067275
 51
-49.067275
  0
ARC
  8
1
 62
7
  6
CONTINUOUS
 10
59.349969
 20
172.850076
 40
6.750000
 50
-130.932725
 51
40.932725
  0
ARC
  8
1
 62
7
  6
CONTINUOUS
 10
59.349969
 20
172.850076
 40
6.750000
 50
-130.932725
 51
40.932725
  0
ARC
  8
1
 62
7
  6
CONTINUOUS
 10
59.349969
 20
172.850076
 40
6.750000
 50
-130.932725
 51
40.932725
  0
ARC
  8
1
 62
7
  6
CONTINUOUS
 10
125.849969
 20
106.350076
 40
6.750000
 50
49.067275
 51
-139.067275
  0
ARC
  8
1
 62
7
  6
CONTINUOUS
 10
125.849969
 20
106.350076
 40
6.750000
 50
49.067275
 51
-139.067275
  0
ARC
  8
1
 62
7
  6
CONTINUOUS
 10
59.349969
 20
106.350076
 40
6.750000
 50
-40.932725
 51
130.932725
  0
ARC
  8
1
 62
7
  6
CONTINUOUS
 10
59.349969
 20
106.350076
 40
6.750000
 50
-40.932725
 51
130.932725
  0
ARC
  8
1
 62
7
  6
CONTINUOUS
 10
59.349969
 20
106.350076
 40
6.750000
 50
-40.932725
 51
130.932725
  0
ARC
  8
1
 62
7
  6
CONTINUOUS
 10
59.349969
 20
106.350076
 40
6.750000
 50
-40.932725
 51
130.932725
  0
ARC
  8
1
 62
7
  6
CONTINUOUS
 10
59.349969
 20
106.350076
 40
6.750000
 50
-40.932725
 51
130.932725
  0
ARC
  8
1
 62
7
  6
CONTINUOUS
 10
59.349969
 20
106.350076
 40
6.750000
 50
-40.932725
 51
130.932725
  0
ARC
  8
1
 62
7
  6
CONTINUOUS
 10
59.349969
 20
106.350076
 40
6.750000
 50
-40.932725
 51
130.932725
  0
ARC
  8
1
 62
7
  6
CONTINUOUS
 10
92.599969
 20
139.600076
 40
47.000000
 50
38.128164
 51
52.535834
  0
ARC
  8
1
 62
7
  6
CONTINUOUS
 10
92.599969
 20
139.600076
 40
47.000000
 50
-142.465680
 51
-127.571025
  0
CIRCLE
  8
1
 62
7
  6
CONTINUOUS
 10
369.889470
 20
106.350076
 40
3.800000
  0
CIRCLE
  8
1
 62
7
  6
CONTINUOUS
 10
303.389470
 20
106.350076
 40
3.800000
  0
CIRCLE
  8
1
 62
7
  6
CONTINUOUS
 10
303.389470
 20
172.850076
 40
3.800000
  0
CIRCLE
  8
1
 62
7
  6
CONTINUOUS
 10
369.889470
 20
172.850076
 40
3.800000
  0
CIRCLE
  8
1
 62
7
  6
CONTINUOUS
 10
59.349969
 20
172.850076
 40
4.200000
  0
CIRCLE
  8
1
 62
7
  6
CONTINUOUS
 10
59.349969
 20
106.350076
 40
4.200000
  0
CIRCLE
  8
1
 62
7
  6
CONTINUOUS
 10
125.849969
 20
172.850076
 40
4.200000
  0
CIRCLE
  8
1
 62
7
  6
CONTINUOUS
 10
125.849969
 20
106.350076
 40
4.200000
  0
CIRCLE
  8
1
 62
7
  6
CONTINUOUS
 10
92.599969
 20
139.600076
 40
4.000000
  0
CIRCLE
  8
1
 62
7
  6
CONTINUOUS
 10
336.639470
 20
139.600076
 40
2.500000
  0
CIRCLE
  8
1
 62
7
  6
CONTINUOUS
 10
92.599969
 20
139.600076
 40
47.000000
  0
ARC
  8
1
 62
7
  6
CONTINUOUS
 10
204.547568
 20
138.447698
 40
10.005383
 50
124.860137
 51
135.587845
  0
ARC
  8
1
 62
7
  6
CONTINUOUS
 10
201.307845
 20
141.732222
 40
5.393190
 50
136.427243
 51
151.835040
  0
ARC
  8
1
 62
7
  6
CONTINUOUS
 10
199.801848
 20
142.625870
 40
3.644515
 50
153.045405
 51
171.978905
  0
ARC
  8
1
 62
7
  6
CONTINUOUS
 10
199.856008
 20
142.678836
 40
3.691243
 50
172.910356
 51
-169.580883
  0
ARC
  8
1
 62
7
  6
CONTINUOUS
 10
201.599747
 20
143.010211
 40
5.466168
 50
-169.470192
 51
-157.296865
  0
ARC
  8
1
 62
7
  6
CONTINUOUS
 10
206.261560
 20
144.921084
 40
10.504347
 50
-157.495649
 51
-150.785513
  0
ARC
  8
1
 62
7
  6
CONTINUOUS
 10
225.051718
 20
155.347092
 40
31.993182
 50
-150.913204
 51
-148.612200
  0
ARC
  8
1
 62
7
  6
CONTINUOUS
 10
155.131562
 20
112.713839
 40
49.899571
 50
29.866199
 51
31.362551
  0
ARC
  8
1
 62
7
  6
CONTINUOUS
 10
186.558735
 20
130.755676
 40
13.661813
 50
24.502200
 51
29.884118
  0
ARC
  8
1
 62
7
  6
CONTINUOUS
 10
192.446905
 20
133.441159
 40
7.190155
 50
14.596174
 51
24.489030
  0
ARC
  8
1
 62
7
  6
CONTINUOUS
 10
194.847269
 20
134.076930
 40
4.707054
 50
-0.337985
 51
14.470197
  0
ARC
  8
1
 62
7
  6
CONTINUOUS
 10
195.529707
 20
134.086447
 40
4.024707
 50
-18.613905
 51
-0.530769
  0
ARC
  8
1
 62
7
  6
CONTINUOUS
 10
194.725846
 20
134.343767
 40
4.868670
 50
-35.694691
 51
-18.464168
  0
ARC
  8
1
 62
7
  6
CONTINUOUS
 10
192.297379
 20
135.978118
 40
7.795023
 50
-48.444705
 51
-35.036016
  0
ARC
  8
1
 62
7
  6
CONTINUOUS
 10
326.760477
 20
163.450076
 40
12.000000
 50
90.000000
 51
135.000000
  0
ARC
  8
1
 62
7
  6
CONTINUOUS
 10
312.789470
 20
149.479070
 40
12.000000
 50
135.000000
 51
180.000000
  0
ARC
  8
1
 62
7
  6
CONTINUOUS
 10
312.789470
 20
129.721083
 40
12.000000
 50
180.000000
 51
-135.000000
  0
ARC
  8
1
 62
7
  6
CONTINUOUS
 10
326.760477
 20
115.750076
 40
12.000000
 50
-135.000000
 51
-90.000000
  0
ARC
  8
1
 62
7
  6
CONTINUOUS
 10
346.518464
 20
115.750076
 40
12.000000
 50
-90.000000
 51
-45.000000
  0
ARC
  8
1
 62
7
  6
CONTINUOUS
 10
360.489470
 20
129.721083
 40
12.000000
 50
-45.000000
 51
-0.000000
  0
ARC
  8
1
 62
7
  6
CONTINUOUS
 10
360.489470
 20
149.479070
 40
12.000000
 50
0.000000
 51
45.000000
  0
ARC
  8
1
 62
7
  6
CONTINUOUS
 10
346.518464
 20
163.450076
 40
12.000000
 50
45.000000
 51
90.000000
  0
ARC
  8
1
 62
7
  6
CONTINUOUS
 10
111.299969
 20
102.800076
 40
2.000000
 50
-90.000000
 51
-0.000000
  0
ARC
  8
1
 62
7
  6
CONTINUOUS
 10
73.899969
 20
102.800076
 40
2.000000
 50
180.000000
 51
-90.000000
  0
ARC
  8
1
 62
7
  6
CONTINUOUS
 10
224.669070
 20
100.256046
 40
0.200000
 50
-90.000000
 51
0.000000
  0
ARC
  8
1
 62
7
  6
CONTINUOUS
 10
218.169070
 20
176.434496
 40
1.000000
 50
180.000000
 51
-90.967219
  0
ARC
  8
1
 62
7
  6
CONTINUOUS
 10
216.169070
 20
178.292474
 40
1.000000
 50
0.000000
 51
90.000000
  0
ARC
  8
1
 62
7
  6
CONTINUOUS
 10
226.869070
 20
102.069913
 40
2.000000
 50
90.000000
 51
180.000000
  0
ARC
  8
1
 62
7
  6
CONTINUOUS
 10
254.369070
 20
107.030235
 40
2.000000
 50
-90.000000
 51
-0.000000
  0
ARC
  8
1
 62
7
  6
CONTINUOUS
 10
254.369070
 20
172.169918
 40
2.000000
 50
0.000000
 51
90.000000
  0
ARC
  8
1
 62
7
  6
CONTINUOUS
 10
375.389470
 20
110.042464
 40
1.000000
 50
-135.000000
 51
-3.065531
  0
ARC
  8
1
 62
7
  6
CONTINUOUS
 10
366.197082
 20
100.850076
 40
1.000000
 50
-90.000000
 51
45.000000
  0
ARC
  8
1
 62
7
  6
CONTINUOUS
 10
375.389470
 20
110.042464
 40
1.000000
 50
-3.065531
 51
0.000000
  0
ARC
  8
1
 62
7
  6
CONTINUOUS
 10
369.389470
 20
106.850076
 40
7.000000
 50
-90.000000
 51
-0.000000
  0
ARC
  8
1
 62
7
  6
CONTINUOUS
 10
307.081859
 20
100.850076
 40
1.000000
 50
135.000000
 51
-93.065531
  0
ARC
  8
1
 62
7
  6
CONTINUOUS
 10
297.889470
 20
110.042464
 40
1.000000
 50
180.000000
 51
-45.000000
  0
ARC
  8
1
 62
7
  6
CONTINUOUS
 10
307.081859
 20
100.850076
 40
1.000000
 50
-93.065531
 51
-90.000000
  0
ARC
  8
1
 62
7
  6
CONTINUOUS
 10
303.889470
 20
106.850076
 40
7.000000
 50
180.000000
 51
-90.000000
  0
ARC
  8
1
 62
7
  6
CONTINUOUS
 10
297.889470
 20
169.157688
 40
1.000000
 50
45.000000
 51
176.934469
  0
ARC
  8
1
 62
7
  6
CONTINUOUS
 10
307.081859
 20
178.350076
 40
1.000000
 50
90.000000
 51
-135.000000
  0
ARC
  8
1
 62
7
  6
CONTINUOUS
 10
297.889470
 20
169.157688
 40
1.000000
 50
176.934469
 51
180.000000
  0
ARC
  8
1
 62
7
  6
CONTINUOUS
 10
303.889470
 20
172.350076
 40
7.000000
 50
90.000000
 51
180.000000
  0
ARC
  8
1
 62
7
  6
CONTINUOUS
 10
366.197082
 20
178.350076
 40
1.000000
 50
-45.000000
 51
86.934469
  0
ARC
  8
1
 62
7
  6
CONTINUOUS
 10
375.389470
 20
169.157688
 40
1.000000
 50
0.000000
 51
135.000000
  0
ARC
  8
1
 62
7
  6
CONTINUOUS
 10
366.197082
 20
178.350076
 40
1.000000
 50
86.934469
 51
90.000000
  0
ARC
  8
1
 62
7
  6
CONTINUOUS
 10
369.389470
 20
172.350076
 40
7.000000
 50
0.000000
 51
90.000000
  0
ARC
  8
1
 62
7
  6
CONTINUOUS
 10
358.039470
 20
100.950076
 40
1.104536
 50
-95.194429
 51
-5.194429
  0
ARC
  8
1
 62
7
  6
CONTINUOUS
 10
315.139470
 20
100.850076
 40
1.000000
 50
180.000000
 51
-90.000000
  0
ARC
  8
1
 62
7
  6
CONTINUOUS
 10
59.849969
 20
106.850076
 40
7.000000
 50
180.000000
 51
-90.000000
  0
ARC
  8
1
 62
7
  6
CONTINUOUS
 10
125.349969
 20
106.850076
 40
7.000000
 50
-90.000000
 51
-0.000000
  0
ARC
  8
1
 62
7
  6
CONTINUOUS
 10
125.349969
 20
172.350076
 40
7.000000
 50
0.000000
 51
90.000000
  0
ARC
  8
1
 62
7
  6
CONTINUOUS
 10
59.849969
 20
172.350076
 40
7.000000
 50
90.000000
 51
180.000000
  0
ARC
  8
1
 62
7
  6
CONTINUOUS
 10
113.799969
 20
100.350076
 40
0.500000
 50
180.000000
 51
-90.000000
  0
ARC
  8
1
 62
7
  6
CONTINUOUS
 10
71.399969
 20
100.350076
 40
0.500000
 50
-90.000000
 51
0.000000
  0
ARC
  8
1
 62
7
  6
CONTINUOUS
 10
102.532744
 20
163.562436
 40
10.000000
 50
45.000000
 51
90.000000
  0
ARC
  8
1
 62
7
  6
CONTINUOUS
 10
116.562329
 20
149.532851
 40
10.000000
 50
0.000000
 51
45.000000
  0
ARC
  8
1
 62
7
  6
CONTINUOUS
 10
116.562329
 20
129.692021
 40
10.000000
 50
-45.000000
 51
-0.000000
  0
ARC
  8
1
 62
7
  6
CONTINUOUS
 10
102.532744
 20
115.662436
 40
10.000000
 50
-90.000000
 51
-45.000000
  0
ARC
  8
1
 62
7
  6
CONTINUOUS
 10
82.691914
 20
115.662436
 40
10.000000
 50
-135.000000
 51
-90.000000
  0
ARC
  8
1
 62
7
  6
CONTINUOUS
 10
68.662329
 20
129.692021
 40
10.000000
 50
180.000000
 51
-135.000000
  0
ARC
  8
1
 62
7
  6
CONTINUOUS
 10
68.662329
 20
149.532851
 40
10.000000
 50
135.000000
 51
180.000000
  0
ARC
  8
1
 62
7
  6
CONTINUOUS
 10
82.691914
 20
163.562436
 40
10.000000
 50
90.000000
 51
135.000000
  0
ARC
  8
1
 62
7
  6
CONTINUOUS
 10
361.139470
 20
110.572093
 40
2.000000
 50
135.000000
 51
180.000000
  0
ARC
  8
1
 62
7
  6
CONTINUOUS
 10
312.139470
 20
110.572093
 40
2.000000
 50
0.000000
 51
45.000000
  0
ARC
  8
1
 62
7
  6
CONTINUOUS
 10
130.599969
 20
167.372851
 40
0.500000
 50
0.000000
 51
130.932725
  0
ARC
  8
1
 62
7
  6
CONTINUOUS
 10
120.372743
 20
177.600076
 40
0.500000
 50
-40.932725
 51
90.000000
  0
ARC
  8
1
 62
7
  6
CONTINUOUS
 10
64.827194
 20
177.600076
 40
0.500000
 50
90.000000
 51
-139.067275
  0
ARC
  8
1
 62
7
  6
CONTINUOUS
 10
54.599969
 20
167.372851
 40
0.500000
 50
49.067275
 51
180.000000
  0
ARC
  8
1
 62
7
  6
CONTINUOUS
 10
130.599969
 20
111.827302
 40
0.500000
 50
-130.932725
 51
0.000000
  0
ARC
  8
1
 62
7
  6
CONTINUOUS
 10
120.372743
 20
101.600076
 40
0.500000
 50
-90.000000
 51
40.932725
  0
ARC
  8
1
 62
7
  6
CONTINUOUS
 10
54.599969
 20
111.827302
 40
0.500000
 50
180.000000
 51
-49.067275
  0
ARC
  8
1
 62
7
  6
CONTINUOUS
 10
64.827194
 20
101.600076
 40
0.500000
 50
139.067275
 51
-90.000000
  0
ARC
  8
1
 62
7
  6
CONTINUOUS
 10
120.372743
 20
101.600076
 40
0.500000
 50
-90.000000
 51
40.932725
  0
LINE
  8
1
 62
7
  6
CONTINUOUS
 10
46.938603
 20
218.952739
 11
56.938603
 21
218.952739
  0
LINE
  8
1
 62
7
  6
CONTINUOUS
 10
56.938603
 20
218.952739
 11
56.938603
 21
228.952739
  0
LINE
  8
1
 62
7
  6
CONTINUOUS
 10
56.938603
 20
228.952739
 11
46.938603
 21
228.952739
  0
LINE
  8
1
 62
7
  6
CONTINUOUS
 10
46.938603
 20
228.952739
 11
46.938603
 21
218.952739
  0
LINE
  8
1
 62
7
  6
CONTINUOUS
 10
178.912500
 20
155.620463
 11
139.269077
 21
155.620463
  0
LINE
  8
1
 62
7
  6
CONTINUOUS
 10
139.269077
 20
155.620463
 11
102.867688
 21
127.600076
  0
LINE
  8
1
 62
7
  6
CONTINUOUS
 10
105.146459
 20
129.885833
 11
105.660409
 21
129.218159
  0
LINE
  8
1
 62
7
  6
CONTINUOUS
 10
105.660409
 20
129.218159
 11
102.867688
 21
127.600076
  0
LINE
  8
1
 62
7
  6
CONTINUOUS
 10
102.867688
 20
127.600076
 11
105.146459
 21
129.885833
  0
LINE
  8
1
 62
7
  6
CONTINUOUS
 10
175.868524
 20
203.376672
 11
136.607524
 21
203.376672
  0
LINE
  8
1
 62
7
  6
CONTINUOUS
 10
136.607524
 20
203.376672
 11
93.890614
 21
157.267062
  0
CIRCLE
  8
1
 62
7
  6
CONTINUOUS
 10
93.890614
 20
157.267062
 40
0.800000
  0
LINE
  8
1
 62
7
  6
CONTINUOUS
 10
329.374885
 20
208.797830
 11
247.141195
 21
208.797830
  0
LINE
  8
1
 62
7
  6
CONTINUOUS
 10
247.141195
 20
208.797830
 11
234.528922
 21
194.861206
  0
LINE
  8
1
 62
7
  6
CONTINUOUS
 10
236.363753
 20
197.516555
 11
236.988488
 21
196.951187
  0
LINE
  8
1
 62
7
  6
CONTINUOUS
 10
236.988488
 20
196.951187
 11
234.528922
 21
194.861206
  0
LINE
  8
1
 62
7
  6
CONTINUOUS
 10
234.528922
 20
194.861206
 11
236.363753
 21
197.516555
  0
TEXT
  8
1
 62
7
  6
CONTINUOUS
 10
52.159268
 20
70.320630
 40
4.000000
 41
0.900000
  1
適合モ－タ
  7
KANJI
 50
0.000000
 51
0.000000
  0
TEXT
  8
1
 62
7
  6
CONTINUOUS
 10
52.159268
 20
63.320630
 40
4.000000
 41
0.900000
  1
　ＦＹ８Ｓ２５－Ｄ３
  7
KANJI
 50
0.000000
 51
0.000000
  0
TEXT
  8
1
 62
7
  6
CONTINUOUS
 10
52.159268
 20
56.320630
 40
4.000000
 41
0.900000
  1
　ＦＹ８ＰＦ２５Ｎ－Ｄ３
  7
KANJI
 50
0.000000
 51
0.000000
  0
TEXT
  8
1
 62
7
  6
CONTINUOUS
 10
247.634153
 20
203.518138
 40
4.000000
 41
0.450000
  1
ＨＥＩＧＨＴ　ＡＦＴＥＲ　ＲＯＴＯＲ　ＣＯＶＥＲ　ＭＯＵＮＴＥＤ　ＴＯ　ＭＯＴＯＲ
  7
KANJI
 50
0.000000
 51
0.000000
  0
TEXT
  8
1
 62
7
  6
CONTINUOUS
 10
139.772872
 20
150.580235
 40
4.000000
 41
0.450000
  1
ＭＡＴＥＲＩＡＬ　ＩＮＤＩＣＡＴＩＯＮ
  7
KANJI
 50
0.000000
 51
0.000000
  0
TEXT
  8
1
 62
7
  6
CONTINUOUS
 10
136.844418
 20
198.519619
 40
4.000000
 41
0.450000
  1
ＲＥＣＯＧＮＩＴＩＯＮ　ＮＵＭＢＥＲ
  7
KANJI
 50
0.000000
 51
0.000000
  0
TEXT
  8
1
 62
7
  6
CONTINUOUS
 10
83.140061
 20
209.314193
 40
4.000000
 41
0.900000
  1
Ｍ５
  7
KANJI
 50
0.000000
 51
0.000000
  0
TEXT
  8
1
 62
7
  6
CONTINUOUS
 10
68.503310
 20
203.570800
 40
4.000000
 41
0.450000
  1
ＰＬＡＩＮ　ＷＡＳＨＥＲ
  7
KANJI
 50
0.000000
 51
0.000000
  0
TEXT
  8
1
 62
7
  6
CONTINUOUS
 10
68.772715
 20
209.341850
 40
4.000000
 41
0.900000
  1
平座金
  7
KANJI
 50
0.000000
 51
0.000000
  0
TEXT
  8
1
 62
7
  6
CONTINUOUS
 10
49.751103
 20
221.452739
 40
5.000000
 41
0.900000
  1
A
  7
KANJI
 50
0.000000
 51
0.000000
  0
TEXT
  8
1
 62
7
  6
CONTINUOUS
 10
139.772872
 20
157.044669
 40
4.000000
 41
0.720000
  1
坑質表示
  7
KANJI
 50
0.000000
 51
0.000000
  0
TEXT
  8
1
 62
7
  6
CONTINUOUS
 10
136.844418
 20
204.326194
 40
4.000000
 41
0.720000
  1
認識番号：ＡＤ０９９０４
  7
KANJI
 50
0.000000
 51
0.000000
  0
TEXT
  8
1
 62
7
  6
CONTINUOUS
 10
80.097324
 20
122.600076
 40
5.000000
 41
0.967500
  1
＞POM＜
  7
KANJI
 50
0.000000
 51
0.000000
  0
TEXT
  8
1
 62
7
  6
CONTINUOUS
 10
247.537711
 20
209.718428
 40
3.600000
 41
0.900000
  1
モ－タ取り付け時の高め
  7
KANJI
 50
0.000000
 51
0.000000
  0
TEXT
  8
1
 62
7
  6
CONTINUOUS
 10
76.000000
 20
70.497849
 40
4.000000
 41
0.630000
  1
ADAPTING MOTOR
  7
KANJI
 50
0.000000
 51
0.000000
  0
LINE
  8
1
 62
7
  6
CONTINUOUS
 10
389.287577
 20
103.750076
 11
389.287577
 21
175.450076
  0
LINE
  8
1
 62
7
  6
CONTINUOUS
 10
347.518464
 20
103.750076
 11
390.787577
 21
103.750076
  0
LINE
  8
1
 62
7
  6
CONTINUOUS
 10
347.518464
 20
175.450076
 11
390.787577
 21
175.450076
  0
LINE
  8
1
 62
7
  6
CONTINUOUS
 10
389.287577
 20
175.450076
 11
389.703577
 21
172.250076
  0
LINE
  8
1
 62
7
  6
CONTINUOUS
 10
389.703577
 20
172.250076
 11
388.871577
 21
172.250076
  0
LINE
  8
1
 62
7
  6
CONTINUOUS
 10
388.871577
 20
172.250076
 11
389.287577
 21
175.450076
  0
LINE
  8
1
 62
7
  6
CONTINUOUS
 10
389.287577
 20
103.750076
 11
388.871577
 21
106.950076
  0
LINE
  8
1
 62
7
  6
CONTINUOUS
 10
388.871577
 20
106.950076
 11
389.703577
 21
106.950076
  0
LINE
  8
1
 62
7
  6
CONTINUOUS
 10
389.703577
 20
106.950076
 11
389.287577
 21
103.750076
  0
TEXT
  8
1
 62
7
  6
CONTINUOUS
 10
387.287577
 20
124.416815
 40
3.200000
 41
0.900000
  1
76以下　ＭＡＸ
  7
KANJI
 50
90.000000
 51
0.000000
  0
LINE
  8
1
 62
7
  6
CONTINUOUS
 10
300.789471
 20
189.183075
 11
372.489471
 21
189.183075
  0
LINE
  8
1
 62
7
  6
CONTINUOUS
 10
300.789471
 20
150.479069
 11
300.789471
 21
190.683075
  0
LINE
  8
1
 62
7
  6
CONTINUOUS
 10
372.489471
 20
150.479069
 11
372.489471
 21
190.683075
  0
LINE
  8
1
 62
7
  6
CONTINUOUS
 10
300.789471
 20
189.183075
 11
303.989471
 21
189.599075
  0
LINE
  8
1
 62
7
  6
CONTINUOUS
 10
303.989471
 20
189.599075
 11
303.989471
 21
188.767075
  0
LINE
  8
1
 62
7
  6
CONTINUOUS
 10
303.989471
 20
188.767075
 11
300.789471
 21
189.183075
  0
LINE
  8
1
 62
7
  6
CONTINUOUS
 10
372.489471
 20
189.183075
 11
369.289471
 21
188.767075
  0
LINE
  8
1
 62
7
  6
CONTINUOUS
 10
369.289471
 20
188.767075
 11
369.289471
 21
189.599075
  0
LINE
  8
1
 62
7
  6
CONTINUOUS
 10
369.289471
 20
189.599075
 11
372.489471
 21
189.183075
  0
TEXT
  8
1
 62
7
  6
CONTINUOUS
 10
322.187846
 20
191.183075
 40
3.200000
 41
0.900000
  1
76以下　ＭＡＸ
  7
KANJI
 50
0.000000
 51
0.000000
  0
LINE
  8
1
 62
7
  6
CONTINUOUS
 10
206.369070
 20
188.539378
 11
256.369070
 21
188.539378
  0
LINE
  8
1
 62
7
  6
CONTINUOUS
 10
256.369070
 20
173.169917
 11
256.369070
 21
190.039378
  0
LINE
  8
1
 62
7
  6
CONTINUOUS
 10
206.369070
 20
180.600076
 11
206.369070
 21
190.039378
  0
LINE
  8
1
 62
7
  6
CONTINUOUS
 10
206.369070
 20
188.539378
 11
209.569070
 21
188.955378
  0
LINE
  8
1
 62
7
  6
CONTINUOUS
 10
209.569070
 20
188.955378
 11
209.569070
 21
188.123378
  0
LINE
  8
1
 62
7
  6
CONTINUOUS
 10
209.569070
 20
188.123378
 11
206.369070
 21
188.539378
  0
LINE
  8
1
 62
7
  6
CONTINUOUS
 10
256.369070
 20
188.539378
 11
253.169070
 21
188.123378
  0
LINE
  8
1
 62
7
  6
CONTINUOUS
 10
253.169070
 20
188.123378
 11
253.169070
 21
188.955378
  0
LINE
  8
1
 62
7
  6
CONTINUOUS
 10
253.169070
 20
188.955378
 11
256.369070
 21
188.539378
  0
TEXT
  8
1
 62
7
  6
CONTINUOUS
 10
228.335511
 20
190.539378
 40
3.200000
 41
0.900000
  1
50
  7
KANJI
 50
0.000000
 51
0.000000
  0
LINE
  8
1
 62
7
  6
CONTINUOUS
 10
42.483405
 20
99.850076
 11
42.483405
 21
179.350076
  0
LINE
  8
1
 62
7
  6
CONTINUOUS
 10
58.849969
 20
179.350076
 11
40.983405
 21
179.350076
  0
LINE
  8
1
 62
7
  6
CONTINUOUS
 10
58.849969
 20
99.850076
 11
40.983405
 21
99.850076
  0
LINE
  8
1
 62
7
  6
CONTINUOUS
 10
42.483405
 20
179.350076
 11
42.899405
 21
176.150076
  0
LINE
  8
1
 62
7
  6
CONTINUOUS
 10
42.899405
 20
176.150076
 11
42.067405
 21
176.150076
  0
LINE
  8
1
 62
7
  6
CONTINUOUS
 10
42.067405
 20
176.150076
 11
42.483405
 21
179.350076
  0
LINE
  8
1
 62
7
  6
CONTINUOUS
 10
42.483405
 20
99.850076
 11
42.067405
 21
103.050076
  0
LINE
  8
1
 62
7
  6
CONTINUOUS
 10
42.067405
 20
103.050076
 11
42.899405
 21
103.050076
  0
LINE
  8
1
 62
7
  6
CONTINUOUS
 10
42.899405
 20
103.050076
 11
42.483405
 21
99.850076
  0
TEXT
  8
1
 62
7
  6
CONTINUOUS
 10
40.483405
 20
135.118568
 40
3.200000
 41
0.900000
  1
79.5
  7
KANJI
 50
90.000000
 51
0.000000
  0
LINE
  8
1
 62
7
  6
CONTINUOUS
 10
52.849969
 20
186.599064
 11
132.349969
 21
186.599064
  0
LINE
  8
1
 62
7
  6
CONTINUOUS
 10
132.349969
 20
173.350076
 11
132.349969
 21
188.099064
  0
LINE
  8
1
 62
7
  6
CONTINUOUS
 10
52.849969
 20
173.350076
 11
52.849969
 21
188.099064
  0
LINE
  8
1
 62
7
  6
CONTINUOUS
 10
132.349969
 20
186.599064
 11
129.149969
 21
186.183064
  0
LINE
  8
1
 62
7
  6
CONTINUOUS
 10
129.149969
 20
186.183064
 11
129.149969
 21
187.015064
  0
LINE
  8
1
 62
7
  6
CONTINUOUS
 10
129.149969
 20
187.015064
 11
132.349969
 21
186.599064
  0
LINE
  8
1
 62
7
  6
CONTINUOUS
 10
52.849969
 20
186.599064
 11
56.049969
 21
187.015064
  0
LINE
  8
1
 62
7
  6
CONTINUOUS
 10
56.049969
 20
187.015064
 11
56.049969
 21
186.183064
  0
LINE
  8
1
 62
7
  6
CONTINUOUS
 10
56.049969
 20
186.183064
 11
52.849969
 21
186.599064
  0
TEXT
  8
1
 62
7
  6
CONTINUOUS
 10
87.931535
 20
188.599064
 40
3.200000
 41
0.900000
  1
79.5
  7
KANJI
 50
0.000000
 51
0.000000
  0
LINE
  8
1
 62
7
  6
CONTINUOUS
 10
314.139471
 20
86.689881
 11
359.139471
 21
86.689881
  0
LINE
  8
1
 62
7
  6
CONTINUOUS
 10
314.139471
 20
99.850076
 11
314.139471
 21
85.189881
  0
LINE
  8
1
 62
7
  6
CONTINUOUS
 10
359.139471
 20
99.850076
 11
359.139471
 21
85.189881
  0
LINE
  8
1
 62
7
  6
CONTINUOUS
 10
314.139471
 20
86.689881
 11
317.339471
 21
87.105881
  0
LINE
  8
1
 62
7
  6
CONTINUOUS
 10
317.339471
 20
87.105881
 11
317.339471
 21
86.273881
  0
LINE
  8
1
 62
7
  6
CONTINUOUS
 10
317.339471
 20
86.273881
 11
314.139471
 21
86.689881
  0
LINE
  8
1
 62
7
  6
CONTINUOUS
 10
359.139471
 20
86.689881
 11
355.939471
 21
86.273881
  0
LINE
  8
1
 62
7
  6
CONTINUOUS
 10
355.939471
 20
86.273881
 11
355.939471
 21
87.105881
  0
LINE
  8
1
 62
7
  6
CONTINUOUS
 10
355.939471
 20
87.105881
 11
359.139471
 21
86.689881
  0
TEXT
  8
1
 62
7
  6
CONTINUOUS
 10
323.623828
 20
88.689881
 40
3.200000
 41
0.900000
  1
48以下　ＭＡＸ
  7
KANJI
 50
0.000000
 51
0.000000
  0
LINE
  8
1
 62
7
  6
CONTINUOUS
 10
212.869070
 20
78.802827
 11
256.369070
 21
78.802827
  0
LINE
  8
1
 62
7
  6
CONTINUOUS
 10
256.369070
 20
106.030234
 11
256.369070
 21
77.302827
  0
LINE
  8
1
 62
7
  6
CONTINUOUS
 10
212.869070
 20
98.850076
 11
212.869070
 21
77.302827
  0
LINE
  8
1
 62
7
  6
CONTINUOUS
 10
212.869070
 20
78.802827
 11
216.069070
 21
79.218827
  0
LINE
  8
1
 62
7
  6
CONTINUOUS
 10
216.069070
 20
79.218827
 11
216.069070
 21
78.386827
  0
LINE
  8
1
 62
7
  6
CONTINUOUS
 10
216.069070
 20
78.386827
 11
212.869070
 21
78.802827
  0
LINE
  8
1
 62
7
  6
CONTINUOUS
 10
256.369070
 20
78.802827
 11
253.169070
 21
78.386827
  0
LINE
  8
1
 62
7
  6
CONTINUOUS
 10
253.169070
 20
78.386827
 11
253.169070
 21
79.218827
  0
LINE
  8
1
 62
7
  6
CONTINUOUS
 10
253.169070
 20
79.218827
 11
256.369070
 21
78.802827
  0
TEXT
  8
1
 62
7
  6
CONTINUOUS
 10
229.123832
 20
80.802827
 40
3.200000
 41
0.900000
  1
43.5
  7
KANJI
 50
0.000000
 51
0.000000
  0
LINE
  8
1
 62
7
  6
CONTINUOUS
 10
212.869070
 20
86.262557
 11
224.869070
 21
86.262557
  0
LINE
  8
1
 62
7
  6
CONTINUOUS
 10
224.869070
 20
99.256046
 11
224.869070
 21
84.762557
  0
LINE
  8
1
 62
7
  6
CONTINUOUS
 10
212.869070
 20
98.850076
 11
212.869070
 21
84.762557
  0
LINE
  8
1
 62
7
  6
CONTINUOUS
 10
212.869070
 20
86.262557
 11
216.069070
 21
86.678557
  0
LINE
  8
1
 62
7
  6
CONTINUOUS
 10
216.069070
 20
86.678557
 11
216.069070
 21
85.846557
  0
LINE
  8
1
 62
7
  6
CONTINUOUS
 10
216.069070
 20
85.846557
 11
212.869070
 21
86.262557
  0
LINE
  8
1
 62
7
  6
CONTINUOUS
 10
224.869070
 20
86.262557
 11
221.669070
 21
85.846557
  0
LINE
  8
1
 62
7
  6
CONTINUOUS
 10
221.669070
 20
85.846557
 11
221.669070
 21
86.678557
  0
LINE
  8
1
 62
7
  6
CONTINUOUS
 10
221.669070
 20
86.678557
 11
224.869070
 21
86.262557
  0
TEXT
  8
1
 62
7
  6
CONTINUOUS
 10
217.822225
 20
88.262557
 40
3.200000
 41
0.900000
  1
12
  7
KANJI
 50
0.000000
 51
0.000000
  0
LINE
  8
1
 62
7
  6
CONTINUOUS
 10
130.489941
 20
177.101990
 11
139.987184
 21
185.882208
  0
LINE
  8
1
 62
7
  6
CONTINUOUS
 10
139.987184
 20
185.882208
 11
156.387184
 21
185.882208
  0
LINE
  8
1
 62
7
  6
CONTINUOUS
 10
130.489941
 20
177.101990
 11
132.557243
 21
179.579754
  0
LINE
  8
1
 62
7
  6
CONTINUOUS
 10
132.557243
 20
179.579754
 11
133.122042
 21
178.968832
  0
LINE
  8
1
 62
7
  6
CONTINUOUS
 10
133.122042
 20
178.968832
 11
130.489941
 21
177.101990
  0
TEXT
  8
1
 62
7
  6
CONTINUOUS
 10
154.467184
 20
187.882208
 40
3.200000
 41
0.900000
  1
7
  7
KANJI
 50
0.000000
 51
0.000000
  0
TEXT
  8
1
 62
7
  6
CONTINUOUS
 10
145.187184
 20
187.882208
 40
3.200000
 41
0.900000
  1
4-R
  7
KANJI
 50
0.000000
 51
0.000000
  0
LINE
  8
1
 62
7
  6
CONTINUOUS
 10
383.414544
 20
91.754862
 11
403.538988
 21
91.754862
  0
LINE
  8
1
 62
7
  6
CONTINUOUS
 10
364.044006
 20
112.658050
 11
383.414544
 21
91.754862
  0
LINE
  8
1
 62
7
  6
CONTINUOUS
 10
372.472350
 20
103.562831
 11
374.952537
 21
101.498436
  0
LINE
  8
1
 62
7
  6
CONTINUOUS
 10
374.952537
 20
101.498436
 11
374.342277
 21
100.932921
  0
LINE
  8
1
 62
7
  6
CONTINUOUS
 10
374.342277
 20
100.932921
 11
372.472350
 21
103.562831
  0
LINE
  8
1
 62
7
  6
CONTINUOUS
 10
367.306591
 20
109.137320
 11
364.826404
 21
111.201716
  0
LINE
  8
1
 62
7
  6
CONTINUOUS
 10
364.826404
 20
111.201716
 11
365.436664
 21
111.767231
  0
LINE
  8
1
 62
7
  6
CONTINUOUS
 10
365.436664
 20
111.767231
 11
367.306591
 21
109.137320
  0
TEXT
  8
1
 62
7
  6
CONTINUOUS
 10
397.698988
 20
93.754862
 40
3.200000
 41
0.900000
  1
8.2
  7
KANJI
 50
0.000000
 51
0.000000
  0
TEXT
  8
1
 62
7
  6
CONTINUOUS
 10
388.614544
 20
93.754862
 40
3.200000
 41
0.900000
  1
4-φ
  7
KANJI
 50
0.000000
 51
0.000000
  0
LINE
  8
1
 62
7
  6
CONTINUOUS
 10
127.401547
 20
171.188842
 11
41.625290
 21
93.331277
  0
LINE
  8
1
 62
7
  6
CONTINUOUS
 10
57.798391
 20
108.011309
 11
59.888266
 21
110.470065
  0
LINE
  8
1
 62
7
  6
CONTINUOUS
 10
59.888266
 20
110.470065
 11
60.447454
 21
109.854003
  0
LINE
  8
1
 62
7
  6
CONTINUOUS
 10
60.447454
 20
109.854003
 11
57.798391
 21
108.011309
  0
LINE
  8
1
 62
7
  6
CONTINUOUS
 10
127.401547
 20
171.188842
 11
125.311672
 21
168.730087
  0
LINE
  8
1
 62
7
  6
CONTINUOUS
 10
125.311672
 20
168.730087
 11
124.752484
 21
169.346149
  0
LINE
  8
1
 62
7
  6
CONTINUOUS
 10
124.752484
 20
169.346149
 11
127.401547
 21
171.188842
  0
TEXT
  8
1
 62
7
  6
CONTINUOUS
 10
31.625290
 20
95.331277
 40
3.200000
 41
0.900000
  1
94
  7
KANJI
 50
0.000000
 51
0.000000
  0
LINE
  8
1
 62
7
  6
CONTINUOUS
 10
387.506405
 20
154.758019
 11
387.506405
 21
159.088146
  0
LINE
  8
1
 62
7
  6
CONTINUOUS
 10
387.506405
 20
159.088146
 11
383.756405
 21
156.923082
  0
LINE
  8
1
 62
7
  6
CONTINUOUS
 10
383.756405
 20
156.923082
 11
387.506405
 21
154.758019
  0
TEXT
  8
1
 62
7
  6
CONTINUOUS
 10
387.256405
 20
156.023082
 40
2.000000
 41
0.900000
  1
A
  7
KANJI
 50
90.000000
 51
0.000000
  0
LINE
  8
1
 62
7
  6
CONTINUOUS
 10
353.053188
 20
88.587803
 11
357.383315
 21
88.587803
  0
LINE
  8
1
 62
7
  6
CONTINUOUS
 10
357.383315
 20
88.587803
 11
355.218252
 21
92.337803
  0
LINE
  8
1
 62
7
  6
CONTINUOUS
 10
355.218252
 20
92.337803
 11
353.053188
 21
88.587803
  0
TEXT
  8
1
 62
7
  6
CONTINUOUS
 10
354.318252
 20
88.837803
 40
2.000000
 41
0.900000
  1
A
  7
KANJI
 50
0.000000
 51
0.000000
  0
LINE
  8
1
 62
7
  6
CONTINUOUS
 10
352.319521
 20
190.929338
 11
356.649648
 21
190.929338
  0
LINE
  8
1
 62
7
  6
CONTINUOUS
 10
356.649648
 20
190.929338
 11
354.484585
 21
194.679338
  0
LINE
  8
1
 62
7
  6
CONTINUOUS
 10
354.484585
 20
194.679338
 11
352.319521
 21
190.929338
  0
TEXT
  8
1
 62
7
  6
CONTINUOUS
 10
353.584585
 20
191.179338
 40
2.000000
 41
0.900000
  1
A
  7
KANJI
 50
0.000000
 51
0.000000
  0
LINE
  8
1
 62
7
  6
CONTINUOUS
 10
331.704523
 20
203.575964
 11
336.034650
 21
203.575964
  0
LINE
  8
1
 62
7
  6
CONTINUOUS
 10
336.034650
 20
203.575964
 11
333.869586
 21
207.325964
  0
LINE
  8
1
 62
7
  6
CONTINUOUS
 10
333.869586
 20
207.325964
 11
331.704523
 21
203.575964
  0
TEXT
  8
1
 62
7
  6
CONTINUOUS
 10
332.969586
 20
203.825964
 40
2.000000
 41
0.900000
  1
A
  7
KANJI
 50
0.000000
 51
0.000000
  0
LINE
  8
1
 62
7
  6
CONTINUOUS
 10
138.067383
 20
164.254847
 11
142.397510
 21
164.254847
  0
LINE
  8
1
 62
7
  6
CONTINUOUS
 10
142.397510
 20
164.254847
 11
140.232447
 21
168.004847
  0
LINE
  8
1
 62
7
  6
CONTINUOUS
 10
140.232447
 20
168.004847
 11
138.067383
 21
164.254847
  0
TEXT
  8
1
 62
7
  6
CONTINUOUS
 10
139.332447
 20
164.504847
 40
2.000000
 41
0.900000
  1
A
  7
KANJI
 50
0.000000
 51
0.000000
  0
LINE
  8
1
 62
7
  6
CONTINUOUS
 10
132.178185
 20
210.895665
 11
136.508312
 21
210.895665
  0
LINE
  8
1
 62
7
  6
CONTINUOUS
 10
136.508312
 20
210.895665
 11
134.343248
 21
214.645665
  0
LINE
  8
1
 62
7
  6
CONTINUOUS
 10
134.343248
 20
214.645665
 11
132.178185
 21
210.895665
  0
TEXT
  8
1
 62
7
  6
CONTINUOUS
 10
133.443248
 20
211.145665
 40
2.000000
 41
0.900000
  1
A
  7
KANJI
 50
0.000000
 51
0.000000
  0
LINE
  8
1
 62
7
  6
CONTINUOUS
 10
121.894556
 20
73.865574
 11
119.729493
 21
70.115574
  0
LINE
  8
1
 62
7
  6
CONTINUOUS
 10
124.059620
 20
70.115574
 11
121.894556
 21
73.865574
  0
LINE
  8
1
 62
7
  6
CONTINUOUS
 10
119.729493
 20
70.115574
 11
124.059620
 21
70.115574
  0
TEXT
  8
1
 62
7
  6
CONTINUOUS
 10
120.994556
 20
70.365574
 40
2.000000
 41
0.900000
  1
A
  7
KANJI
 50
0.000000
 51
0.000000
  0
LINE
  8
1
 62
7
  6
CONTINUOUS
 10
64.285228
 20
234.003360
 11
62.120164
 21
230.253360
  0
LINE
  8
1
 62
7
  6
CONTINUOUS
 10
66.450291
 20
230.253360
 11
64.285228
 21
234.003360
  0
LINE
  8
1
 62
7
  6
CONTINUOUS
 10
62.120164
 20
230.253360
 11
66.450291
 21
230.253360
  0
TEXT
  8
1
 62
7
  6
CONTINUOUS
 10
63.385228
 20
230.503360
 40
2.000000
 41
0.900000
  1
A
  7
KANJI
 50
0.000000
 51
0.000000
  0
LINE
  8
1
 62
7
  6
DIVIDE
 10
0.000000
 20
297.000000
 11
0.000000
 21
0.000000
  0
LINE
  8
1
 62
7
  6
DIVIDE
 10
420.000000
 20
297.000000
 11
0.000000
 21
297.000000
  0
LINE
  8
1
 62
7
  6
CONTINUOUS
 10
72.059584
 20
227.406052
 11
70.759584
 21
227.406052
  0
LINE
  8
1
 62
7
  6
CONTINUOUS
 10
70.759584
 20
227.406052
 11
70.759584
 21
218.206052
  0
LINE
  8
1
 62
7
  6
CONTINUOUS
 10
70.759584
 20
218.206052
 11
72.059584
 21
218.206052
  0
LINE
  8
1
 62
7
  6
CONTINUOUS
 10
72.059584
 20
218.206052
 11
72.059584
 21
227.406052
  0
LINE
  8
1
 62
7
  6
DIVIDE
 10
420.000000
 20
280.000000
 11
420.000000
 21
297.000000
  0
LINE
  8
1
 62
7
  6
CONTINUOUS
 10
345.000000
 20
281.000000
 11
345.000000
 21
280.000000
  0
LINE
  8
1
 62
7
  6
CONTINUOUS
 10
280.000000
 20
281.000000
 11
280.000000
 21
280.000000
  0
LINE
  8
1
 62
7
  6
CONTINUOUS
 10
215.000000
 20
281.000000
 11
215.000000
 21
280.000000
  0
LINE
  8
1
 62
7
  6
CONTINUOUS
 10
150.000000
 20
281.000000
 11
150.000000
 21
280.000000
  0
LINE
  8
1
 62
7
  6
CONTINUOUS
 10
85.000000
 20
281.000000
 11
85.000000
 21
280.000000
  0
LINE
  8
1
 62
7
  6
CONTINUOUS
 10
34.450467
 20
51.546097
 11
33.557828
 21
50.000000
  0
LINE
  8
1
 62
7
  6
CONTINUOUS
 10
35.343107
 20
50.000000
 11
34.450467
 21
51.546097
  0
LINE
  8
1
 62
7
  6
DIVIDE
 10
0.000000
 20
0.000000
 11
10.000000
 21
0.000000
  0
LINE
  8
1
 62
7
  6
CONTINUOUS
 10
41.625290
 20
93.331277
 11
30.000000
 21
93.331277
  0
ENDSEC
  0
EOF
