  0
SECTION
  2
HEADER
  9
$ACADVER
  1
AC1003
  9
$INSBASE
 10
0.000000
 20
0.000000
  9
$EXTMIN
 10
0.000000
 20
0.000000
  9
$EXTMAX
 10
420.000000
 20
297.000000
  9
$LIMMIN
 10
0.000000
 20
0.000000
  9
$LIMMAX
 10
420.000000
 20
297.000000
  9
$VIEWCTR
 10
210.000000
 20
148.500000
  9
$VIEWSIZE
 40
297.000000
  9
$PEXTMIN
 10
0.000000
 20
0.000000
 30
0.000000
  9
$PEXTMAX
 10
420.000000
 20
297.000000
 30
0.000000
  9
$SNAPMODE
 70
     0
  9
$SNAPUNIT
 10
1.000000
 20
1.000000
  9
$SNAPBASE
 10
0.000000
 20
0.000000
  9
$SNAPANG
 50
0.000000
  9
$SNAPISOPAIR
 70
     0
  9
$SNAPSTYLE
 70
     0
  9
$GRIDMODE
 70
     0
  9
$GRIDUNIT
 10
0.000000
 20
0.000000
  9
$ORTHOMODE
 70
     0
  9
$REGENMODE
 70
     1
  9
$FILLMODE
 70
     1
  9
$QTEXTMODE
 70
     0
  9
$DRAGMODE
 70
     2
  9
$LTSCALE
 40
0.250000
  9
$OSMODE
 70
     0
  9
$ATTMODE
 70
     1
  9
$TEXTSIZE
 40
0.200000
  9
$TRACEWID
 40
0.050000
  9
$TEXTSTYLE
  7
STANDARD
  9
$CLAYER
  8
0
  9
$CELTYPE
  6
BYLAYER
  9
$CECOLOR
 62
   256
  9
$DIMSCALE
 40
1.000000
  9
$DIMASZ
 40
1.000000
  9
$DIMEXO
 40
0.000000
  9
$DIMDLI
 40
0.500000
  9
$DIMRND
 40
0.000000
  9
$DIMDLE
 40
0.000000
  9
$DIMEXE
 40
0.000000
  9
$DIMTP
 40
0.000000
  9
$DIMTM
 40
0.000000
  9
$DIMTXT
 40
0.180000
  9
$DIMCEN
 40
0.000000
  9
$DIMTSZ
 40
0.000000
  9
$DIMTOL
 70
     0
  9
$DIMLIM
 70
     0
  9
$DIMTIH
 70
     1
  9
$DIMTOH
 70
     1
  9
$DIMSE1
 70
     0
  9
$DIMSE2
 70
     0
  9
$DIMTAD
 70
     0
  9
$DIMZIN
 70
     0
  9
$DIMBLK
  1

  9
$DIMASO
 70
     0
  9
$DIMSHO
 70
     0
  9
$DIMPOST
  1

  9
$DIMAPOST
  1

  9
$DIMALT
 70
     0
  9
$DIMALTD
 70
     0
  9
$DIMALTF
 40
25.400000
  9
$DIMLFAC
 40
1.000000
  9
$DIMTOFL
 70
     0
  9
$DIMTVP
 40
0.000000
  9
$DIMTIX
 70
     0
  9
$DIMSOXD
 70
     0
  9
$DIMSAH
 70
     0
  9
$DIMBLKL
  1

  9
$DIMBLKR
  1

  9
$LUNITS
 70
     2
  9
$LUPREC
 70
     2
  9
$AXISMODE
 70
     0
  9
$AXISUNIT
 10
1.000000
 20
1.000000
  9
$SKETCHINC
 40
0.000000
  9
$FILLETRAD
 40
0.000000
  9
$AUNITS
 70
     1
  9
$AUPREC
 70
     2
  9
$MENU
  1
ACAD
  9
$ELEVATION
 40
0.000000
  9
$THICKNESS
 40
0.000000
  9
$VIEWDIR
 10
0.000000
 20
0.000000
 30
1.000000
  9
$LIMCHECK
 70
     1
  9
$BLIPMODE
 70
     1
  9
$CHAMFERA
 40
0.000000
  9
$CHAMFERB
 40
0.000000
  9
$FASTZOOM
 70
     1
  9
$SKPOLY
 70
     0
  9
$TDCREATE
 40
0.000000
  9
$TDUPDATE
 40
0.000000
  9
$TDINDWG
 40
0.000000
  9
$TDUSRTIMER
 40
0.000000
  9
$USRTIMER
 70
     1
  9
$ANGBASE
 50
0.000000
  9
$ANGDIR
 70
     0
  9
$PDMODE
 70
     0
  9
$PDSIZE
 40
0.000000
  9
$PLINEWID
 40
0.000000
  9
$COORDS
 70
     2
  9
$USERI1
 70
     0
  9
$USERI2
 70
     0
  9
$USERI3
 70
     0
  9
$USERI4
 70
     0
  9
$USERI5
 70
     0
  9
$USERR1
 40
0.000000
  9
$USERR2
 40
0.000000
  9
$USERR3
 40
0.000000
  9
$USERR4
 40
0.000000
  9
$USERR5
 40
0.000000
  0
ENDSEC
  0
SECTION
  2
TABLES
  0
TABLE
  2
LTYPE
 70
     5
  0
LTYPE
  2
CONTINUOUS
 70
    64
  3
Solid line
 72
    65
 73
     0
 40
0.0
  0
LTYPE
  2
HIDDEN
 70
    64
  3
------------------------
 72
    65
 73
     2
 40
12.6
 49
8.4
 49
-4.2
  0
LTYPE
  2
DOT
 70
    64
  3
････････････････････････
 72
    65
 73
     2
 40
8.0
 49
6.0
 49
-2.0
  0
LTYPE
  2
DASHDOT
 70
    64
  3
--･--･--･--･--･--･--･--
 72
    65
 73
     4
 40
50.5
 49
30.0
 49
-9.0
 49
2.5
 49
-9.0
  0
LTYPE
  2
DIVIDE
 70
    64
  3
--･･--･･--･･--･･--･･--
 72
    65
 73
     6
 40
58.0
 49
30.0
 49
-9.0
 49
2.5
 49
-5.0
 49
2.5
 49
-9.0
  0
ENDTAB
  0
TABLE
  2
LAYER
 70
1
  0
LAYER
  2
1
 70
64
 62
7
  6
CONTINUOUS
  0
ENDTAB
  0
TABLE
  2
STYLE
 70
     2
  0
STYLE
  2
STANDARD
 70
    64
 40
0.0
 41
1.0
 50
0.0
 71
     0
 42
0.2
  3
TXT
  4

  0
STYLE
  2
KANJI
 70
    64
 40
0.0
 41
1.0
 50
0.0
 71
     0
 42
0.2
  3
TXT
  4
BIGFONT
  0
ENDTAB
  0
TABLE
  2
VIEW
 70
     0
  0
ENDTAB
  0
ENDSEC
  0
SECTION
  2
BLOCKS
  0
ENDSEC
  0
SECTION
  2
ENTITIES
  0
LINE
  8
1
 62
7
  6
CONTINUOUS
 10
50.000000
 20
69.000000
 11
117.604290
 21
69.000000
  0
LINE
  8
1
 62
7
  6
CONTINUOUS
 10
50.000000
 20
62.000000
 11
117.604290
 21
62.000000
  0
LINE
  8
1
 62
7
  6
CONTINUOUS
 10
50.000000
 20
55.000000
 11
117.604290
 21
55.000000
  0
LINE
  8
1
 62
7
  6
CONTINUOUS
 10
68.605815
 20
208.690745
 11
91.965820
 21
208.690745
  0
LINE
  8
1
 62
7
  6
DOT
 10
206.813166
 20
136.743736
 11
209.103651
 21
136.743736
  0
LINE
  8
1
 62
7
  6
CONTINUOUS
 10
230.603651
 20
112.476962
 11
230.603651
 21
103.458019
  0
LINE
  8
1
 62
7
  6
CONTINUOUS
 10
230.603651
 20
112.476962
 11
222.903651
 21
112.476962
  0
LINE
  8
1
 62
7
  6
CONTINUOUS
 10
219.803651
 20
101.014683
 11
219.803651
 21
110.187867
  0
LINE
  8
1
 62
7
  6
CONTINUOUS
 10
222.903651
 20
110.187867
 11
219.803651
 21
110.187867
  0
LINE
  8
1
 62
7
  6
CONTINUOUS
 10
222.903651
 20
171.299198
 11
219.803651
 21
171.299198
  0
LINE
  8
1
 62
7
  6
CONTINUOUS
 10
219.803651
 20
171.299198
 11
219.803651
 21
180.472790
  0
LINE
  8
1
 62
7
  6
CONTINUOUS
 10
222.903651
 20
123.493736
 11
255.603651
 21
123.493736
  0
LINE
  8
1
 62
7
  6
CONTINUOUS
 10
255.603651
 20
157.993736
 11
222.903651
 21
157.993736
  0
LINE
  8
1
 62
7
  6
CONTINUOUS
 10
222.903651
 20
101.056575
 11
222.903651
 21
177.333711
  0
LINE
  8
1
 62
7
  6
CONTINUOUS
 10
122.034550
 20
101.943736
 11
117.434550
 21
101.943736
  0
LINE
  8
1
 62
7
  6
CONTINUOUS
 10
103.334550
 20
140.743736
 11
106.460268
 21
140.743736
  0
LINE
  8
1
 62
7
  6
CONTINUOUS
 10
103.334550
 20
140.743736
 11
103.334550
 21
138.018757
  0
LINE
  8
1
 62
7
  6
CONTINUOUS
 10
85.234525
 20
100.993736
 11
82.634550
 21
100.993736
  0
LINE
  8
1
 62
7
  6
CONTINUOUS
 10
75.834550
 20
100.993736
 11
76.834550
 21
100.993736
  0
LINE
  8
1
 62
7
  6
CONTINUOUS
 10
76.834550
 20
100.993736
 11
80.664622
 21
100.993736
  0
LINE
  8
1
 62
7
  6
CONTINUOUS
 10
124.034550
 20
100.993736
 11
85.234525
 21
100.993736
  0
LINE
  8
1
 62
7
  6
CONTINUOUS
 10
129.834550
 20
100.993736
 11
130.834550
 21
100.993736
  0
LINE
  8
1
 62
7
  6
CONTINUOUS
 10
126.056225
 20
100.993736
 11
129.834550
 21
100.993736
  0
LINE
  8
1
 62
7
  6
CONTINUOUS
 10
348.303725
 20
112.958203
 11
346.839259
 21
111.493736
  0
LINE
  8
1
 62
7
  6
CONTINUOUS
 10
300.374793
 20
112.958203
 11
301.253473
 21
112.079523
  0
LINE
  8
1
 62
7
  6
CONTINUOUS
 10
346.839259
 20
111.493736
 11
345.103978
 21
109.758455
  0
LINE
  8
1
 62
7
  6
CONTINUOUS
 10
124.034550
 20
103.155361
 11
124.034550
 21
101.659104
  0
LINE
  8
1
 62
7
  6
CONTINUOUS
 10
124.034550
 20
101.493736
 11
124.034550
 21
101.659104
  0
LINE
  8
1
 62
7
  6
CONTINUOUS
 10
324.339259
 20
134.943736
 11
324.339259
 21
183.996524
  0
LINE
  8
1
 62
7
  6
CONTINUOUS
 10
88.434550
 20
101.943736
 11
84.634550
 21
101.943736
  0
LINE
  8
1
 62
7
  6
CONTINUOUS
 10
88.434550
 20
101.943736
 11
88.434550
 21
100.993736
  0
LINE
  8
1
 62
7
  6
CONTINUOUS
 10
117.434550
 20
101.943736
 11
117.434550
 21
100.993736
  0
LINE
  8
1
 62
7
  6
CONTINUOUS
 10
76.834550
 20
110.743736
 11
76.834550
 21
101.993736
  0
LINE
  8
1
 62
7
  6
CONTINUOUS
 10
65.834550
 20
114.243736
 11
73.334550
 21
114.243736
  0
LINE
  8
1
 62
7
  6
CONTINUOUS
 10
64.834550
 20
166.243736
 11
64.834550
 21
115.243736
  0
LINE
  8
1
 62
7
  6
CONTINUOUS
 10
73.334550
 20
167.243736
 11
65.834550
 21
167.243736
  0
LINE
  8
1
 62
7
  6
CONTINUOUS
 10
76.834550
 20
178.243736
 11
76.834550
 21
170.743736
  0
LINE
  8
1
 62
7
  6
CONTINUOUS
 10
129.834550
 20
110.743736
 11
129.834550
 21
101.993736
  0
LINE
  8
1
 62
7
  6
CONTINUOUS
 10
140.834550
 20
114.243736
 11
133.334550
 21
114.243736
  0
LINE
  8
1
 62
7
  6
CONTINUOUS
 10
141.834550
 20
166.243736
 11
141.834550
 21
115.243736
  0
LINE
  8
1
 62
7
  6
CONTINUOUS
 10
133.334550
 20
167.243736
 11
140.834550
 21
167.243736
  0
LINE
  8
1
 62
7
  6
CONTINUOUS
 10
129.834550
 20
178.243736
 11
129.834550
 21
170.743736
  0
LINE
  8
1
 62
7
  6
CONTINUOUS
 10
77.834550
 20
179.243736
 11
128.834550
 21
179.243736
  0
LINE
  8
1
 62
7
  6
CONTINUOUS
 10
82.634550
 20
103.943736
 11
82.634550
 21
110.893736
  0
LINE
  8
1
 62
7
  6
CONTINUOUS
 10
124.034550
 20
103.155361
 11
124.034550
 21
110.893736
  0
LINE
  8
1
 62
7
  6
CONTINUOUS
 10
103.334550
 20
175.743736
 11
103.334550
 21
179.367780
  0
LINE
  8
1
 62
7
  6
CONTINUOUS
 10
103.334550
 20
175.743736
 11
103.334550
 21
181.577555
  0
LINE
  8
1
 62
7
  6
CONTINUOUS
 10
103.334550
 20
179.367780
 11
103.334550
 21
181.577555
  0
LINE
  8
1
 62
7
  6
CONTINUOUS
 10
103.334550
 20
140.743736
 11
66.940097
 21
140.743736
  0
LINE
  8
1
 62
7
  6
CONTINUOUS
 10
103.334550
 20
100.126007
 11
103.334550
 21
140.743736
  0
LINE
  8
1
 62
7
  6
CONTINUOUS
 10
70.084550
 20
178.758498
 11
70.084550
 21
169.247109
  0
LINE
  8
1
 62
7
  6
CONTINUOUS
 10
74.729819
 20
173.993736
 11
65.395662
 21
173.993736
  0
LINE
  8
1
 62
7
  6
CONTINUOUS
 10
126.056225
 20
100.993736
 11
125.456250
 21
100.993736
  0
LINE
  8
1
 62
7
  6
CONTINUOUS
 10
126.056225
 20
100.993736
 11
125.456250
 21
100.993736
  0
LINE
  8
1
 62
7
  6
CONTINUOUS
 10
85.234525
 20
100.993736
 11
80.664622
 21
100.993736
  0
LINE
  8
1
 62
7
  6
CONTINUOUS
 10
82.134550
 20
100.993736
 11
80.664622
 21
100.993736
  0
LINE
  8
1
 62
7
  6
CONTINUOUS
 10
126.056225
 20
100.993736
 11
85.234525
 21
100.993736
  0
LINE
  8
1
 62
7
  6
CONTINUOUS
 10
126.056225
 20
100.993736
 11
124.534550
 21
100.993736
  0
LINE
  8
1
 62
7
  6
CONTINUOUS
 10
103.334550
 20
175.743736
 11
103.334550
 21
102.749389
  0
LINE
  8
1
 62
7
  6
CONTINUOUS
 10
103.334550
 20
140.743736
 11
103.334550
 21
175.743736
  0
LINE
  8
1
 62
7
  6
CONTINUOUS
 10
103.334550
 20
140.743736
 11
103.334550
 21
175.743736
  0
LINE
  8
1
 62
7
  6
CONTINUOUS
 10
103.334550
 20
179.367780
 11
103.334550
 21
175.743736
  0
LINE
  8
1
 62
7
  6
CONTINUOUS
 10
144.678865
 20
140.743736
 11
103.334550
 21
140.743736
  0
LINE
  8
1
 62
7
  6
CONTINUOUS
 10
136.084550
 20
180.493736
 11
70.584550
 21
180.493736
  0
LINE
  8
1
 62
7
  6
CONTINUOUS
 10
143.084550
 20
107.993736
 11
143.084550
 21
173.493736
  0
LINE
  8
1
 62
7
  6
CONTINUOUS
 10
130.834550
 20
100.993736
 11
136.084550
 21
100.993736
  0
LINE
  8
1
 62
7
  6
CONTINUOUS
 10
70.584550
 20
100.993736
 11
75.834550
 21
100.993736
  0
LINE
  8
1
 62
7
  6
CONTINUOUS
 10
63.584550
 20
173.493736
 11
63.584550
 21
107.993736
  0
LINE
  8
1
 62
7
  6
CONTINUOUS
 10
136.584550
 20
169.247109
 11
136.584550
 21
178.758498
  0
LINE
  8
1
 62
7
  6
CONTINUOUS
 10
141.273439
 20
173.993736
 11
131.939281
 21
173.993736
  0
LINE
  8
1
 62
7
  6
CONTINUOUS
 10
136.584550
 20
102.728975
 11
136.584550
 21
112.240363
  0
LINE
  8
1
 62
7
  6
CONTINUOUS
 10
131.939281
 20
107.493736
 11
141.273439
 21
107.493736
  0
LINE
  8
1
 62
7
  6
CONTINUOUS
 10
70.084550
 20
112.240363
 11
70.084550
 21
102.728975
  0
LINE
  8
1
 62
7
  6
CONTINUOUS
 10
65.395662
 20
107.493736
 11
74.729819
 21
107.493736
  0
LINE
  8
1
 62
7
  6
CONTINUOUS
 10
324.339259
 20
179.367780
 11
324.339259
 21
175.743736
  0
LINE
  8
1
 62
7
  6
CONTINUOUS
 10
324.339259
 20
179.897776
 11
324.339259
 21
175.743736
  0
LINE
  8
1
 62
7
  6
CONTINUOUS
 10
324.339259
 20
179.897776
 11
324.339259
 21
179.367780
  0
LINE
  8
1
 62
7
  6
CONTINUOUS
 10
365.450242
 20
140.743736
 11
324.339259
 21
140.743736
  0
LINE
  8
1
 62
7
  6
CONTINUOUS
 10
324.339259
 20
140.743736
 11
324.339259
 21
98.346295
  0
LINE
  8
1
 62
7
  6
CONTINUOUS
 10
357.589259
 20
169.247109
 11
357.589259
 21
178.758498
  0
LINE
  8
1
 62
7
  6
CONTINUOUS
 10
362.354021
 20
173.993736
 11
352.943990
 21
173.993736
  0
LINE
  8
1
 62
7
  6
CONTINUOUS
 10
303.439234
 20
100.993736
 11
302.839259
 21
100.993736
  0
LINE
  8
1
 62
7
  6
CONTINUOUS
 10
303.439234
 20
100.993736
 11
302.839259
 21
100.993736
  0
LINE
  8
1
 62
7
  6
CONTINUOUS
 10
345.639259
 20
100.993736
 11
342.439285
 21
100.993736
  0
LINE
  8
1
 62
7
  6
CONTINUOUS
 10
345.639259
 20
100.993736
 11
342.439285
 21
100.993736
  0
LINE
  8
1
 62
7
  6
CONTINUOUS
 10
346.839259
 20
105.243736
 11
346.839259
 21
101.993736
  0
LINE
  8
1
 62
7
  6
CONTINUOUS
 10
342.439285
 20
100.993736
 11
302.839259
 21
100.993736
  0
LINE
  8
1
 62
7
  6
CONTINUOUS
 10
342.439285
 20
100.993736
 11
302.839259
 21
100.993736
  0
LINE
  8
1
 62
7
  6
CONTINUOUS
 10
301.839259
 20
101.993736
 11
301.839259
 21
106.243736
  0
LINE
  8
1
 62
7
  6
CONTINUOUS
 10
324.339259
 20
102.749389
 11
324.339259
 21
175.743736
  0
LINE
  8
1
 62
7
  6
CONTINUOUS
 10
341.589259
 20
106.243736
 11
341.589259
 21
107.373966
  0
LINE
  8
1
 62
7
  6
CONTINUOUS
 10
307.089259
 20
106.243736
 11
307.089259
 21
107.128413
  0
LINE
  8
1
 62
7
  6
CONTINUOUS
 10
346.839259
 20
106.243736
 11
346.839259
 21
105.243736
  0
LINE
  8
1
 62
7
  6
CONTINUOUS
 10
346.839259
 20
109.422669
 11
346.839259
 21
105.243736
  0
LINE
  8
1
 62
7
  6
CONTINUOUS
 10
358.839259
 20
123.493736
 11
357.954583
 21
123.493736
  0
LINE
  8
1
 62
7
  6
CONTINUOUS
 10
341.589259
 20
175.243736
 11
341.589259
 21
174.359060
  0
LINE
  8
1
 62
7
  6
CONTINUOUS
 10
289.839259
 20
157.993736
 11
290.723936
 21
157.993736
  0
LINE
  8
1
 62
7
  6
CONTINUOUS
 10
358.839259
 20
157.993736
 11
357.709030
 21
157.993736
  0
LINE
  8
1
 62
7
  6
CONTINUOUS
 10
307.089259
 20
175.243736
 11
307.089259
 21
174.113507
  0
LINE
  8
1
 62
7
  6
CONTINUOUS
 10
289.839259
 20
123.493736
 11
290.969489
 21
123.493736
  0
LINE
  8
1
 62
7
  6
CONTINUOUS
 10
289.839259
 20
153.023174
 11
289.839259
 21
128.464299
  0
LINE
  8
1
 62
7
  6
CONTINUOUS
 10
336.618697
 20
175.243736
 11
324.339259
 21
175.243736
  0
LINE
  8
1
 62
7
  6
CONTINUOUS
 10
345.103978
 20
171.729018
 11
355.324541
 21
161.508455
  0
LINE
  8
1
 62
7
  6
CONTINUOUS
 10
358.839259
 20
153.023174
 11
358.839259
 21
128.464299
  0
LINE
  8
1
 62
7
  6
CONTINUOUS
 10
355.324541
 20
119.979018
 11
348.303725
 21
112.958203
  0
LINE
  8
1
 62
7
  6
CONTINUOUS
 10
336.618697
 20
106.243736
 11
312.059822
 21
106.243736
  0
LINE
  8
1
 62
7
  6
CONTINUOUS
 10
300.374793
 20
112.958203
 11
293.353978
 21
119.979018
  0
LINE
  8
1
 62
7
  6
CONTINUOUS
 10
293.353978
 20
161.508455
 11
303.574541
 21
171.729018
  0
LINE
  8
1
 62
7
  6
CONTINUOUS
 10
301.839259
 20
105.243736
 11
301.839259
 21
110.665309
  0
LINE
  8
1
 62
7
  6
CONTINUOUS
 10
324.339259
 20
175.243736
 11
312.059822
 21
175.243736
  0
LINE
  8
1
 62
7
  6
CONTINUOUS
 10
324.339259
 20
175.743736
 11
324.339259
 21
140.743736
  0
LINE
  8
1
 62
7
  6
CONTINUOUS
 10
324.339259
 20
175.743736
 11
324.339259
 21
140.743736
  0
LINE
  8
1
 62
7
  6
CONTINUOUS
 10
324.339259
 20
175.743736
 11
324.339259
 21
179.367780
  0
LINE
  8
1
 62
7
  6
CONTINUOUS
 10
324.339259
 20
140.743736
 11
282.654490
 21
140.743736
  0
LINE
  8
1
 62
7
  6
CONTINUOUS
 10
353.896871
 20
180.493736
 11
291.589259
 21
180.493736
  0
LINE
  8
1
 62
7
  6
CONTINUOUS
 10
284.589259
 20
173.493736
 11
284.589259
 21
107.993736
  0
LINE
  8
1
 62
7
  6
CONTINUOUS
 10
291.589259
 20
100.993736
 11
302.839259
 21
100.993736
  0
LINE
  8
1
 62
7
  6
CONTINUOUS
 10
345.639259
 20
100.993736
 11
357.089259
 21
100.993736
  0
LINE
  8
1
 62
7
  6
CONTINUOUS
 10
364.089259
 20
107.993736
 11
364.089259
 21
170.301348
  0
LINE
  8
1
 62
7
  6
CONTINUOUS
 10
364.089259
 20
172.998405
 11
364.089259
 21
173.493736
  0
LINE
  8
1
 62
7
  6
CONTINUOUS
 10
357.089259
 20
180.493736
 11
356.593927
 21
180.493736
  0
LINE
  8
1
 62
7
  6
CONTINUOUS
 10
360.987297
 20
172.292755
 11
362.326875
 21
170.953177
  0
LINE
  8
1
 62
7
  6
CONTINUOUS
 10
359.290241
 20
170.595699
 11
360.536123
 21
169.349816
  0
LINE
  8
1
 62
7
  6
CONTINUOUS
 10
354.548700
 20
178.731352
 11
355.888278
 21
177.391774
  0
LINE
  8
1
 62
7
  6
CONTINUOUS
 10
352.945339
 20
176.940600
 11
354.191221
 21
175.694718
  0
LINE
  8
1
 62
7
  6
CONTINUOUS
 10
364.089259
 20
172.998405
 11
364.089259
 21
172.715562
  0
LINE
  8
1
 62
7
  6
CONTINUOUS
 10
354.603978
 20
178.786630
 11
353.700172
 21
177.882824
  0
LINE
  8
1
 62
7
  6
CONTINUOUS
 10
356.311085
 20
180.493736
 11
356.593927
 21
180.493736
  0
LINE
  8
1
 62
7
  6
CONTINUOUS
 10
362.382152
 20
171.008455
 11
361.478347
 21
170.104649
  0
LINE
  8
1
 62
7
  6
CONTINUOUS
 10
364.089259
 20
170.301348
 11
364.089259
 21
172.715562
  0
LINE
  8
1
 62
7
  6
CONTINUOUS
 10
353.950349
 20
180.492305
 11
356.311085
 21
180.492305
  0
LINE
  8
1
 62
7
  6
CONTINUOUS
 10
353.533953
 20
170.270868
 11
354.054537
 21
169.750284
  0
LINE
  8
1
 62
7
  6
CONTINUOUS
 10
295.835886
 20
173.993736
 11
286.324498
 21
173.993736
  0
LINE
  8
1
 62
7
  6
CONTINUOUS
 10
291.089259
 20
179.774317
 11
291.089259
 21
169.348467
  0
LINE
  8
1
 62
7
  6
CONTINUOUS
 10
292.084591
 20
180.493736
 11
291.589259
 21
180.493736
  0
LINE
  8
1
 62
7
  6
CONTINUOUS
 10
284.589259
 20
173.493736
 11
284.589259
 21
172.998405
  0
LINE
  8
1
 62
7
  6
CONTINUOUS
 10
292.790241
 20
177.391774
 11
294.129818
 21
178.731352
  0
LINE
  8
1
 62
7
  6
CONTINUOUS
 10
294.487297
 20
175.694718
 11
295.733179
 21
176.940600
  0
LINE
  8
1
 62
7
  6
CONTINUOUS
 10
286.351644
 20
170.953177
 11
287.691221
 21
172.292755
  0
LINE
  8
1
 62
7
  6
CONTINUOUS
 10
288.142395
 20
169.349816
 11
289.388278
 21
170.595699
  0
LINE
  8
1
 62
7
  6
CONTINUOUS
 10
292.084591
 20
180.493736
 11
292.367434
 21
180.493736
  0
LINE
  8
1
 62
7
  6
CONTINUOUS
 10
286.296366
 20
171.008455
 11
287.200172
 21
170.104649
  0
LINE
  8
1
 62
7
  6
CONTINUOUS
 10
284.589259
 20
172.715562
 11
284.589259
 21
172.998405
  0
LINE
  8
1
 62
7
  6
CONTINUOUS
 10
294.074541
 20
178.786630
 11
294.978347
 21
177.882824
  0
LINE
  8
1
 62
7
  6
CONTINUOUS
 10
294.781647
 20
180.493736
 11
292.367434
 21
180.493736
  0
LINE
  8
1
 62
7
  6
CONTINUOUS
 10
284.590690
 20
170.354826
 11
284.590690
 21
172.715562
  0
LINE
  8
1
 62
7
  6
CONTINUOUS
 10
294.812127
 20
169.938430
 11
295.332711
 21
170.459014
  0
LINE
  8
1
 62
7
  6
CONTINUOUS
 10
291.089259
 20
112.240363
 11
291.089259
 21
102.728975
  0
LINE
  8
1
 62
7
  6
CONTINUOUS
 10
285.208967
 20
107.493736
 11
295.734528
 21
107.493736
  0
LINE
  8
1
 62
7
  6
CONTINUOUS
 10
284.589259
 20
108.489068
 11
284.589259
 21
107.993736
  0
LINE
  8
1
 62
7
  6
CONTINUOUS
 10
291.589259
 20
100.993736
 11
292.084591
 21
100.993736
  0
LINE
  8
1
 62
7
  6
CONTINUOUS
 10
287.691221
 20
109.194718
 11
286.351644
 21
110.534296
  0
LINE
  8
1
 62
7
  6
CONTINUOUS
 10
289.388278
 20
110.891774
 11
288.142395
 21
112.137657
  0
LINE
  8
1
 62
7
  6
CONTINUOUS
 10
294.129818
 20
102.756121
 11
292.790241
 21
104.095699
  0
LINE
  8
1
 62
7
  6
CONTINUOUS
 10
295.733179
 20
104.546873
 11
294.487297
 21
105.792755
  0
LINE
  8
1
 62
7
  6
CONTINUOUS
 10
284.589259
 20
108.489068
 11
284.589259
 21
108.771911
  0
LINE
  8
1
 62
7
  6
CONTINUOUS
 10
294.074541
 20
102.700843
 11
294.978347
 21
103.604649
  0
LINE
  8
1
 62
7
  6
CONTINUOUS
 10
292.367434
 20
100.993736
 11
292.084591
 21
100.993736
  0
LINE
  8
1
 62
7
  6
CONTINUOUS
 10
286.296366
 20
110.479018
 11
287.200172
 21
111.382824
  0
LINE
  8
1
 62
7
  6
CONTINUOUS
 10
284.589259
 20
111.186125
 11
284.589259
 21
108.771911
  0
LINE
  8
1
 62
7
  6
CONTINUOUS
 10
294.728169
 20
100.995167
 11
292.367434
 21
100.995167
  0
LINE
  8
1
 62
7
  6
CONTINUOUS
 10
295.144566
 20
111.216605
 11
294.623982
 21
111.737188
  0
LINE
  8
1
 62
7
  6
CONTINUOUS
 10
352.842632
 20
107.493736
 11
362.354021
 21
107.493736
  0
LINE
  8
1
 62
7
  6
CONTINUOUS
 10
357.589259
 20
99.501102
 11
357.589259
 21
112.139006
  0
LINE
  8
1
 62
7
  6
CONTINUOUS
 10
356.593927
 20
100.993736
 11
357.089259
 21
100.993736
  0
LINE
  8
1
 62
7
  6
CONTINUOUS
 10
364.089259
 20
107.993736
 11
364.089259
 21
108.489068
  0
LINE
  8
1
 62
7
  6
CONTINUOUS
 10
355.888278
 20
104.095699
 11
354.548700
 21
102.756121
  0
LINE
  8
1
 62
7
  6
CONTINUOUS
 10
354.191221
 20
105.792755
 11
352.945339
 21
104.546873
  0
LINE
  8
1
 62
7
  6
CONTINUOUS
 10
362.326875
 20
110.534296
 11
360.987297
 21
109.194718
  0
LINE
  8
1
 62
7
  6
CONTINUOUS
 10
360.536123
 20
112.137657
 11
359.290241
 21
110.891774
  0
LINE
  8
1
 62
7
  6
CONTINUOUS
 10
356.593927
 20
100.993736
 11
356.311085
 21
100.993736
  0
LINE
  8
1
 62
7
  6
CONTINUOUS
 10
362.382152
 20
110.479018
 11
361.478347
 21
111.382824
  0
LINE
  8
1
 62
7
  6
CONTINUOUS
 10
364.089259
 20
108.771911
 11
364.089259
 21
108.489068
  0
LINE
  8
1
 62
7
  6
CONTINUOUS
 10
354.603978
 20
102.700843
 11
353.700172
 21
103.604649
  0
LINE
  8
1
 62
7
  6
CONTINUOUS
 10
353.896871
 20
100.993736
 11
356.311085
 21
100.993736
  0
LINE
  8
1
 62
7
  6
CONTINUOUS
 10
364.087828
 20
111.132647
 11
364.087828
 21
108.771911
  0
LINE
  8
1
 62
7
  6
CONTINUOUS
 10
353.866391
 20
111.549043
 11
353.345807
 21
111.028459
  0
LINE
  8
1
 62
7
  6
CONTINUOUS
 10
137.034550
 20
123.893736
 11
136.170388
 21
123.893736
  0
LINE
  8
1
 62
7
  6
CONTINUOUS
 10
69.634550
 20
157.593736
 11
70.498712
 21
157.593736
  0
LINE
  8
1
 62
7
  6
CONTINUOUS
 10
137.034550
 20
157.593736
 11
135.930529
 21
157.593736
  0
LINE
  8
1
 62
7
  6
CONTINUOUS
 10
69.634550
 20
123.893736
 11
70.738572
 21
123.893736
  0
LINE
  8
1
 62
7
  6
CONTINUOUS
 10
69.634550
 20
152.738433
 11
69.634550
 21
128.749040
  0
LINE
  8
1
 62
7
  6
CONTINUOUS
 10
137.034550
 20
152.738433
 11
137.034550
 21
128.749040
  0
LINE
  8
1
 62
7
  6
CONTINUOUS
 10
103.334550
 20
178.472150
 11
103.334550
 21
174.932142
  0
LINE
  8
1
 62
7
  6
CONTINUOUS
 10
120.184550
 20
174.443736
 11
120.184550
 21
173.579574
  0
LINE
  8
1
 62
7
  6
CONTINUOUS
 10
86.484550
 20
174.443736
 11
86.484550
 21
173.339715
  0
LINE
  8
1
 62
7
  6
CONTINUOUS
 10
115.329247
 20
174.443736
 11
103.334550
 21
174.443736
  0
LINE
  8
1
 62
7
  6
CONTINUOUS
 10
123.617768
 20
171.010519
 11
133.601332
 21
161.026954
  0
LINE
  8
1
 62
7
  6
CONTINUOUS
 10
103.334550
 20
174.443736
 11
91.339854
 21
174.443736
  0
LINE
  8
1
 62
7
  6
CONTINUOUS
 10
103.334550
 20
174.932142
 11
103.334550
 21
178.472150
  0
LINE
  8
1
 62
7
  6
CONTINUOUS
 10
73.067768
 20
161.026954
 11
83.051332
 21
171.010519
  0
LINE
  8
1
 62
7
  6
CONTINUOUS
 10
126.743319
 20
113.602505
 11
125.312811
 21
112.171997
  0
LINE
  8
1
 62
7
  6
CONTINUOUS
 10
79.925782
 20
113.602505
 11
83.051332
 21
110.476954
  0
LINE
  8
1
 62
7
  6
CONTINUOUS
 10
125.312811
 20
112.171997
 11
123.617768
 21
110.476954
  0
LINE
  8
1
 62
7
  6
CONTINUOUS
 10
120.184550
 20
107.043736
 11
120.184550
 21
108.147758
  0
LINE
  8
1
 62
7
  6
CONTINUOUS
 10
86.484550
 20
107.043736
 11
86.484550
 21
107.907899
  0
LINE
  8
1
 62
7
  6
CONTINUOUS
 10
115.329247
 20
107.043736
 11
91.339854
 21
107.043736
  0
LINE
  8
1
 62
7
  6
CONTINUOUS
 10
79.925782
 20
113.602505
 11
73.067768
 21
120.460519
  0
LINE
  8
1
 62
7
  6
CONTINUOUS
 10
133.601332
 20
120.460519
 11
126.743319
 21
113.602505
  0
LINE
  8
1
 62
7
  6
CONTINUOUS
 10
301.253473
 20
112.079523
 11
303.574541
 21
109.758455
  0
LINE
  8
1
 62
7
  6
CONTINUOUS
 10
263.678067
 20
140.743736
 11
214.273236
 21
140.743736
  0
LINE
  8
1
 62
7
  6
CONTINUOUS
 10
218.603651
 20
100.993736
 11
218.603651
 21
179.243736
  0
LINE
  8
1
 62
7
  6
CONTINUOUS
 10
253.603651
 20
175.313578
 11
223.886771
 21
176.333854
  0
LINE
  8
1
 62
7
  6
CONTINUOUS
 10
228.403651
 20
101.164796
 11
230.403651
 21
101.199706
  0
LINE
  8
1
 62
7
  6
CONTINUOUS
 10
230.603651
 20
101.399706
 11
230.603651
 21
103.458019
  0
LINE
  8
1
 62
7
  6
CONTINUOUS
 10
222.203651
 20
101.056575
 11
228.403651
 21
101.164796
  0
LINE
  8
1
 62
7
  6
CONTINUOUS
 10
255.603651
 20
116.743736
 11
255.603651
 21
108.173895
  0
LINE
  8
1
 62
7
  6
CONTINUOUS
 10
253.603651
 20
106.173895
 11
232.603651
 21
105.458019
  0
LINE
  8
1
 62
7
  6
CONTINUOUS
 10
218.603651
 20
100.993736
 11
222.203651
 21
101.056575
  0
LINE
  8
1
 62
7
  6
CONTINUOUS
 10
218.603644
 20
180.493736
 11
218.603651
 21
179.243736
  0
LINE
  8
1
 62
7
  6
CONTINUOUS
 10
222.903651
 20
179.436135
 11
222.903651
 21
177.333711
  0
LINE
  8
1
 62
7
  6
CONTINUOUS
 10
218.603644
 20
180.493736
 11
221.903651
 21
180.436135
  0
LINE
  8
1
 62
7
  6
CONTINUOUS
 10
218.603651
 20
179.243736
 11
218.603644
 21
180.493736
  0
LINE
  8
1
 62
7
  6
CONTINUOUS
 10
255.603651
 20
173.313578
 11
255.603651
 21
164.743736
  0
LINE
  8
1
 62
7
  6
CONTINUOUS
 10
255.603651
 20
116.743736
 11
255.603651
 21
164.743736
  0
LINE
  8
1
 62
7
  6
CONTINUOUS
 10
82.634550
 20
101.493736
 11
82.634550
 21
103.943736
  0
LINE
  8
1
 62
7
  6
DIVIDE
 10
90.353361
 20
128.743736
 11
90.353361
 21
123.743736
  0
LINE
  8
1
 62
7
  6
DIVIDE
 10
90.353361
 20
123.743736
 11
116.353361
 21
123.743736
  0
LINE
  8
1
 62
7
  6
DIVIDE
 10
116.353361
 20
123.743736
 11
116.353361
 21
128.743736
  0
LINE
  8
1
 62
7
  6
DIVIDE
 10
116.353361
 20
128.743736
 11
90.353361
 21
128.743736
  0
LINE
  8
1
 62
7
  6
HIDDEN
 10
113.447714
 20
160.329948
 11
93.447714
 21
160.329948
  0
LINE
  8
1
 62
7
  6
HIDDEN
 10
113.447714
 20
156.329948
 11
113.447714
 21
160.329948
  0
LINE
  8
1
 62
7
  6
HIDDEN
 10
93.447714
 20
156.329948
 11
113.447714
 21
156.329948
  0
LINE
  8
1
 62
7
  6
HIDDEN
 10
93.447714
 20
160.329948
 11
93.447714
 21
156.329948
  0
LINE
  8
1
 62
7
  6
DOT
 10
212.103651
 20
177.243736
 11
212.103651
 21
104.243736
  0
LINE
  8
1
 62
7
  6
DOT
 10
212.103651
 20
180.743736
 11
218.603651
 21
180.743736
  0
LINE
  8
1
 62
7
  6
DOT
 10
209.103651
 20
144.243736
 11
209.103651
 21
107.243736
  0
LINE
  8
1
 62
7
  6
DOT
 10
212.103651
 20
100.743736
 11
218.603651
 21
100.743736
  0
LINE
  8
1
 62
7
  6
DOT
 10
212.103651
 20
104.243736
 11
212.103651
 21
100.743736
  0
LINE
  8
1
 62
7
  6
DOT
 10
209.103651
 20
104.593736
 11
209.453651
 21
104.243736
  0
LINE
  8
1
 62
7
  6
DOT
 10
212.103651
 20
104.243736
 11
209.453651
 21
104.243736
  0
LINE
  8
1
 62
7
  6
DOT
 10
209.103651
 20
107.243736
 11
209.103651
 21
104.593736
  0
LINE
  8
1
 62
7
  6
DOT
 10
212.103651
 20
180.743736
 11
212.103651
 21
177.243736
  0
LINE
  8
1
 62
7
  6
DOT
 10
209.103651
 20
176.893736
 11
209.453651
 21
177.243736
  0
LINE
  8
1
 62
7
  6
DOT
 10
209.453651
 20
177.243736
 11
212.103651
 21
177.243736
  0
LINE
  8
1
 62
7
  6
DOT
 10
209.103651
 20
176.893736
 11
209.103651
 21
174.243736
  0
LINE
  8
1
 62
7
  6
DOT
 10
209.103651
 20
174.243736
 11
209.103651
 21
144.243736
  0
LINE
  8
1
 62
7
  6
DOT
 10
200.015374
 20
140.743736
 11
214.273236
 21
140.743736
  0
LINE
  8
1
 62
7
  6
DOT
 10
209.103651
 20
144.743736
 11
203.525124
 21
144.743736
  0
LINE
  8
1
 62
7
  6
DOT
 10
218.603651
 20
180.743736
 11
218.603651
 21
178.743736
  0
LINE
  8
1
 62
7
  6
DOT
 10
218.603651
 20
178.743736
 11
218.603651
 21
100.743736
  0
CIRCLE
  8
1
 62
7
  6
CONTINUOUS
 10
86.427653
 20
222.806052
 40
2.200000
  0
CIRCLE
  8
1
 62
7
  6
CONTINUOUS
 10
86.427653
 20
222.806052
 40
4.600000
  0
ARC
  8
1
 62
7
  6
CONTINUOUS
 10
103.334550
 20
140.743736
 40
47.000000
 50
-142.465680
 51
-127.571025
  0
ARC
  8
1
 62
7
  6
CONTINUOUS
 10
103.334550
 20
140.743736
 40
47.000000
 50
38.128164
 51
52.535834
  0
ARC
  8
1
 62
7
  6
CONTINUOUS
 10
357.589259
 20
173.993736
 40
5.500000
 50
135.000000
 51
-45.000000
  0
ARC
  8
1
 62
7
  6
CONTINUOUS
 10
291.089259
 20
173.993736
 40
5.500000
 50
-135.000000
 51
45.000000
  0
ARC
  8
1
 62
7
  6
CONTINUOUS
 10
291.089259
 20
107.493736
 40
5.500000
 50
-45.000000
 51
135.000000
  0
ARC
  8
1
 62
7
  6
CONTINUOUS
 10
357.589259
 20
107.493736
 40
5.500000
 50
45.000000
 51
-135.000000
  0
CIRCLE
  8
1
 62
7
  6
CONTINUOUS
 10
103.334550
 20
140.743736
 40
47.000000
  0
CIRCLE
  8
1
 62
7
  6
CONTINUOUS
 10
136.584550
 20
107.493736
 40
4.200000
  0
CIRCLE
  8
1
 62
7
  6
CONTINUOUS
 10
136.584550
 20
173.993736
 40
4.200000
  0
CIRCLE
  8
1
 62
7
  6
CONTINUOUS
 10
70.084550
 20
107.493736
 40
4.200000
  0
CIRCLE
  8
1
 62
7
  6
CONTINUOUS
 10
70.084550
 20
173.993736
 40
4.200000
  0
CIRCLE
  8
1
 62
7
  6
CONTINUOUS
 10
357.589259
 20
173.993736
 40
3.800000
  0
CIRCLE
  8
1
 62
7
  6
CONTINUOUS
 10
103.334550
 20
140.743736
 40
7.000000
  0
CIRCLE
  8
1
 62
7
  6
CONTINUOUS
 10
291.089259
 20
173.993736
 40
3.800000
  0
CIRCLE
  8
1
 62
7
  6
CONTINUOUS
 10
291.089259
 20
107.493736
 40
3.800000
  0
CIRCLE
  8
1
 62
7
  6
CONTINUOUS
 10
357.589259
 20
107.493736
 40
3.800000
  0
ARC
  8
1
 62
7
  6
CONTINUOUS
 10
211.895779
 20
140.205190
 40
10.005383
 50
124.860137
 51
135.587845
  0
ARC
  8
1
 62
7
  6
CONTINUOUS
 10
208.656056
 20
143.489715
 40
5.393190
 50
136.427243
 51
151.835040
  0
ARC
  8
1
 62
7
  6
CONTINUOUS
 10
207.150058
 20
144.383362
 40
3.644515
 50
153.045405
 51
171.978905
  0
ARC
  8
1
 62
7
  6
CONTINUOUS
 10
207.204219
 20
144.436328
 40
3.691243
 50
172.910356
 51
-169.580883
  0
ARC
  8
1
 62
7
  6
CONTINUOUS
 10
208.947958
 20
144.767703
 40
5.466168
 50
-169.470192
 51
-157.296865
  0
ARC
  8
1
 62
7
  6
CONTINUOUS
 10
213.609770
 20
146.678576
 40
10.504347
 50
-157.495649
 51
-150.785513
  0
ARC
  8
1
 62
7
  6
CONTINUOUS
 10
232.399929
 20
157.104585
 40
31.993182
 50
-150.913204
 51
-148.612200
  0
ARC
  8
1
 62
7
  6
CONTINUOUS
 10
162.479773
 20
114.471331
 40
49.899571
 50
29.866199
 51
31.362551
  0
ARC
  8
1
 62
7
  6
CONTINUOUS
 10
193.906946
 20
132.513168
 40
13.661813
 50
24.502200
 51
29.884118
  0
ARC
  8
1
 62
7
  6
CONTINUOUS
 10
199.795116
 20
135.198651
 40
7.190155
 50
14.596174
 51
24.489030
  0
ARC
  8
1
 62
7
  6
CONTINUOUS
 10
202.195480
 20
135.834423
 40
4.707054
 50
-0.337985
 51
14.470197
  0
ARC
  8
1
 62
7
  6
CONTINUOUS
 10
202.877918
 20
135.843939
 40
4.024707
 50
-18.613905
 51
-0.530769
  0
ARC
  8
1
 62
7
  6
CONTINUOUS
 10
202.074056
 20
136.101259
 40
4.868670
 50
-35.694691
 51
-18.464168
  0
ARC
  8
1
 62
7
  6
CONTINUOUS
 10
199.645589
 20
137.735610
 40
7.795023
 50
-48.444705
 51
-35.036016
  0
ARC
  8
1
 62
7
  6
CONTINUOUS
 10
82.134550
 20
101.493736
 40
0.500000
 50
-90.000000
 51
0.000000
  0
ARC
  8
1
 62
7
  6
CONTINUOUS
 10
75.834550
 20
101.993736
 40
1.000000
 50
-90.000000
 51
0.000000
  0
ARC
  8
1
 62
7
  6
CONTINUOUS
 10
124.534550
 20
101.493736
 40
0.500000
 50
180.000000
 51
-90.000000
  0
ARC
  8
1
 62
7
  6
CONTINUOUS
 10
130.834550
 20
101.993736
 40
1.000000
 50
180.000000
 51
-90.000000
  0
ARC
  8
1
 62
7
  6
CONTINUOUS
 10
351.839259
 20
109.422669
 40
5.000000
 50
135.000000
 51
180.000000
  0
ARC
  8
1
 62
7
  6
CONTINUOUS
 10
312.059822
 20
118.243736
 40
12.000000
 50
-135.000000
 51
-90.000000
  0
ARC
  8
1
 62
7
  6
CONTINUOUS
 10
301.839259
 20
128.464299
 40
12.000000
 50
180.000000
 51
-135.000000
  0
ARC
  8
1
 62
7
  6
CONTINUOUS
 10
301.839259
 20
153.023174
 40
12.000000
 50
135.000000
 51
180.000000
  0
ARC
  8
1
 62
7
  6
CONTINUOUS
 10
312.059822
 20
163.243736
 40
12.000000
 50
90.000000
 51
135.000000
  0
ARC
  8
1
 62
7
  6
CONTINUOUS
 10
336.618697
 20
163.243736
 40
12.000000
 50
45.000000
 51
90.000000
  0
ARC
  8
1
 62
7
  6
CONTINUOUS
 10
346.839259
 20
153.023174
 40
12.000000
 50
0.000000
 51
45.000000
  0
ARC
  8
1
 62
7
  6
CONTINUOUS
 10
346.839259
 20
128.464299
 40
12.000000
 50
-45.000000
 51
-0.000000
  0
ARC
  8
1
 62
7
  6
CONTINUOUS
 10
336.618697
 20
118.243736
 40
12.000000
 50
-90.000000
 51
-45.000000
  0
ARC
  8
1
 62
7
  6
CONTINUOUS
 10
140.834550
 20
115.243736
 40
1.000000
 50
-90.000000
 51
0.000000
  0
ARC
  8
1
 62
7
  6
CONTINUOUS
 10
65.834550
 20
115.243736
 40
1.000000
 50
180.000000
 51
-90.000000
  0
ARC
  8
1
 62
7
  6
CONTINUOUS
 10
65.834550
 20
166.243736
 40
1.000000
 50
90.000000
 51
180.000000
  0
ARC
  8
1
 62
7
  6
CONTINUOUS
 10
77.834550
 20
178.243736
 40
1.000000
 50
90.000000
 51
180.000000
  0
ARC
  8
1
 62
7
  6
CONTINUOUS
 10
140.834550
 20
166.243736
 40
1.000000
 50
0.000000
 51
90.000000
  0
ARC
  8
1
 62
7
  6
CONTINUOUS
 10
128.834550
 20
178.243736
 40
1.000000
 50
0.000000
 51
90.000000
  0
ARC
  8
1
 62
7
  6
CONTINUOUS
 10
73.334550
 20
170.743736
 40
3.500000
 50
-90.000000
 51
-0.000000
  0
ARC
  8
1
 62
7
  6
CONTINUOUS
 10
73.334550
 20
110.743736
 40
3.500000
 50
0.000000
 51
90.000000
  0
ARC
  8
1
 62
7
  6
CONTINUOUS
 10
133.334550
 20
110.743736
 40
3.500000
 50
90.000000
 51
180.000000
  0
ARC
  8
1
 62
7
  6
CONTINUOUS
 10
133.334550
 20
170.743736
 40
3.500000
 50
180.000000
 51
-90.000000
  0
ARC
  8
1
 62
7
  6
CONTINUOUS
 10
70.584550
 20
173.493736
 40
7.000000
 50
90.000000
 51
180.000000
  0
ARC
  8
1
 62
7
  6
CONTINUOUS
 10
136.084550
 20
173.493736
 40
7.000000
 50
0.000000
 51
90.000000
  0
ARC
  8
1
 62
7
  6
CONTINUOUS
 10
136.084550
 20
107.993736
 40
7.000000
 50
-90.000000
 51
-0.000000
  0
ARC
  8
1
 62
7
  6
CONTINUOUS
 10
70.584550
 20
107.993736
 40
7.000000
 50
180.000000
 51
-90.000000
  0
ARC
  8
1
 62
7
  6
CONTINUOUS
 10
302.839259
 20
101.993736
 40
1.000000
 50
180.000000
 51
-90.000000
  0
ARC
  8
1
 62
7
  6
CONTINUOUS
 10
345.739259
 20
102.093736
 40
1.104536
 50
-95.194429
 51
-5.194429
  0
ARC
  8
1
 62
7
  6
CONTINUOUS
 10
357.089259
 20
173.493736
 40
7.000000
 50
0.000000
 51
90.000000
  0
ARC
  8
1
 62
7
  6
CONTINUOUS
 10
353.896871
 20
179.493736
 40
1.000000
 50
86.934469
 51
90.000000
  0
ARC
  8
1
 62
7
  6
CONTINUOUS
 10
363.089259
 20
170.301348
 40
1.000000
 50
0.000000
 51
135.000000
  0
ARC
  8
1
 62
7
  6
CONTINUOUS
 10
353.896871
 20
179.493736
 40
1.000000
 50
-45.000000
 51
86.934469
  0
ARC
  8
1
 62
7
  6
CONTINUOUS
 10
291.589259
 20
173.493736
 40
7.000000
 50
90.000000
 51
180.000000
  0
ARC
  8
1
 62
7
  6
CONTINUOUS
 10
285.589259
 20
170.301348
 40
1.000000
 50
176.934469
 51
180.000000
  0
ARC
  8
1
 62
7
  6
CONTINUOUS
 10
294.781647
 20
179.493736
 40
1.000000
 50
90.000000
 51
-135.000000
  0
ARC
  8
1
 62
7
  6
CONTINUOUS
 10
285.589259
 20
170.301348
 40
1.000000
 50
45.000000
 51
176.934469
  0
ARC
  8
1
 62
7
  6
CONTINUOUS
 10
291.589259
 20
107.993736
 40
7.000000
 50
180.000000
 51
-90.000000
  0
ARC
  8
1
 62
7
  6
CONTINUOUS
 10
294.781647
 20
101.993736
 40
1.000000
 50
-93.065531
 51
-90.000000
  0
ARC
  8
1
 62
7
  6
CONTINUOUS
 10
285.589259
 20
111.186125
 40
1.000000
 50
180.000000
 51
-45.000000
  0
ARC
  8
1
 62
7
  6
CONTINUOUS
 10
294.781647
 20
101.993736
 40
1.000000
 50
135.000000
 51
-93.065531
  0
ARC
  8
1
 62
7
  6
CONTINUOUS
 10
357.089259
 20
107.993736
 40
7.000000
 50
-90.000000
 51
-0.000000
  0
ARC
  8
1
 62
7
  6
CONTINUOUS
 10
363.089259
 20
111.186125
 40
1.000000
 50
-3.065531
 51
0.000000
  0
ARC
  8
1
 62
7
  6
CONTINUOUS
 10
353.896871
 20
101.993736
 40
1.000000
 50
-90.000000
 51
45.000000
  0
ARC
  8
1
 62
7
  6
CONTINUOUS
 10
363.089259
 20
111.186125
 40
1.000000
 50
-135.000000
 51
-3.065531
  0
ARC
  8
1
 62
7
  6
CONTINUOUS
 10
81.356289
 20
128.749040
 40
11.721739
 50
180.000000
 51
-135.000000
  0
ARC
  8
1
 62
7
  6
CONTINUOUS
 10
81.356289
 20
152.738433
 40
11.721739
 50
135.000000
 51
180.000000
  0
ARC
  8
1
 62
7
  6
CONTINUOUS
 10
125.312811
 20
152.738433
 40
11.721739
 50
0.000000
 51
45.000000
  0
ARC
  8
1
 62
7
  6
CONTINUOUS
 10
125.312811
 20
128.749040
 40
11.721739
 50
-45.000000
 51
-0.000000
  0
ARC
  8
1
 62
7
  6
CONTINUOUS
 10
91.339854
 20
162.721997
 40
11.721739
 50
90.000000
 51
135.000000
  0
ARC
  8
1
 62
7
  6
CONTINUOUS
 10
115.329247
 20
162.721997
 40
11.721739
 50
45.000000
 51
90.000000
  0
ARC
  8
1
 62
7
  6
CONTINUOUS
 10
91.339854
 20
118.765476
 40
11.721739
 50
-135.000000
 51
-90.000000
  0
ARC
  8
1
 62
7
  6
CONTINUOUS
 10
115.329247
 20
118.765476
 40
11.721739
 50
-90.000000
 51
-45.000000
  0
ARC
  8
1
 62
7
  6
CONTINUOUS
 10
299.839259
 20
110.665309
 40
2.000000
 50
0.000000
 51
45.000000
  0
ARC
  8
1
 62
7
  6
CONTINUOUS
 10
253.603651
 20
173.313578
 40
2.000000
 50
0.000000
 51
90.000000
  0
ARC
  8
1
 62
7
  6
CONTINUOUS
 10
253.603651
 20
108.173895
 40
2.000000
 50
-90.000000
 51
-0.000000
  0
ARC
  8
1
 62
7
  6
CONTINUOUS
 10
232.603651
 20
103.458019
 40
2.000000
 50
90.000000
 51
180.000000
  0
ARC
  8
1
 62
7
  6
CONTINUOUS
 10
221.903651
 20
179.436135
 40
1.000000
 50
0.000000
 51
90.000000
  0
ARC
  8
1
 62
7
  6
CONTINUOUS
 10
223.903651
 20
177.333711
 40
1.000000
 50
180.000000
 51
-90.967219
  0
ARC
  8
1
 62
7
  6
CONTINUOUS
 10
230.403651
 20
101.399706
 40
0.200000
 50
-90.000000
 51
0.000000
  0
ARC
  8
1
 62
7
  6
CONTINUOUS
 10
84.634550
 20
103.943736
 40
2.000000
 50
180.000000
 51
-90.000000
  0
ARC
  8
1
 62
7
  6
CONTINUOUS
 10
122.034550
 20
103.943736
 40
2.000000
 50
-90.000000
 51
-0.000000
  0
LINE
  8
1
 62
7
  6
CONTINUOUS
 10
46.938603
 20
218.952739
 11
56.938603
 21
218.952739
  0
LINE
  8
1
 62
7
  6
CONTINUOUS
 10
56.938603
 20
218.952739
 11
56.938603
 21
228.952739
  0
LINE
  8
1
 62
7
  6
CONTINUOUS
 10
56.938603
 20
228.952739
 11
46.938603
 21
228.952739
  0
LINE
  8
1
 62
7
  6
CONTINUOUS
 10
46.938603
 20
228.952739
 11
46.938603
 21
218.952739
  0
LINE
  8
1
 62
7
  6
CONTINUOUS
 10
329.317830
 20
207.659662
 11
246.521813
 21
207.659662
  0
LINE
  8
1
 62
7
  6
CONTINUOUS
 10
246.521813
 20
207.659662
 11
239.876721
 21
192.234086
  0
LINE
  8
1
 62
7
  6
CONTINUOUS
 10
240.755840
 20
195.339667
 11
241.529669
 21
195.006314
  0
LINE
  8
1
 62
7
  6
CONTINUOUS
 10
241.529669
 20
195.006314
 11
239.876721
 21
192.234086
  0
LINE
  8
1
 62
7
  6
CONTINUOUS
 10
239.876721
 20
192.234086
 11
240.755840
 21
195.339667
  0
LINE
  8
1
 62
7
  6
CONTINUOUS
 10
183.575092
 20
202.392106
 11
143.639368
 21
202.392106
  0
LINE
  8
1
 62
7
  6
CONTINUOUS
 10
143.639368
 20
202.392106
 11
104.625196
 21
158.410722
  0
CIRCLE
  8
1
 62
7
  6
CONTINUOUS
 10
104.625196
 20
158.410722
 40
0.800000
  0
LINE
  8
1
 62
7
  6
CONTINUOUS
 10
189.240618
 20
156.764124
 11
150.003658
 21
156.764124
  0
LINE
  8
1
 62
7
  6
CONTINUOUS
 10
150.003658
 20
156.764124
 11
113.602269
 21
128.743736
  0
LINE
  8
1
 62
7
  6
CONTINUOUS
 10
115.881040
 20
131.029494
 11
116.394991
 21
130.361819
  0
LINE
  8
1
 62
7
  6
CONTINUOUS
 10
116.394991
 20
130.361819
 11
113.602269
 21
128.743736
  0
LINE
  8
1
 62
7
  6
CONTINUOUS
 10
113.602269
 20
128.743736
 11
115.881040
 21
131.029494
  0
TEXT
  8
1
 62
7
  6
CONTINUOUS
 10
52.159268
 20
70.320630
 40
4.000000
 41
0.900000
  1
適合モ－タ
  7
KANJI
 50
0.000000
 51
0.000000
  0
TEXT
  8
1
 62
7
  6
CONTINUOUS
 10
52.159268
 20
63.320630
 40
4.000000
 41
0.900000
  1
　　ＦＹ８Ｓ１５－Ｄ３
  7
KANJI
 50
0.000000
 51
0.000000
  0
TEXT
  8
1
 62
7
  6
CONTINUOUS
 10
52.159268
 20
56.320630
 40
4.000000
 41
0.900000
  1
　　ＦＹ８ＰＦ１５Ｎ－Ｄ３
  7
KANJI
 50
0.000000
 51
0.000000
  0
TEXT
  8
1
 62
7
  6
CONTINUOUS
 10
246.532121
 20
202.538555
 40
4.000000
 41
0.450000
  1
ＨＥＩＧＨＴ　ＡＦＴＥＲ　ＲＯＴＯＲ　ＣＯＶＥＲ　ＭＯＵＮＴＥＤ　ＴＯ　ＭＯＴＯＲ
  7
KANJI
 50
0.000000
 51
0.000000
  0
TEXT
  8
1
 62
7
  6
CONTINUOUS
 10
150.846363
 20
151.875826
 40
4.000000
 41
0.450000
  1
ＭＡＴＥＲＩＡＬ　ＩＮＤＩＣＡＴＩＯＮ
  7
KANJI
 50
0.000000
 51
0.000000
  0
TEXT
  8
1
 62
7
  6
CONTINUOUS
 10
143.678503
 20
197.122220
 40
4.000000
 41
0.450000
  1
ＲＥＣＯＧＮＩＴＩＯＮ　ＮＵＭＢＥＲ
  7
KANJI
 50
0.000000
 51
0.000000
  0
TEXT
  8
1
 62
7
  6
CONTINUOUS
 10
83.140061
 20
209.314193
 40
4.000000
 41
0.900000
  1
Ｍ５
  7
KANJI
 50
0.000000
 51
0.000000
  0
TEXT
  8
1
 62
7
  6
CONTINUOUS
 10
68.503310
 20
203.570800
 40
4.000000
 41
0.450000
  1
ＰＬＡＩＮ　ＷＡＳＨＥＲ
  7
KANJI
 50
0.000000
 51
0.000000
  0
TEXT
  8
1
 62
7
  6
CONTINUOUS
 10
68.772715
 20
209.341850
 40
4.000000
 41
0.900000
  1
平座金
  7
KANJI
 50
0.000000
 51
0.000000
  0
TEXT
  8
1
 62
7
  6
CONTINUOUS
 10
49.751103
 20
221.452739
 40
5.000000
 41
0.900000
  1
A
  7
KANJI
 50
0.000000
 51
0.000000
  0
TEXT
  8
1
 62
7
  6
CONTINUOUS
 10
246.918330
 20
208.580259
 40
3.600000
 41
0.900000
  1
モ－タ取り付け時の高め
  7
KANJI
 50
0.000000
 51
0.000000
  0
TEXT
  8
1
 62
7
  6
CONTINUOUS
 10
90.831905
 20
123.743736
 40
5.000000
 41
0.967500
  1
＞POM＜
  7
KANJI
 50
0.000000
 51
0.000000
  0
TEXT
  8
1
 62
7
  6
CONTINUOUS
 10
143.678503
 20
203.341629
 40
4.000000
 41
0.720000
  1
認識番号：ＡＤ０９７６８
  7
KANJI
 50
0.000000
 51
0.000000
  0
TEXT
  8
1
 62
7
  6
CONTINUOUS
 10
150.846363
 20
158.188329
 40
4.000000
 41
0.720000
  1
坑質表示
  7
KANJI
 50
0.000000
 51
0.000000
  0
TEXT
  8
1
 62
7
  6
CONTINUOUS
 10
76.000000
 20
70.497849
 40
4.000000
 41
0.630000
  1
ADAPTING MOTOR
  7
KANJI
 50
0.000000
 51
0.000000
  0
LINE
  8
1
 62
7
  6
CONTINUOUS
 10
301.839259
 20
89.808422
 11
346.839259
 21
89.808422
  0
LINE
  8
1
 62
7
  6
CONTINUOUS
 10
301.839259
 20
100.993736
 11
301.839259
 21
88.308422
  0
LINE
  8
1
 62
7
  6
CONTINUOUS
 10
346.839259
 20
100.993736
 11
346.839259
 21
88.308422
  0
LINE
  8
1
 62
7
  6
CONTINUOUS
 10
301.839259
 20
89.808422
 11
305.039259
 21
90.224422
  0
LINE
  8
1
 62
7
  6
CONTINUOUS
 10
305.039259
 20
90.224422
 11
305.039259
 21
89.392422
  0
LINE
  8
1
 62
7
  6
CONTINUOUS
 10
305.039259
 20
89.392422
 11
301.839259
 21
89.808422
  0
LINE
  8
1
 62
7
  6
CONTINUOUS
 10
346.839259
 20
89.808422
 11
343.639259
 21
89.392422
  0
LINE
  8
1
 62
7
  6
CONTINUOUS
 10
343.639259
 20
89.392422
 11
343.639259
 21
90.224422
  0
LINE
  8
1
 62
7
  6
CONTINUOUS
 10
343.639259
 20
90.224422
 11
346.839259
 21
89.808422
  0
TEXT
  8
1
 62
7
  6
CONTINUOUS
 10
311.389277
 20
91.808422
 40
3.200000
 41
0.900000
  1
48以下　ＭＡＸ
  7
KANJI
 50
0.000000
 51
0.000000
  0
LINE
  8
1
 62
7
  6
CONTINUOUS
 10
218.603652
 20
83.533170
 11
255.603652
 21
83.533170
  0
LINE
  8
1
 62
7
  6
CONTINUOUS
 10
255.603652
 20
107.173895
 11
255.603652
 21
82.033170
  0
LINE
  8
1
 62
7
  6
CONTINUOUS
 10
218.603652
 20
99.993736
 11
218.603652
 21
82.033170
  0
LINE
  8
1
 62
7
  6
CONTINUOUS
 10
218.603652
 20
83.533170
 11
221.803652
 21
83.949170
  0
LINE
  8
1
 62
7
  6
CONTINUOUS
 10
221.803652
 20
83.949170
 11
221.803652
 21
83.117170
  0
LINE
  8
1
 62
7
  6
CONTINUOUS
 10
221.803652
 20
83.117170
 11
218.603652
 21
83.533170
  0
LINE
  8
1
 62
7
  6
CONTINUOUS
 10
255.603652
 20
83.533170
 11
252.403652
 21
83.117170
  0
LINE
  8
1
 62
7
  6
CONTINUOUS
 10
252.403652
 20
83.117170
 11
252.403652
 21
83.949170
  0
LINE
  8
1
 62
7
  6
CONTINUOUS
 10
252.403652
 20
83.949170
 11
255.603652
 21
83.533170
  0
TEXT
  8
1
 62
7
  6
CONTINUOUS
 10
235.316369
 20
85.533170
 40
3.200000
 41
0.900000
  1
37
  7
KANJI
 50
0.000000
 51
0.000000
  0
LINE
  8
1
 62
7
  6
CONTINUOUS
 10
218.603652
 20
92.800814
 11
230.603652
 21
92.800814
  0
LINE
  8
1
 62
7
  6
CONTINUOUS
 10
230.603652
 20
100.399706
 11
230.603652
 21
91.300814
  0
LINE
  8
1
 62
7
  6
CONTINUOUS
 10
218.603652
 20
99.993736
 11
218.603652
 21
91.300814
  0
LINE
  8
1
 62
7
  6
CONTINUOUS
 10
218.603652
 20
92.800814
 11
221.803652
 21
93.216814
  0
LINE
  8
1
 62
7
  6
CONTINUOUS
 10
221.803652
 20
93.216814
 11
221.803652
 21
92.384814
  0
LINE
  8
1
 62
7
  6
CONTINUOUS
 10
221.803652
 20
92.384814
 11
218.603652
 21
92.800814
  0
LINE
  8
1
 62
7
  6
CONTINUOUS
 10
230.603652
 20
92.800814
 11
227.403652
 21
92.384814
  0
LINE
  8
1
 62
7
  6
CONTINUOUS
 10
227.403652
 20
92.384814
 11
227.403652
 21
93.216814
  0
LINE
  8
1
 62
7
  6
CONTINUOUS
 10
227.403652
 20
93.216814
 11
230.603652
 21
92.800814
  0
TEXT
  8
1
 62
7
  6
CONTINUOUS
 10
222.673031
 20
94.800814
 40
3.200000
 41
0.900000
  1
12
  7
KANJI
 50
0.000000
 51
0.000000
  0
LINE
  8
1
 62
7
  6
CONTINUOUS
 10
63.584551
 20
189.036922
 11
143.084551
 21
189.036922
  0
LINE
  8
1
 62
7
  6
CONTINUOUS
 10
143.084551
 20
174.493736
 11
143.084551
 21
190.536922
  0
LINE
  8
1
 62
7
  6
CONTINUOUS
 10
63.584551
 20
174.493736
 11
63.584551
 21
190.536922
  0
LINE
  8
1
 62
7
  6
CONTINUOUS
 10
63.584551
 20
189.036922
 11
66.784551
 21
189.452922
  0
LINE
  8
1
 62
7
  6
CONTINUOUS
 10
66.784551
 20
189.452922
 11
66.784551
 21
188.620922
  0
LINE
  8
1
 62
7
  6
CONTINUOUS
 10
66.784551
 20
188.620922
 11
63.584551
 21
189.036922
  0
LINE
  8
1
 62
7
  6
CONTINUOUS
 10
143.084551
 20
189.036922
 11
139.884551
 21
188.620922
  0
LINE
  8
1
 62
7
  6
CONTINUOUS
 10
139.884551
 20
188.620922
 11
139.884551
 21
189.452922
  0
LINE
  8
1
 62
7
  6
CONTINUOUS
 10
139.884551
 20
189.452922
 11
143.084551
 21
189.036922
  0
TEXT
  8
1
 62
7
  6
CONTINUOUS
 10
98.215939
 20
191.036922
 40
3.200000
 41
0.900000
  1
79.5
  7
KANJI
 50
0.000000
 51
0.000000
  0
LINE
  8
1
 62
7
  6
CONTINUOUS
 10
54.124616
 20
100.993736
 11
54.124616
 21
180.493736
  0
LINE
  8
1
 62
7
  6
CONTINUOUS
 10
69.584551
 20
180.493736
 11
52.624616
 21
180.493736
  0
LINE
  8
1
 62
7
  6
CONTINUOUS
 10
69.584551
 20
100.993736
 11
52.624616
 21
100.993736
  0
LINE
  8
1
 62
7
  6
CONTINUOUS
 10
54.124616
 20
180.493736
 11
54.540616
 21
177.293736
  0
LINE
  8
1
 62
7
  6
CONTINUOUS
 10
54.540616
 20
177.293736
 11
53.708616
 21
177.293736
  0
LINE
  8
1
 62
7
  6
CONTINUOUS
 10
53.708616
 20
177.293736
 11
54.124616
 21
180.493736
  0
LINE
  8
1
 62
7
  6
CONTINUOUS
 10
54.124616
 20
100.993736
 11
53.708616
 21
104.193736
  0
LINE
  8
1
 62
7
  6
CONTINUOUS
 10
53.708616
 20
104.193736
 11
54.540616
 21
104.193736
  0
LINE
  8
1
 62
7
  6
CONTINUOUS
 10
54.540616
 20
104.193736
 11
54.124616
 21
100.993736
  0
TEXT
  8
1
 62
7
  6
CONTINUOUS
 10
52.124616
 20
136.123708
 40
3.200000
 41
0.900000
  1
79.5
  7
KANJI
 50
90.000000
 51
0.000000
  0
LINE
  8
1
 62
7
  6
CONTINUOUS
 10
212.103652
 20
187.460009
 11
255.603652
 21
187.460009
  0
LINE
  8
1
 62
7
  6
CONTINUOUS
 10
255.603652
 20
174.313578
 11
255.603652
 21
188.960009
  0
LINE
  8
1
 62
7
  6
CONTINUOUS
 10
212.103652
 20
181.743736
 11
212.103652
 21
188.960009
  0
LINE
  8
1
 62
7
  6
CONTINUOUS
 10
212.103652
 20
187.460009
 11
215.303652
 21
187.876009
  0
LINE
  8
1
 62
7
  6
CONTINUOUS
 10
215.303652
 20
187.876009
 11
215.303652
 21
187.044009
  0
LINE
  8
1
 62
7
  6
CONTINUOUS
 10
215.303652
 20
187.044009
 11
212.103652
 21
187.460009
  0
LINE
  8
1
 62
7
  6
CONTINUOUS
 10
255.603652
 20
187.460009
 11
252.403652
 21
187.044009
  0
LINE
  8
1
 62
7
  6
CONTINUOUS
 10
252.403652
 20
187.044009
 11
252.403652
 21
187.876009
  0
LINE
  8
1
 62
7
  6
CONTINUOUS
 10
252.403652
 20
187.876009
 11
255.603652
 21
187.460009
  0
TEXT
  8
1
 62
7
  6
CONTINUOUS
 10
228.981061
 20
189.460009
 40
3.200000
 41
0.900000
  1
43.5
  7
KANJI
 50
0.000000
 51
0.000000
  0
LINE
  8
1
 62
7
  6
CONTINUOUS
 10
374.448853
 20
106.243736
 11
374.448853
 21
175.243736
  0
LINE
  8
1
 62
7
  6
CONTINUOUS
 10
337.618697
 20
106.243736
 11
375.948853
 21
106.243736
  0
LINE
  8
1
 62
7
  6
CONTINUOUS
 10
337.618697
 20
175.243736
 11
375.948853
 21
175.243736
  0
LINE
  8
1
 62
7
  6
CONTINUOUS
 10
374.448853
 20
175.243736
 11
374.864853
 21
172.043736
  0
LINE
  8
1
 62
7
  6
CONTINUOUS
 10
374.864853
 20
172.043736
 11
374.032853
 21
172.043736
  0
LINE
  8
1
 62
7
  6
CONTINUOUS
 10
374.032853
 20
172.043736
 11
374.448853
 21
175.243736
  0
LINE
  8
1
 62
7
  6
CONTINUOUS
 10
374.448853
 20
106.243736
 11
374.032853
 21
109.443736
  0
LINE
  8
1
 62
7
  6
CONTINUOUS
 10
374.032853
 20
109.443736
 11
374.864853
 21
109.443736
  0
LINE
  8
1
 62
7
  6
CONTINUOUS
 10
374.864853
 20
109.443736
 11
374.448853
 21
106.243736
  0
TEXT
  8
1
 62
7
  6
CONTINUOUS
 10
372.448853
 20
127.397413
 40
3.200000
 41
0.900000
  1
75以下　ＭＡＸ
  7
KANJI
 50
90.000000
 51
0.000000
  0
LINE
  8
1
 62
7
  6
CONTINUOUS
 10
289.839259
 20
188.708751
 11
358.839259
 21
188.708751
  0
LINE
  8
1
 62
7
  6
CONTINUOUS
 10
289.839259
 20
154.023173
 11
289.839259
 21
190.208751
  0
LINE
  8
1
 62
7
  6
CONTINUOUS
 10
358.839259
 20
154.023173
 11
358.839259
 21
190.208751
  0
LINE
  8
1
 62
7
  6
CONTINUOUS
 10
358.839259
 20
188.708751
 11
355.639259
 21
188.292751
  0
LINE
  8
1
 62
7
  6
CONTINUOUS
 10
355.639259
 20
188.292751
 11
355.639259
 21
189.124751
  0
LINE
  8
1
 62
7
  6
CONTINUOUS
 10
355.639259
 20
189.124751
 11
358.839259
 21
188.708751
  0
LINE
  8
1
 62
7
  6
CONTINUOUS
 10
289.839259
 20
188.708751
 11
293.039259
 21
189.124751
  0
LINE
  8
1
 62
7
  6
CONTINUOUS
 10
293.039259
 20
189.124751
 11
293.039259
 21
188.292751
  0
LINE
  8
1
 62
7
  6
CONTINUOUS
 10
293.039259
 20
188.292751
 11
289.839259
 21
188.708751
  0
TEXT
  8
1
 62
7
  6
CONTINUOUS
 10
310.390284
 20
190.708751
 40
3.200000
 41
0.900000
  1
75以下　ＭＡＸ
  7
KANJI
 50
0.000000
 51
0.000000
  0
LINE
  8
1
 62
7
  6
CONTINUOUS
 10
147.645585
 20
186.372306
 11
164.045585
 21
186.372306
  0
LINE
  8
1
 62
7
  6
CONTINUOUS
 10
140.760668
 20
178.702760
 11
147.645585
 21
186.372306
  0
LINE
  8
1
 62
7
  6
CONTINUOUS
 10
140.760668
 20
178.702760
 11
142.588757
 21
181.361923
  0
LINE
  8
1
 62
7
  6
CONTINUOUS
 10
142.588757
 20
181.361923
 11
143.207886
 21
180.806133
  0
LINE
  8
1
 62
7
  6
CONTINUOUS
 10
143.207886
 20
180.806133
 11
140.760668
 21
178.702760
  0
TEXT
  8
1
 62
7
  6
CONTINUOUS
 10
162.125585
 20
188.372306
 40
3.200000
 41
0.900000
  1
7
  7
KANJI
 50
0.000000
 51
0.000000
  0
TEXT
  8
1
 62
7
  6
CONTINUOUS
 10
152.845585
 20
188.372306
 40
3.200000
 41
0.900000
  1
4-R
  7
KANJI
 50
0.000000
 51
0.000000
  0
LINE
  8
1
 62
7
  6
CONTINUOUS
 10
352.908240
 20
114.708170
 11
368.798855
 21
90.217397
  0
LINE
  8
1
 62
7
  6
CONTINUOUS
 10
368.798855
 20
90.217397
 11
388.923300
 21
90.217397
  0
LINE
  8
1
 62
7
  6
CONTINUOUS
 10
359.657617
 20
104.305963
 11
361.748369
 21
101.847953
  0
LINE
  8
1
 62
7
  6
CONTINUOUS
 10
361.748369
 20
101.847953
 11
361.050415
 21
101.395092
  0
LINE
  8
1
 62
7
  6
CONTINUOUS
 10
361.050415
 20
101.395092
 11
359.657617
 21
104.305963
  0
LINE
  8
1
 62
7
  6
CONTINUOUS
 10
355.520902
 20
110.681509
 11
353.430150
 21
113.139519
  0
LINE
  8
1
 62
7
  6
CONTINUOUS
 10
353.430150
 20
113.139519
 11
354.128104
 21
113.592380
  0
LINE
  8
1
 62
7
  6
CONTINUOUS
 10
354.128104
 20
113.592380
 11
355.520902
 21
110.681509
  0
TEXT
  8
1
 62
7
  6
CONTINUOUS
 10
383.083300
 20
92.217397
 40
3.200000
 41
0.900000
  1
8.2
  7
KANJI
 50
0.000000
 51
0.000000
  0
TEXT
  8
1
 62
7
  6
CONTINUOUS
 10
373.998855
 20
92.217397
 40
3.200000
 41
0.900000
  1
4-φ
  7
KANJI
 50
0.000000
 51
0.000000
  0
LINE
  8
1
 62
7
  6
CONTINUOUS
 10
140.087900
 20
170.038639
 11
58.933333
 21
105.352966
  0
LINE
  8
1
 62
7
  6
CONTINUOUS
 10
66.581201
 20
111.448833
 11
68.824266
 21
113.768686
  0
LINE
  8
1
 62
7
  6
CONTINUOUS
 10
68.824266
 20
113.768686
 11
69.342848
 21
113.118074
  0
LINE
  8
1
 62
7
  6
CONTINUOUS
 10
69.342848
 20
113.118074
 11
66.581201
 21
111.448833
  0
LINE
  8
1
 62
7
  6
CONTINUOUS
 10
140.087900
 20
170.038639
 11
137.844835
 21
167.718786
  0
LINE
  8
1
 62
7
  6
CONTINUOUS
 10
137.844835
 20
167.718786
 11
137.326253
 21
168.369399
  0
LINE
  8
1
 62
7
  6
CONTINUOUS
 10
137.326253
 20
168.369399
 11
140.087900
 21
170.038639
  0
TEXT
  8
1
 62
7
  6
CONTINUOUS
 10
43.624443
 20
106.959481
 40
3.200000
 41
0.900000
  1
94
  7
KANJI
 50
0.000000
 51
0.000000
  0
LINE
  8
1
 62
7
  6
DIVIDE
 10
420.000000
 20
297.000000
 11
0.000000
 21
297.000000
  0
LINE
  8
1
 62
7
  6
DIVIDE
 10
0.000000
 20
297.000000
 11
0.000000
 21
0.000000
  0
LINE
  8
1
 62
7
  6
CONTINUOUS
 10
72.059584
 20
218.206052
 11
72.059584
 21
227.406052
  0
LINE
  8
1
 62
7
  6
CONTINUOUS
 10
70.759584
 20
218.206052
 11
72.059584
 21
218.206052
  0
LINE
  8
1
 62
7
  6
CONTINUOUS
 10
70.759584
 20
227.406052
 11
70.759584
 21
218.206052
  0
LINE
  8
1
 62
7
  6
CONTINUOUS
 10
72.059584
 20
227.406052
 11
70.759584
 21
227.406052
  0
LINE
  8
1
 62
7
  6
CONTINUOUS
 10
121.894556
 20
73.865574
 11
119.729493
 21
70.115574
  0
LINE
  8
1
 62
7
  6
CONTINUOUS
 10
124.059620
 20
70.115574
 11
121.894556
 21
73.865574
  0
LINE
  8
1
 62
7
  6
CONTINUOUS
 10
119.729493
 20
70.115574
 11
124.059620
 21
70.115574
  0
TEXT
  8
1
 62
7
  6
CONTINUOUS
 10
120.994556
 20
70.365574
 40
2.000000
 41
0.900000
  1
A
  7
KANJI
 50
0.000000
 51
0.000000
  0
LINE
  8
1
 62
7
  6
CONTINUOUS
 10
64.285228
 20
234.003360
 11
62.120164
 21
230.253360
  0
LINE
  8
1
 62
7
  6
CONTINUOUS
 10
66.450291
 20
230.253360
 11
64.285228
 21
234.003360
  0
LINE
  8
1
 62
7
  6
CONTINUOUS
 10
62.120164
 20
230.253360
 11
66.450291
 21
230.253360
  0
TEXT
  8
1
 62
7
  6
CONTINUOUS
 10
63.385228
 20
230.503360
 40
2.000000
 41
0.900000
  1
A
  7
KANJI
 50
0.000000
 51
0.000000
  0
LINE
  8
1
 62
7
  6
CONTINUOUS
 10
140.944237
 20
212.352760
 11
138.779173
 21
208.602760
  0
LINE
  8
1
 62
7
  6
CONTINUOUS
 10
143.109300
 20
208.602760
 11
140.944237
 21
212.352760
  0
LINE
  8
1
 62
7
  6
CONTINUOUS
 10
138.779173
 20
208.602760
 11
143.109300
 21
208.602760
  0
TEXT
  8
1
 62
7
  6
CONTINUOUS
 10
140.044237
 20
208.852760
 40
2.000000
 41
0.900000
  1
A
  7
KANJI
 50
0.000000
 51
0.000000
  0
LINE
  8
1
 62
7
  6
CONTINUOUS
 10
148.304320
 20
167.296099
 11
146.139257
 21
163.546099
  0
LINE
  8
1
 62
7
  6
CONTINUOUS
 10
150.469384
 20
163.546099
 11
148.304320
 21
167.296099
  0
LINE
  8
1
 62
7
  6
CONTINUOUS
 10
146.139257
 20
163.546099
 11
150.469384
 21
163.546099
  0
TEXT
  8
1
 62
7
  6
CONTINUOUS
 10
147.404320
 20
163.796099
 40
2.000000
 41
0.900000
  1
A
  7
KANJI
 50
0.000000
 51
0.000000
  0
LINE
  8
1
 62
7
  6
CONTINUOUS
 10
332.575451
 20
206.232421
 11
330.410387
 21
202.482421
  0
LINE
  8
1
 62
7
  6
CONTINUOUS
 10
334.740514
 20
202.482421
 11
332.575451
 21
206.232421
  0
LINE
  8
1
 62
7
  6
CONTINUOUS
 10
330.410387
 20
202.482421
 11
334.740514
 21
202.482421
  0
TEXT
  8
1
 62
7
  6
CONTINUOUS
 10
331.675451
 20
202.732421
 40
2.000000
 41
0.900000
  1
A
  7
KANJI
 50
0.000000
 51
0.000000
  0
LINE
  8
1
 62
7
  6
CONTINUOUS
 10
342.249680
 20
193.666460
 11
340.084616
 21
189.916460
  0
LINE
  8
1
 62
7
  6
CONTINUOUS
 10
344.414743
 20
189.916460
 11
342.249680
 21
193.666460
  0
LINE
  8
1
 62
7
  6
CONTINUOUS
 10
340.084616
 20
189.916460
 11
344.414743
 21
189.916460
  0
TEXT
  8
1
 62
7
  6
CONTINUOUS
 10
341.349680
 20
190.166460
 40
2.000000
 41
0.900000
  1
A
  7
KANJI
 50
0.000000
 51
0.000000
  0
LINE
  8
1
 62
7
  6
CONTINUOUS
 10
342.697809
 20
95.063949
 11
340.532745
 21
91.313949
  0
LINE
  8
1
 62
7
  6
CONTINUOUS
 10
344.862872
 20
91.313949
 11
342.697809
 21
95.063949
  0
LINE
  8
1
 62
7
  6
CONTINUOUS
 10
340.532745
 20
91.313949
 11
344.862872
 21
91.313949
  0
TEXT
  8
1
 62
7
  6
CONTINUOUS
 10
341.797809
 20
91.563949
 40
2.000000
 41
0.900000
  1
A
  7
KANJI
 50
0.000000
 51
0.000000
  0
LINE
  8
1
 62
7
  6
CONTINUOUS
 10
368.680206
 20
159.946302
 11
372.430206
 21
157.781238
  0
LINE
  8
1
 62
7
  6
CONTINUOUS
 10
372.430206
 20
162.111365
 11
368.680206
 21
159.946302
  0
LINE
  8
1
 62
7
  6
CONTINUOUS
 10
372.430206
 20
157.781238
 11
372.430206
 21
162.111365
  0
TEXT
  8
1
 62
7
  6
CONTINUOUS
 10
372.180206
 20
159.046302
 40
2.000000
 41
0.900000
  1
A
  7
KANJI
 50
90.000000
 51
0.000000
  0
LINE
  8
1
 62
7
  6
DIVIDE
 10
0.000000
 20
0.000000
 11
20.000000
 21
0.000000
  0
LINE
  8
1
 62
7
  6
DIVIDE
 10
420.000000
 20
280.500000
 11
420.000000
 21
297.000000
  0
LINE
  8
1
 62
7
  6
CONTINUOUS
 10
345.000000
 20
281.000000
 11
345.000000
 21
280.500000
  0
LINE
  8
1
 62
7
  6
CONTINUOUS
 10
85.000000
 20
281.000000
 11
85.000000
 21
280.000000
  0
LINE
  8
1
 62
7
  6
CONTINUOUS
 10
150.000000
 20
281.000000
 11
150.000000
 21
280.000000
  0
LINE
  8
1
 62
7
  6
CONTINUOUS
 10
215.000000
 20
281.000000
 11
215.000000
 21
280.000000
  0
LINE
  8
1
 62
7
  6
CONTINUOUS
 10
280.000000
 20
281.000000
 11
280.000000
 21
280.000000
  0
LINE
  8
1
 62
7
  6
CONTINUOUS
 10
58.933333
 20
105.352966
 11
40.000000
 21
105.352966
  0
ENDSEC
  0
EOF
