  0
SECTION
  2
HEADER
  9
$ACADVER
  1
AC1003
  9
$INSBASE
 10
0.000000
 20
0.000000
  9
$EXTMIN
 10
0.000000
 20
0.000000
  9
$EXTMAX
 10
420.000000
 20
297.000000
  9
$LIMMIN
 10
0.000000
 20
0.000000
  9
$LIMMAX
 10
420.000000
 20
297.000000
  9
$VIEWCTR
 10
210.000000
 20
148.500000
  9
$VIEWSIZE
 40
297.000000
  9
$PEXTMIN
 10
0.000000
 20
0.000000
 30
0.000000
  9
$PEXTMAX
 10
420.000000
 20
297.000000
 30
0.000000
  9
$SNAPMODE
 70
     0
  9
$SNAPUNIT
 10
1.000000
 20
1.000000
  9
$SNAPBASE
 10
0.000000
 20
0.000000
  9
$SNAPANG
 50
0.000000
  9
$SNAPISOPAIR
 70
     0
  9
$SNAPSTYLE
 70
     0
  9
$GRIDMODE
 70
     0
  9
$GRIDUNIT
 10
0.000000
 20
0.000000
  9
$ORTHOMODE
 70
     0
  9
$REGENMODE
 70
     1
  9
$FILLMODE
 70
     1
  9
$QTEXTMODE
 70
     0
  9
$DRAGMODE
 70
     2
  9
$LTSCALE
 40
0.250000
  9
$OSMODE
 70
     0
  9
$ATTMODE
 70
     1
  9
$TEXTSIZE
 40
0.200000
  9
$TRACEWID
 40
0.050000
  9
$TEXTSTYLE
  7
STANDARD
  9
$CLAYER
  8
0
  9
$CELTYPE
  6
BYLAYER
  9
$CECOLOR
 62
   256
  9
$DIMSCALE
 40
1.000000
  9
$DIMASZ
 40
1.000000
  9
$DIMEXO
 40
0.000000
  9
$DIMDLI
 40
0.500000
  9
$DIMRND
 40
0.000000
  9
$DIMDLE
 40
0.000000
  9
$DIMEXE
 40
0.000000
  9
$DIMTP
 40
0.000000
  9
$DIMTM
 40
0.000000
  9
$DIMTXT
 40
0.180000
  9
$DIMCEN
 40
0.000000
  9
$DIMTSZ
 40
0.000000
  9
$DIMTOL
 70
     0
  9
$DIMLIM
 70
     0
  9
$DIMTIH
 70
     1
  9
$DIMTOH
 70
     1
  9
$DIMSE1
 70
     0
  9
$DIMSE2
 70
     0
  9
$DIMTAD
 70
     0
  9
$DIMZIN
 70
     0
  9
$DIMBLK
  1

  9
$DIMASO
 70
     0
  9
$DIMSHO
 70
     0
  9
$DIMPOST
  1

  9
$DIMAPOST
  1

  9
$DIMALT
 70
     0
  9
$DIMALTD
 70
     0
  9
$DIMALTF
 40
25.400000
  9
$DIMLFAC
 40
1.000000
  9
$DIMTOFL
 70
     0
  9
$DIMTVP
 40
0.000000
  9
$DIMTIX
 70
     0
  9
$DIMSOXD
 70
     0
  9
$DIMSAH
 70
     0
  9
$DIMBLKL
  1

  9
$DIMBLKR
  1

  9
$LUNITS
 70
     2
  9
$LUPREC
 70
     2
  9
$AXISMODE
 70
     0
  9
$AXISUNIT
 10
1.000000
 20
1.000000
  9
$SKETCHINC
 40
0.000000
  9
$FILLETRAD
 40
0.000000
  9
$AUNITS
 70
     1
  9
$AUPREC
 70
     2
  9
$MENU
  1
ACAD
  9
$ELEVATION
 40
0.000000
  9
$THICKNESS
 40
0.000000
  9
$VIEWDIR
 10
0.000000
 20
0.000000
 30
1.000000
  9
$LIMCHECK
 70
     1
  9
$BLIPMODE
 70
     1
  9
$CHAMFERA
 40
0.000000
  9
$CHAMFERB
 40
0.000000
  9
$FASTZOOM
 70
     1
  9
$SKPOLY
 70
     0
  9
$TDCREATE
 40
0.000000
  9
$TDUPDATE
 40
0.000000
  9
$TDINDWG
 40
0.000000
  9
$TDUSRTIMER
 40
0.000000
  9
$USRTIMER
 70
     1
  9
$ANGBASE
 50
0.000000
  9
$ANGDIR
 70
     0
  9
$PDMODE
 70
     0
  9
$PDSIZE
 40
0.000000
  9
$PLINEWID
 40
0.000000
  9
$COORDS
 70
     2
  9
$USERI1
 70
     0
  9
$USERI2
 70
     0
  9
$USERI3
 70
     0
  9
$USERI4
 70
     0
  9
$USERI5
 70
     0
  9
$USERR1
 40
0.000000
  9
$USERR2
 40
0.000000
  9
$USERR3
 40
0.000000
  9
$USERR4
 40
0.000000
  9
$USERR5
 40
0.000000
  0
ENDSEC
  0
SECTION
  2
TABLES
  0
TABLE
  2
LTYPE
 70
     5
  0
LTYPE
  2
CONTINUOUS
 70
    64
  3
Solid line
 72
    65
 73
     0
 40
0.0
  0
LTYPE
  2
HIDDEN
 70
    64
  3
------------------------
 72
    65
 73
     2
 40
12.6
 49
8.4
 49
-4.2
  0
LTYPE
  2
DOT
 70
    64
  3
ÑÑÑÑÑÑÑÑÑÑÑÑÑÑÑÑÑÑÑÑÑÑÑÑ
 72
    65
 73
     2
 40
8.0
 49
6.0
 49
-2.0
  0
LTYPE
  2
DASHDOT
 70
    64
  3
--Ñ--Ñ--Ñ--Ñ--Ñ--Ñ--Ñ--
 72
    65
 73
     4
 40
50.5
 49
30.0
 49
-9.0
 49
2.5
 49
-9.0
  0
LTYPE
  2
DIVIDE
 70
    64
  3
--ÑÑ--ÑÑ--ÑÑ--ÑÑ--ÑÑ--
 72
    65
 73
     6
 40
58.0
 49
30.0
 49
-9.0
 49
2.5
 49
-5.0
 49
2.5
 49
-9.0
  0
ENDTAB
  0
TABLE
  2
LAYER
 70
1
  0
LAYER
  2
1
 70
64
 62
7
  6
CONTINUOUS
  0
ENDTAB
  0
TABLE
  2
STYLE
 70
     2
  0
STYLE
  2
STANDARD
 70
    64
 40
0.0
 41
1.0
 50
0.0
 71
     0
 42
0.2
  3
TXT
  4

  0
STYLE
  2
KANJI
 70
    64
 40
0.0
 41
1.0
 50
0.0
 71
     0
 42
0.2
  3
TXT
  4
BIGFONT
  0
ENDTAB
  0
TABLE
  2
VIEW
 70
     0
  0
ENDTAB
  0
ENDSEC
  0
SECTION
  2
BLOCKS
  0
ENDSEC
  0
SECTION
  2
ENTITIES
  0
LINE
  8
1
 62
7
  6
CONTINUOUS
 10
151.461528
 20
167.986001
 11
156.792184
 21
162.655344
  0
LINE
  8
1
 62
7
  6
CONTINUOUS
 10
162.650049
 20
148.513209
 11
162.650049
 21
140.974522
  0
LINE
  8
1
 62
7
  6
CONTINUOUS
 10
156.792184
 20
126.832386
 11
151.461528
 21
121.501730
  0
LINE
  8
1
 62
7
  6
CONTINUOUS
 10
137.319392
 20
115.643865
 11
129.780705
 21
115.643865
  0
LINE
  8
1
 62
7
  6
CONTINUOUS
 10
115.638570
 20
121.501730
 11
110.307913
 21
126.832386
  0
LINE
  8
1
 62
7
  6
CONTINUOUS
 10
104.450049
 20
140.974522
 11
104.450049
 21
148.513209
  0
LINE
  8
1
 62
7
  6
CONTINUOUS
 10
110.307913
 20
162.655344
 11
115.638570
 21
167.986001
  0
LINE
  8
1
 62
7
  6
CONTINUOUS
 10
129.780705
 20
173.843865
 11
137.319392
 21
173.843865
  0
LINE
  8
1
 62
7
  6
CONTINUOUS
 10
364.403542
 20
122.278981
 11
360.083145
 21
117.958584
  0
LINE
  8
1
 62
7
  6
CONTINUOUS
 10
327.952366
 20
117.958584
 11
323.631969
 21
122.278981
  0
LINE
  8
1
 62
7
  6
CONTINUOUS
 10
371.949736
 20
123.175846
 11
372.610648
 21
122.514933
  0
LINE
  8
1
 62
7
  6
CONTINUOUS
 10
372.656842
 20
122.468739
 11
371.698598
 21
121.510494
  0
LINE
  8
1
 62
7
  6
CONTINUOUS
 10
371.163067
 20
123.803390
 11
370.284384
 21
122.924708
  0
LINE
  8
1
 62
7
  6
CONTINUOUS
 10
364.958230
 20
117.598554
 11
365.836912
 21
118.477236
  0
LINE
  8
1
 62
7
  6
CONTINUOUS
 10
367.251126
 20
117.063022
 11
366.292881
 21
116.104778
  0
LINE
  8
1
 62
7
  6
CONTINUOUS
 10
365.585775
 20
116.811885
 11
366.742674
 21
115.654986
  0
LINE
  8
1
 62
7
  6
CONTINUOUS
 10
365.585775
 20
116.811885
 11
366.742674
 21
115.654986
  0
LINE
  8
1
 62
7
  6
CONTINUOUS
 10
321.742629
 20
116.104778
 11
320.784384
 21
117.063022
  0
LINE
  8
1
 62
7
  6
CONTINUOUS
 10
322.198598
 20
118.477236
 11
323.077280
 21
117.598554
  0
LINE
  8
1
 62
7
  6
CONTINUOUS
 10
317.751126
 20
122.924708
 11
316.872444
 21
123.803390
  0
LINE
  8
1
 62
7
  6
CONTINUOUS
 10
316.336912
 20
121.510494
 11
315.378668
 21
122.468739
  0
LINE
  8
1
 62
7
  6
CONTINUOUS
 10
315.378668
 20
167.018991
 11
316.336912
 21
167.977236
  0
LINE
  8
1
 62
7
  6
CONTINUOUS
 10
316.872444
 20
165.684340
 11
317.751126
 21
166.563022
  0
LINE
  8
1
 62
7
  6
CONTINUOUS
 10
323.077280
 20
171.889177
 11
322.198598
 21
171.010494
  0
LINE
  8
1
 62
7
  6
CONTINUOUS
 10
320.784384
 20
172.424708
 11
321.742629
 21
173.382952
  0
LINE
  8
1
 62
7
  6
CONTINUOUS
 10
370.284384
 20
166.563022
 11
371.163067
 21
165.684340
  0
LINE
  8
1
 62
7
  6
CONTINUOUS
 10
371.698598
 20
167.977236
 11
372.656842
 21
167.018991
  0
LINE
  8
1
 62
7
  6
CONTINUOUS
 10
372.610648
 20
166.972797
 11
371.949736
 21
166.311885
  0
LINE
  8
1
 62
7
  6
CONTINUOUS
 10
365.836912
 20
171.010494
 11
364.958230
 21
171.889177
  0
LINE
  8
1
 62
7
  6
CONTINUOUS
 10
366.292881
 20
173.382952
 11
367.251126
 21
172.424708
  0
LINE
  8
1
 62
7
  6
CONTINUOUS
 10
365.585775
 20
172.675846
 11
366.246687
 21
173.336758
  0
LINE
  8
1
 62
7
  6
CONTINUOUS
 10
365.539581
 20
175.043865
 11
367.953794
 21
175.043865
  0
LINE
  8
1
 62
7
  6
CONTINUOUS
 10
365.117755
 20
115.443951
 11
365.117755
 21
115.043865
  0
LINE
  8
1
 62
7
  6
CONTINUOUS
 10
356.568426
 20
175.043865
 11
356.651269
 21
175.043865
  0
LINE
  8
1
 62
7
  6
CONTINUOUS
 10
317.232474
 20
160.809255
 11
327.952366
 21
171.529147
  0
LINE
  8
1
 62
7
  6
CONTINUOUS
 10
323.631969
 20
122.278981
 11
317.232474
 21
128.678476
  0
LINE
  8
1
 62
7
  6
CONTINUOUS
 10
370.803037
 20
128.678476
 11
364.403542
 21
122.278981
  0
LINE
  8
1
 62
7
  6
CONTINUOUS
 10
360.083145
 20
171.529147
 11
370.803037
 21
160.809255
  0
LINE
  8
1
 62
7
  6
CONTINUOUS
 10
108.750049
 20
175.043865
 11
158.350049
 21
175.043865
  0
LINE
  8
1
 62
7
  6
CONTINUOUS
 10
108.750049
 20
114.443903
 11
109.050049
 21
114.443903
  0
LINE
  8
1
 62
7
  6
CONTINUOUS
 10
158.350049
 20
114.443903
 11
158.050024
 21
114.443903
  0
LINE
  8
1
 62
7
  6
CONTINUOUS
 10
152.150049
 20
122.190250
 11
152.150049
 21
117.743847
  0
LINE
  8
1
 62
7
  6
CONTINUOUS
 10
151.150049
 20
117.243847
 11
151.150049
 21
121.196964
  0
LINE
  8
1
 62
7
  6
CONTINUOUS
 10
152.150049
 20
117.743847
 11
154.050049
 21
113.543847
  0
LINE
  8
1
 62
7
  6
CONTINUOUS
 10
151.150049
 20
117.243847
 11
153.050049
 21
113.543815
  0
LINE
  8
1
 62
7
  6
CONTINUOUS
 10
285.965713
 20
144.743865
 11
244.000810
 21
144.743865
  0
LINE
  8
1
 62
7
  6
CONTINUOUS
 10
248.000810
 20
144.743865
 11
248.000810
 21
174.243735
  0
LINE
  8
1
 62
7
  6
CONTINUOUS
 10
276.436901
 20
174.530629
 11
248.000810
 21
175.043865
  0
LINE
  8
1
 62
7
  6
CONTINUOUS
 10
248.000810
 20
174.243735
 11
248.000810
 21
175.043865
  0
LINE
  8
1
 62
7
  6
CONTINUOUS
 10
152.550049
 20
108.243865
 11
148.650049
 21
108.243865
  0
LINE
  8
1
 62
7
  6
CONTINUOUS
 10
158.300024
 20
116.059161
 11
158.300024
 21
123.943602
  0
LINE
  8
1
 62
7
  6
CONTINUOUS
 10
162.186865
 20
119.993865
 11
154.449340
 21
119.993865
  0
LINE
  8
1
 62
7
  6
CONTINUOUS
 10
158.300024
 20
165.559161
 11
158.300024
 21
173.443602
  0
LINE
  8
1
 62
7
  6
CONTINUOUS
 10
162.186865
 20
169.493865
 11
154.449340
 21
169.493865
  0
LINE
  8
1
 62
7
  6
CONTINUOUS
 10
108.800024
 20
165.559161
 11
108.800024
 21
173.443602
  0
LINE
  8
1
 62
7
  6
CONTINUOUS
 10
112.686865
 20
169.493865
 11
104.949340
 21
169.493865
  0
LINE
  8
1
 62
7
  6
CONTINUOUS
 10
108.800024
 20
116.059161
 11
108.800024
 21
123.943602
  0
LINE
  8
1
 62
7
  6
CONTINUOUS
 10
112.686865
 20
119.993865
 11
104.949340
 21
119.993865
  0
LINE
  8
1
 62
7
  6
CONTINUOUS
 10
113.050049
 20
113.543847
 11
114.950049
 21
117.743847
  0
LINE
  8
1
 62
7
  6
CONTINUOUS
 10
119.250098
 20
106.943865
 11
119.250098
 21
108.243865
  0
LINE
  8
1
 62
7
  6
CONTINUOUS
 10
112.050049
 20
108.943865
 11
112.050049
 21
110.743865
  0
LINE
  8
1
 62
7
  6
CONTINUOUS
 10
153.050024
 20
106.943865
 11
148.650049
 21
106.943865
  0
LINE
  8
1
 62
7
  6
CONTINUOUS
 10
153.050024
 20
106.943865
 11
148.650049
 21
106.943865
  0
LINE
  8
1
 62
7
  6
CONTINUOUS
 10
148.650049
 20
108.243865
 11
148.650049
 21
106.943865
  0
LINE
  8
1
 62
7
  6
CONTINUOUS
 10
103.250049
 20
162.543865
 11
103.250049
 21
169.543865
  0
LINE
  8
1
 62
7
  6
CONTINUOUS
 10
163.850049
 20
169.543865
 11
163.850049
 21
119.942203
  0
LINE
  8
1
 62
7
  6
CONTINUOUS
 10
155.050024
 20
111.443903
 11
155.050024
 21
108.943865
  0
LINE
  8
1
 62
7
  6
CONTINUOUS
 10
148.650049
 20
106.943865
 11
114.050049
 21
106.943865
  0
LINE
  8
1
 62
7
  6
CONTINUOUS
 10
103.250049
 20
119.942203
 11
103.250049
 21
144.743865
  0
LINE
  8
1
 62
7
  6
CONTINUOUS
 10
133.550049
 20
176.931907
 11
133.550049
 21
144.743865
  0
LINE
  8
1
 62
7
  6
CONTINUOUS
 10
162.750049
 20
144.743865
 11
133.550049
 21
144.743865
  0
LINE
  8
1
 62
7
  6
CONTINUOUS
 10
133.550049
 20
144.743865
 11
101.855595
 21
144.743865
  0
LINE
  8
1
 62
7
  6
CONTINUOUS
 10
127.550049
 20
173.719080
 11
127.550049
 21
175.043865
  0
LINE
  8
1
 62
7
  6
CONTINUOUS
 10
139.550049
 20
173.719080
 11
139.550049
 21
175.043865
  0
LINE
  8
1
 62
7
  6
CONTINUOUS
 10
103.250049
 20
144.743865
 11
103.250049
 21
162.543865
  0
LINE
  8
1
 62
7
  6
CONTINUOUS
 10
164.879710
 20
144.743865
 11
162.750049
 21
144.743865
  0
LINE
  8
1
 62
7
  6
CONTINUOUS
 10
256.300810
 20
107.092233
 11
258.103952
 21
107.120563
  0
LINE
  8
1
 62
7
  6
CONTINUOUS
 10
248.000810
 20
114.043815
 11
248.000810
 21
108.243865
  0
LINE
  8
1
 62
7
  6
CONTINUOUS
 10
248.000810
 20
108.243865
 11
248.000810
 21
106.943865
  0
LINE
  8
1
 62
7
  6
CONTINUOUS
 10
258.300810
 20
107.320538
 11
258.300810
 21
112.665865
  0
LINE
  8
1
 62
7
  6
CONTINUOUS
 10
250.000810
 20
106.978775
 11
256.300810
 21
107.092233
  0
LINE
  8
1
 62
7
  6
CONTINUOUS
 10
278.400810
 20
123.393865
 11
278.400810
 21
116.956776
  0
LINE
  8
1
 62
7
  6
CONTINUOUS
 10
276.436901
 20
114.957102
 11
260.300810
 21
114.665865
  0
LINE
  8
1
 62
7
  6
CONTINUOUS
 10
114.950049
 20
117.743847
 11
114.950049
 21
122.190250
  0
LINE
  8
1
 62
7
  6
CONTINUOUS
 10
344.017755
 20
176.867909
 11
344.017755
 21
144.743865
  0
LINE
  8
1
 62
7
  6
CONTINUOUS
 10
319.267755
 20
165.559161
 11
319.267755
 21
173.443602
  0
LINE
  8
1
 62
7
  6
CONTINUOUS
 10
344.017755
 20
178.043865
 11
344.017755
 21
144.743865
  0
LINE
  8
1
 62
7
  6
CONTINUOUS
 10
344.017755
 20
178.043865
 11
344.017755
 21
176.867909
  0
LINE
  8
1
 62
7
  6
CONTINUOUS
 10
344.017755
 20
144.743865
 11
310.717755
 21
144.743865
  0
LINE
  8
1
 62
7
  6
CONTINUOUS
 10
377.317755
 20
144.743865
 11
344.017755
 21
144.743865
  0
LINE
  8
1
 62
7
  6
CONTINUOUS
 10
344.017755
 20
144.743865
 11
344.017755
 21
104.108191
  0
LINE
  8
1
 62
7
  6
CONTINUOUS
 10
368.767755
 20
165.559161
 11
368.767755
 21
173.443602
  0
LINE
  8
1
 62
7
  6
CONTINUOUS
 10
372.654597
 20
169.493865
 11
364.917072
 21
169.493865
  0
LINE
  8
1
 62
7
  6
CONTINUOUS
 10
368.767755
 20
116.059161
 11
368.767755
 21
123.943602
  0
LINE
  8
1
 62
7
  6
CONTINUOUS
 10
372.654597
 20
119.993865
 11
364.917072
 21
119.993865
  0
LINE
  8
1
 62
7
  6
CONTINUOUS
 10
323.154597
 20
169.493865
 11
315.417072
 21
169.493865
  0
LINE
  8
1
 62
7
  6
CONTINUOUS
 10
323.154597
 20
119.993865
 11
315.417072
 21
119.993865
  0
LINE
  8
1
 62
7
  6
CONTINUOUS
 10
319.267755
 20
116.059161
 11
319.267755
 21
123.943602
  0
LINE
  8
1
 62
7
  6
CONTINUOUS
 10
329.617730
 20
107.108191
 11
324.871038
 21
107.108191
  0
LINE
  8
1
 62
7
  6
CONTINUOUS
 10
329.617730
 20
107.108191
 11
324.917755
 21
107.108191
  0
LINE
  8
1
 62
7
  6
CONTINUOUS
 10
363.117755
 20
107.108191
 11
358.617780
 21
107.108191
  0
LINE
  8
1
 62
7
  6
CONTINUOUS
 10
363.187808
 20
107.108191
 11
358.617780
 21
107.108191
  0
LINE
  8
1
 62
7
  6
CONTINUOUS
 10
365.117755
 20
110.243865
 11
365.117755
 21
109.108191
  0
LINE
  8
1
 62
7
  6
CONTINUOUS
 10
358.617780
 20
107.108191
 11
324.871038
 21
107.108191
  0
LINE
  8
1
 62
7
  6
CONTINUOUS
 10
358.617780
 20
107.108191
 11
324.871038
 21
107.108191
  0
LINE
  8
1
 62
7
  6
CONTINUOUS
 10
322.917755
 20
109.108191
 11
322.917755
 21
111.243865
  0
LINE
  8
1
 62
7
  6
CONTINUOUS
 10
324.217755
 20
120.864767
 11
324.217755
 21
118.043914
  0
LINE
  8
1
 62
7
  6
CONTINUOUS
 10
344.017755
 20
112.249517
 11
344.017755
 21
176.867909
  0
LINE
  8
1
 62
7
  6
CONTINUOUS
 10
364.219888
 20
118.043914
 11
364.215955
 21
118.037711
  0
LINE
  8
1
 62
7
  6
CONTINUOUS
 10
364.219888
 20
118.043914
 11
363.817755
 21
118.043914
  0
LINE
  8
1
 62
7
  6
CONTINUOUS
 10
365.472547
 20
115.443951
 11
365.117755
 21
115.443951
  0
LINE
  8
1
 62
7
  6
CONTINUOUS
 10
374.317755
 20
169.579931
 11
374.317755
 21
157.377379
  0
LINE
  8
1
 62
7
  6
CONTINUOUS
 10
368.853821
 20
175.043865
 11
356.651269
 21
175.043865
  0
LINE
  8
1
 62
7
  6
CONTINUOUS
 10
344.017755
 20
175.043865
 11
331.384242
 21
175.043865
  0
LINE
  8
1
 62
7
  6
CONTINUOUS
 10
313.717755
 20
166.265691
 11
313.717755
 21
157.377379
  0
LINE
  8
1
 62
7
  6
CONTINUOUS
 10
365.117755
 20
115.443958
 11
363.821689
 21
118.037711
  0
LINE
  8
1
 62
7
  6
CONTINUOUS
 10
363.817755
 20
118.043914
 11
363.817755
 21
120.864767
  0
LINE
  8
1
 62
7
  6
CONTINUOUS
 10
167.512421
 20
144.743865
 11
100.495267
 21
144.743865
  0
LINE
  8
1
 62
7
  6
CONTINUOUS
 10
368.117755
 20
114.443865
 11
368.853821
 21
114.443865
  0
LINE
  8
1
 62
7
  6
CONTINUOUS
 10
365.117755
 20
115.043865
 11
365.117755
 21
110.243865
  0
LINE
  8
1
 62
7
  6
CONTINUOUS
 10
365.117755
 20
111.443865
 11
365.117755
 21
110.243865
  0
LINE
  8
1
 62
7
  6
CONTINUOUS
 10
331.384242
 20
175.043865
 11
322.495930
 21
175.043865
  0
LINE
  8
1
 62
7
  6
CONTINUOUS
 10
313.717755
 20
152.323973
 11
313.717755
 21
132.110351
  0
LINE
  8
1
 62
7
  6
CONTINUOUS
 10
336.437647
 20
175.043865
 11
351.597863
 21
175.043865
  0
LINE
  8
1
 62
7
  6
CONTINUOUS
 10
356.568426
 20
175.043865
 11
344.017755
 21
175.043865
  0
LINE
  8
1
 62
7
  6
CONTINUOUS
 10
374.317755
 20
152.323973
 11
374.317755
 21
137.163757
  0
LINE
  8
1
 62
7
  6
CONTINUOUS
 10
374.317755
 20
157.377379
 11
374.317755
 21
132.110351
  0
LINE
  8
1
 62
7
  6
CONTINUOUS
 10
374.317755
 20
132.110351
 11
374.317755
 21
119.907800
  0
LINE
  8
1
 62
7
  6
CONTINUOUS
 10
351.597863
 20
114.443865
 11
336.437647
 21
114.443865
  0
LINE
  8
1
 62
7
  6
CONTINUOUS
 10
313.717755
 20
132.110351
 11
313.717755
 21
123.222040
  0
LINE
  8
1
 62
7
  6
CONTINUOUS
 10
313.717755
 20
137.163757
 11
313.717755
 21
157.377379
  0
LINE
  8
1
 62
7
  6
CONTINUOUS
 10
322.917755
 20
110.243865
 11
322.917755
 21
115.443951
  0
LINE
  8
1
 62
7
  6
CONTINUOUS
 10
133.550049
 20
142.054691
 11
133.550049
 21
104.182762
  0
LINE
  8
1
 62
7
  6
CONTINUOUS
 10
113.050049
 20
109.243865
 11
113.050049
 21
113.543847
  0
LINE
  8
1
 62
7
  6
CONTINUOUS
 10
119.250098
 20
108.243865
 11
114.550049
 21
108.243865
  0
LINE
  8
1
 62
7
  6
CONTINUOUS
 10
114.050049
 20
113.043815
 11
114.050049
 21
108.743865
  0
LINE
  8
1
 62
7
  6
CONTINUOUS
 10
115.950049
 20
121.196964
 11
115.950049
 21
117.243847
  0
LINE
  8
1
 62
7
  6
CONTINUOUS
 10
114.050049
 20
113.043815
 11
115.950049
 21
117.243847
  0
LINE
  8
1
 62
7
  6
CONTINUOUS
 10
153.050049
 20
108.743865
 11
153.050049
 21
113.543815
  0
LINE
  8
1
 62
7
  6
CONTINUOUS
 10
154.050049
 20
109.243865
 11
154.050049
 21
107.211829
  0
LINE
  8
1
 62
7
  6
CONTINUOUS
 10
112.050049
 20
108.943865
 11
112.050049
 21
111.442203
  0
LINE
  8
1
 62
7
  6
CONTINUOUS
 10
248.000810
 20
106.943865
 11
250.000810
 21
106.978775
  0
LINE
  8
1
 62
7
  6
CONTINUOUS
 10
248.000810
 20
122.364208
 11
248.000810
 21
117.743847
  0
LINE
  8
1
 62
7
  6
CONTINUOUS
 10
248.000810
 20
117.743847
 11
248.000810
 21
114.043815
  0
LINE
  8
1
 62
7
  6
CONTINUOUS
 10
324.213822
 20
118.037711
 11
322.917755
 21
115.443958
  0
LINE
  8
1
 62
7
  6
CONTINUOUS
 10
322.917755
 20
115.443951
 11
322.562964
 21
115.443951
  0
LINE
  8
1
 62
7
  6
CONTINUOUS
 10
323.819556
 20
118.037711
 11
323.815622
 21
118.043914
  0
LINE
  8
1
 62
7
  6
CONTINUOUS
 10
324.217755
 20
118.043914
 11
323.815622
 21
118.043914
  0
LINE
  8
1
 62
7
  6
CONTINUOUS
 10
133.550049
 20
177.203336
 11
133.550049
 21
105.950735
  0
LINE
  8
1
 62
7
  6
CONTINUOUS
 10
113.050049
 20
107.343846
 11
113.050049
 21
109.243865
  0
LINE
  8
1
 62
7
  6
CONTINUOUS
 10
154.050049
 20
113.543847
 11
154.050049
 21
109.243865
  0
LINE
  8
1
 62
7
  6
CONTINUOUS
 10
114.550049
 20
108.243865
 11
114.050049
 21
108.243865
  0
LINE
  8
1
 62
7
  6
CONTINUOUS
 10
152.550049
 20
108.243865
 11
153.050049
 21
108.243865
  0
LINE
  8
1
 62
7
  6
CONTINUOUS
 10
344.017755
 20
167.230696
 11
344.017755
 21
144.743865
  0
LINE
  8
1
 62
7
  6
CONTINUOUS
 10
344.017755
 20
167.776693
 11
344.017755
 21
144.743865
  0
LINE
  8
1
 62
7
  6
CONTINUOUS
 10
344.017755
 20
167.625658
 11
344.017755
 21
167.083241
  0
LINE
  8
1
 62
7
  6
CONTINUOUS
 10
344.017755
 20
144.743865
 11
321.431628
 21
144.743865
  0
LINE
  8
1
 62
7
  6
CONTINUOUS
 10
366.343873
 20
144.743865
 11
344.017755
 21
144.743865
  0
LINE
  8
1
 62
7
  6
CONTINUOUS
 10
344.017755
 20
144.743865
 11
344.017755
 21
117.422121
  0
LINE
  8
1
 62
7
  6
CONTINUOUS
 10
344.017755
 20
121.997822
 11
344.017755
 21
167.230696
  0
LINE
  8
1
 62
7
  6
CONTINUOUS
 10
278.400810
 20
172.530954
 11
278.400810
 21
123.393865
  0
LINE
  8
1
 62
7
  6
CONTINUOUS
 10
248.000810
 20
122.364208
 11
248.000810
 21
144.743865
  0
LINE
  8
1
 62
7
  6
CONTINUOUS
 10
321.788823
 20
173.336758
 11
322.449736
 21
172.675846
  0
LINE
  8
1
 62
7
  6
CONTINUOUS
 10
316.085775
 20
166.311885
 11
315.424862
 21
166.972797
  0
LINE
  8
1
 62
7
  6
CONTINUOUS
 10
320.081716
 20
175.043865
 11
319.181690
 21
175.043865
  0
LINE
  8
1
 62
7
  6
CONTINUOUS
 10
313.717755
 20
169.579931
 11
313.717755
 21
166.265691
  0
LINE
  8
1
 62
7
  6
CONTINUOUS
 10
320.081716
 20
175.043865
 11
322.495930
 21
175.043865
  0
LINE
  8
1
 62
7
  6
CONTINUOUS
 10
315.424862
 20
122.514933
 11
316.085775
 21
123.175846
  0
LINE
  8
1
 62
7
  6
CONTINUOUS
 10
321.292837
 20
115.654986
 11
322.449736
 21
116.811885
  0
LINE
  8
1
 62
7
  6
CONTINUOUS
 10
319.181690
 20
114.443865
 11
320.075788
 21
114.443865
  0
LINE
  8
1
 62
7
  6
CONTINUOUS
 10
313.717755
 20
119.907800
 11
313.717755
 21
132.110351
  0
LINE
  8
1
 62
7
  6
CONTINUOUS
 10
249.700810
 20
152.323973
 11
248.000810
 21
152.323973
  0
LINE
  8
1
 62
7
  6
CONTINUOUS
 10
249.700810
 20
137.163757
 11
248.000810
 21
137.163757
  0
LINE
  8
1
 62
7
  6
CONTINUOUS
 10
249.700810
 20
152.323973
 11
249.700810
 21
167.261610
  0
LINE
  8
1
 62
7
  6
CONTINUOUS
 10
249.700810
 20
122.222162
 11
249.700810
 21
137.163757
  0
LINE
  8
1
 62
7
  6
CONTINUOUS
 10
249.200810
 20
122.222162
 11
249.700810
 21
122.222162
  0
LINE
  8
1
 62
7
  6
CONTINUOUS
 10
249.200810
 20
167.261610
 11
249.700810
 21
167.261610
  0
LINE
  8
1
 62
7
  6
CONTINUOUS
 10
249.200810
 20
175.022207
 11
249.200810
 21
167.261610
  0
LINE
  8
1
 62
7
  6
CONTINUOUS
 10
249.200810
 20
114.443865
 11
249.200810
 21
122.222162
  0
LINE
  8
1
 62
7
  6
CONTINUOUS
 10
278.400810
 20
157.294536
 11
249.700810
 21
157.294536
  0
LINE
  8
1
 62
7
  6
CONTINUOUS
 10
249.700810
 20
132.193194
 11
278.400810
 21
132.193194
  0
LINE
  8
1
 62
7
  6
CONTINUOUS
 10
249.200810
 20
114.443865
 11
248.000810
 21
114.443865
  0
LINE
  8
1
 62
7
  6
CONTINUOUS
 10
249.700810
 20
175.022207
 11
249.700810
 21
167.261610
  0
LINE
  8
1
 62
7
  6
CONTINUOUS
 10
249.700810
 20
111.551017
 11
249.700810
 21
122.222162
  0
LINE
  8
1
 62
7
  6
CONTINUOUS
 10
248.000810
 20
111.551017
 11
249.700810
 21
111.551017
  0
LINE
  8
1
 62
7
  6
CONTINUOUS
 10
258.300810
 20
122.222162
 11
258.300810
 21
112.665865
  0
LINE
  8
1
 62
7
  6
CONTINUOUS
 10
249.700810
 20
122.222162
 11
258.300810
 21
122.222162
  0
LINE
  8
1
 62
7
  6
DIVIDE
 10
142.550049
 20
157.406372
 11
142.550049
 21
160.906330
  0
LINE
  8
1
 62
7
  6
DIVIDE
 10
142.550049
 20
160.906330
 11
124.550049
 21
160.906330
  0
LINE
  8
1
 62
7
  6
DIVIDE
 10
124.550049
 20
160.906330
 11
124.550049
 21
157.406372
  0
LINE
  8
1
 62
7
  6
DIVIDE
 10
124.550049
 20
157.406372
 11
142.550049
 21
157.406372
  0
LINE
  8
1
 62
7
  6
DIVIDE
 10
142.550049
 20
132.081358
 11
124.550049
 21
132.081358
  0
LINE
  8
1
 62
7
  6
DIVIDE
 10
142.550049
 20
128.581400
 11
142.550049
 21
132.081358
  0
LINE
  8
1
 62
7
  6
DIVIDE
 10
124.550049
 20
128.581400
 11
142.550049
 21
128.581400
  0
LINE
  8
1
 62
7
  6
DIVIDE
 10
124.550049
 20
132.081358
 11
124.550049
 21
128.581400
  0
LINE
  8
1
 62
7
  6
CONTINUOUS
 10
67.987580
 20
208.690745
 11
92.631646
 21
208.690745
  0
ARC
  8
1
 62
7
  6
CONTINUOUS
 10
368.767755
 20
119.993865
 40
4.500000
 50
45.000000
 51
-135.000000
  0
ARC
  8
1
 62
7
  6
CONTINUOUS
 10
368.767755
 20
169.493865
 40
4.500000
 50
135.000000
 51
-45.000000
  0
ARC
  8
1
 62
7
  6
CONTINUOUS
 10
319.267755
 20
169.493865
 40
4.500000
 50
-135.000000
 51
45.000000
  0
ARC
  8
1
 62
7
  6
CONTINUOUS
 10
319.267755
 20
119.993865
 40
4.500000
 50
-45.000000
 51
135.000000
  0
ARC
  8
1
 62
7
  6
CONTINUOUS
 10
133.550049
 20
144.743865
 40
35.000000
 50
-146.110236
 51
-124.593325
  0
ARC
  8
1
 62
7
  6
CONTINUOUS
 10
133.550049
 20
144.743865
 40
35.000000
 50
33.889764
 51
55.406675
  0
CIRCLE
  8
1
 62
7
  6
CONTINUOUS
 10
86.427653
 20
222.806052
 40
4.000000
  0
CIRCLE
  8
1
 62
7
  6
CONTINUOUS
 10
86.427653
 20
222.806052
 40
2.150000
  0
CIRCLE
  8
1
 62
7
  6
CONTINUOUS
 10
133.550049
 20
144.743865
 40
7.860406
  0
CIRCLE
  8
1
 62
7
  6
CONTINUOUS
 10
319.267754
 20
169.493866
 40
3.300000
  0
CIRCLE
  8
1
 62
7
  6
CONTINUOUS
 10
319.267754
 20
119.993864
 40
3.300000
  0
CIRCLE
  8
1
 62
7
  6
CONTINUOUS
 10
319.267754
 20
169.493866
 40
3.300000
  0
CIRCLE
  8
1
 62
7
  6
CONTINUOUS
 10
368.767756
 20
169.493866
 40
3.300000
  0
CIRCLE
  8
1
 62
7
  6
CONTINUOUS
 10
158.300024
 20
119.993865
 40
3.450000
  0
CIRCLE
  8
1
 62
7
  6
CONTINUOUS
 10
158.300024
 20
169.493865
 40
3.450000
  0
CIRCLE
  8
1
 62
7
  6
CONTINUOUS
 10
108.800024
 20
119.993865
 40
3.450000
  0
CIRCLE
  8
1
 62
7
  6
CONTINUOUS
 10
108.800024
 20
169.493865
 40
3.450000
  0
CIRCLE
  8
1
 62
7
  6
CONTINUOUS
 10
133.550049
 20
144.743865
 40
7.000000
  0
CIRCLE
  8
1
 62
7
  6
CONTINUOUS
 10
368.767756
 20
119.993864
 40
3.300000
  0
CIRCLE
  8
1
 62
7
  6
CONTINUOUS
 10
133.550049
 20
144.743865
 40
35.000000
  0
ARC
  8
1
 62
7
  6
CONTINUOUS
 10
142.650049
 20
148.513209
 40
20.000000
 50
0.000000
 51
45.000000
  0
ARC
  8
1
 62
7
  6
CONTINUOUS
 10
142.650049
 20
140.974522
 40
20.000000
 50
-45.000000
 51
-0.000000
  0
ARC
  8
1
 62
7
  6
CONTINUOUS
 10
137.319392
 20
135.643865
 40
20.000000
 50
-90.000000
 51
-45.000000
  0
ARC
  8
1
 62
7
  6
CONTINUOUS
 10
129.780705
 20
135.643865
 40
20.000000
 50
-135.000000
 51
-90.000000
  0
ARC
  8
1
 62
7
  6
CONTINUOUS
 10
124.450049
 20
140.974522
 40
20.000000
 50
180.000000
 51
-135.000000
  0
ARC
  8
1
 62
7
  6
CONTINUOUS
 10
124.450049
 20
148.513209
 40
20.000000
 50
135.000000
 51
180.000000
  0
ARC
  8
1
 62
7
  6
CONTINUOUS
 10
129.780705
 20
153.843865
 40
20.000000
 50
90.000000
 51
135.000000
  0
ARC
  8
1
 62
7
  6
CONTINUOUS
 10
137.319392
 20
153.843865
 40
20.000000
 50
45.000000
 51
90.000000
  0
ARC
  8
1
 62
7
  6
CONTINUOUS
 10
158.350049
 20
119.942203
 40
5.500000
 50
-90.000000
 51
-0.000000
  0
ARC
  8
1
 62
7
  6
CONTINUOUS
 10
365.817755
 20
120.864767
 40
2.000000
 50
135.000000
 51
180.000000
  0
ARC
  8
1
 62
7
  6
CONTINUOUS
 10
322.217755
 20
120.864767
 40
2.000000
 50
0.000000
 51
45.000000
  0
ARC
  8
1
 62
7
  6
CONTINUOUS
 10
373.317755
 20
123.222040
 40
1.000000
 50
-135.000000
 51
0.000000
  0
ARC
  8
1
 62
7
  6
CONTINUOUS
 10
373.317755
 20
123.222040
 40
1.000000
 50
-135.000000
 51
0.000000
  0
ARC
  8
1
 62
7
  6
CONTINUOUS
 10
366.035567
 20
114.947879
 40
1.000000
 50
-61.091234
 51
45.000000
  0
ARC
  8
1
 62
7
  6
CONTINUOUS
 10
373.317755
 20
166.265691
 40
1.000000
 50
0.000000
 51
135.000000
  0
ARC
  8
1
 62
7
  6
CONTINUOUS
 10
365.539581
 20
174.043865
 40
1.000000
 50
-45.000000
 51
90.000000
  0
ARC
  8
1
 62
7
  6
CONTINUOUS
 10
319.917755
 20
111.443865
 40
3.000000
 50
0.000000
 51
90.000000
  0
ARC
  8
1
 62
7
  6
CONTINUOUS
 10
368.117755
 20
111.443865
 40
3.000000
 50
90.000000
 51
180.000000
  0
ARC
  8
1
 62
7
  6
CONTINUOUS
 10
336.437647
 20
126.443865
 40
12.000000
 50
-135.000000
 51
-90.000000
  0
ARC
  8
1
 62
7
  6
CONTINUOUS
 10
351.597863
 20
126.443865
 40
12.000000
 50
-90.000000
 51
-45.000000
  0
ARC
  8
1
 62
7
  6
CONTINUOUS
 10
362.317755
 20
137.163757
 40
12.000000
 50
-45.000000
 51
-0.000000
  0
ARC
  8
1
 62
7
  6
CONTINUOUS
 10
362.317755
 20
152.323973
 40
12.000000
 50
0.000000
 51
45.000000
  0
ARC
  8
1
 62
7
  6
CONTINUOUS
 10
351.597863
 20
163.043865
 40
12.000000
 50
45.000000
 51
90.000000
  0
ARC
  8
1
 62
7
  6
CONTINUOUS
 10
336.437647
 20
163.043865
 40
12.000000
 50
90.000000
 51
135.000000
  0
ARC
  8
1
 62
7
  6
CONTINUOUS
 10
325.717755
 20
152.323973
 40
12.000000
 50
135.000000
 51
180.000000
  0
ARC
  8
1
 62
7
  6
CONTINUOUS
 10
325.717755
 20
137.163757
 40
12.000000
 50
180.000000
 51
-135.000000
  0
ARC
  8
1
 62
7
  6
CONTINUOUS
 10
114.050049
 20
109.243865
 40
1.000000
 50
180.000000
 51
-90.000000
  0
ARC
  8
1
 62
7
  6
CONTINUOUS
 10
153.050049
 20
109.243865
 40
1.000000
 50
-90.000000
 51
0.000000
  0
ARC
  8
1
 62
7
  6
CONTINUOUS
 10
158.050024
 20
111.443903
 40
3.000000
 50
90.000000
 51
180.000000
  0
ARC
  8
1
 62
7
  6
CONTINUOUS
 10
109.049199
 20
111.443053
 40
3.000850
 50
-0.016229
 51
89.983771
  0
ARC
  8
1
 62
7
  6
CONTINUOUS
 10
153.050024
 20
108.943865
 40
2.000000
 50
-90.000000
 51
-0.000000
  0
ARC
  8
1
 62
7
  6
CONTINUOUS
 10
114.050049
 20
108.943865
 40
2.000000
 50
180.000000
 51
-90.000000
  0
ARC
  8
1
 62
7
  6
CONTINUOUS
 10
108.749199
 20
119.943053
 40
5.499150
 50
-179.991144
 51
-89.991144
  0
ARC
  8
1
 62
7
  6
CONTINUOUS
 10
108.750049
 20
169.543865
 40
5.500000
 50
90.000000
 51
180.000000
  0
ARC
  8
1
 62
7
  6
CONTINUOUS
 10
158.350049
 20
169.543865
 40
5.500000
 50
0.000000
 51
90.000000
  0
ARC
  8
1
 62
7
  6
CONTINUOUS
 10
260.300810
 20
112.665865
 40
2.000000
 50
90.000000
 51
180.000000
  0
ARC
  8
1
 62
7
  6
CONTINUOUS
 10
368.853821
 20
169.579931
 40
5.463934
 50
0.000000
 51
90.000000
  0
ARC
  8
1
 62
7
  6
CONTINUOUS
 10
319.181690
 20
169.579931
 40
5.463934
 50
90.000000
 51
180.000000
  0
ARC
  8
1
 62
7
  6
CONTINUOUS
 10
368.853821
 20
119.907800
 40
5.463934
 50
-90.000000
 51
-0.000000
  0
ARC
  8
1
 62
7
  6
CONTINUOUS
 10
152.550049
 20
108.743865
 40
0.500000
 50
-90.000000
 51
0.000000
  0
ARC
  8
1
 62
7
  6
CONTINUOUS
 10
114.550049
 20
108.743865
 40
0.500000
 50
180.000000
 51
-90.000000
  0
ARC
  8
1
 62
7
  6
CONTINUOUS
 10
276.400810
 20
116.956776
 40
2.000000
 50
-88.965994
 51
-0.000000
  0
ARC
  8
1
 62
7
  6
CONTINUOUS
 10
276.400810
 20
172.530954
 40
2.000000
 50
0.000000
 51
88.965994
  0
ARC
  8
1
 62
7
  6
CONTINUOUS
 10
258.100810
 20
107.320538
 40
0.200000
 50
-89.099884
 51
0.000000
  0
ARC
  8
1
 62
7
  6
CONTINUOUS
 10
324.917755
 20
109.108191
 40
2.000000
 50
180.000000
 51
-90.000000
  0
ARC
  8
1
 62
7
  6
CONTINUOUS
 10
363.117755
 20
109.108191
 40
2.000000
 50
-90.000000
 51
-0.000000
  0
ARC
  8
1
 62
7
  6
CONTINUOUS
 10
322.495930
 20
174.043865
 40
1.000000
 50
90.000000
 51
-135.000000
  0
ARC
  8
1
 62
7
  6
CONTINUOUS
 10
314.717755
 20
166.265691
 40
1.000000
 50
45.000000
 51
180.000000
  0
ARC
  8
1
 62
7
  6
CONTINUOUS
 10
314.717755
 20
123.222040
 40
1.000000
 50
180.000000
 51
-45.000000
  0
ARC
  8
1
 62
7
  6
CONTINUOUS
 10
321.999943
 20
114.947879
 40
1.000000
 50
135.000000
 51
-118.908766
  0
ARC
  8
1
 62
7
  6
CONTINUOUS
 10
319.181690
 20
119.907800
 40
5.463934
 50
180.000000
 51
-90.000000
  0
ARC
  8
1
 62
7
  6
CONTINUOUS
 10
319.181690
 20
119.907800
 40
5.463934
 50
180.000000
 51
-90.000000
  0
LINE
  8
1
 62
7
  6
CONTINUOUS
 10
46.938603
 20
218.952739
 11
56.938603
 21
218.952739
  0
LINE
  8
1
 62
7
  6
CONTINUOUS
 10
56.938603
 20
218.952739
 11
56.938603
 21
228.952739
  0
LINE
  8
1
 62
7
  6
CONTINUOUS
 10
56.938603
 20
228.952739
 11
46.938603
 21
228.952739
  0
LINE
  8
1
 62
7
  6
CONTINUOUS
 10
46.938603
 20
228.952739
 11
46.938603
 21
218.952739
  0
LINE
  8
1
 62
7
  6
CONTINUOUS
 10
356.173776
 20
195.021021
 11
272.230155
 21
195.021021
  0
LINE
  8
1
 62
7
  6
CONTINUOUS
 10
272.230155
 20
195.021021
 11
261.796837
 21
186.937967
  0
LINE
  8
1
 62
7
  6
CONTINUOUS
 10
264.068476
 20
189.230812
 11
264.584504
 21
188.564742
  0
LINE
  8
1
 62
7
  6
CONTINUOUS
 10
264.584504
 20
188.564742
 11
261.796837
 21
186.937967
  0
LINE
  8
1
 62
7
  6
CONTINUOUS
 10
261.796837
 20
186.937967
 11
264.068476
 21
189.230812
  0
LINE
  8
1
 62
7
  6
CONTINUOUS
 10
218.139999
 20
200.431864
 11
172.448808
 21
200.431864
  0
LINE
  8
1
 62
7
  6
CONTINUOUS
 10
172.448808
 20
200.431864
 11
137.378037
 21
159.002664
  0
CIRCLE
  8
1
 62
7
  6
CONTINUOUS
 10
137.378037
 20
159.002664
 40
0.800000
  0
LINE
  8
1
 62
7
  6
CONTINUOUS
 10
220.231200
 20
155.197811
 11
172.448808
 21
155.197811
  0
LINE
  8
1
 62
7
  6
CONTINUOUS
 10
172.448808
 20
155.197811
 11
139.798957
 21
132.081358
  0
LINE
  8
1
 62
7
  6
CONTINUOUS
 10
142.167195
 20
134.274286
 11
142.654071
 21
133.586619
  0
LINE
  8
1
 62
7
  6
CONTINUOUS
 10
142.654071
 20
133.586619
 11
139.798957
 21
132.081358
  0
LINE
  8
1
 62
7
  6
CONTINUOUS
 10
139.798957
 20
132.081358
 11
142.167195
 21
134.274286
  0
TEXT
  8
1
 62
7
  6
CONTINUOUS
 10
274.230155
 20
196.521021
 40
4.000000
 41
0.900000
  1
âéü|â^ÄµéÞòté»Ä×é╠ìéé▀
  7
KANJI
 50
0.000000
 51
0.000000
  0
TEXT
  8
1
 62
7
  6
CONTINUOUS
 10
174.448808
 20
201.931864
 40
4.000000
 41
0.810000
  1
öFÄ»öÈìåüFé`écéOéXéWéVéV
  7
KANJI
 50
0.000000
 51
0.000000
  0
TEXT
  8
1
 62
7
  6
CONTINUOUS
 10
124.798902
 20
128.581400
 40
3.499958
 41
0.967500
  1
üäPOMüâ
  7
KANJI
 50
0.000000
 51
0.000000
  0
TEXT
  8
1
 62
7
  6
CONTINUOUS
 10
174.448808
 20
156.697811
 40
4.000000
 41
0.900000
  1
ìBÄ┐ò\Äª
  7
KANJI
 50
0.000000
 51
0.000000
  0
TEXT
  8
1
 62
7
  6
CONTINUOUS
 10
31.961906
 20
47.762343
 40
4.000000
 41
0.900000
  1
ôKìçË░└
  7
KANJI
 50
0.000000
 51
0.000000
  0
TEXT
  8
1
 62
7
  6
CONTINUOUS
 10
31.961906
 20
40.762343
 40
4.000000
 41
0.900000
  1
 FY6S6-D3
  7
KANJI
 50
0.000000
 51
0.000000
  0
TEXT
  8
1
 62
7
  6
CONTINUOUS
 10
31.961906
 20
33.762343
 40
4.000000
 41
0.900000
  1
 FY6PF6N-D3
  7
KANJI
 50
0.000000
 51
0.000000
  0
TEXT
  8
1
 62
7
  6
CONTINUOUS
 10
274.230155
 20
190.021021
 40
4.000000
 41
0.450000
  1
HEIGHT AFTER ROTOR COVER MOUNTED TO MOTOR
  7
KANJI
 50
0.000000
 51
0.000000
  0
TEXT
  8
1
 62
7
  6
CONTINUOUS
 10
174.448808
 20
150.197811
 40
4.000000
 41
0.540000
  1
MATERIAL INDICATION
  7
KANJI
 50
0.000000
 51
0.000000
  0
TEXT
  8
1
 62
7
  6
CONTINUOUS
 10
174.448808
 20
195.431864
 40
4.000000
 41
0.540000
  1
RECOGNITION NUMBER
  7
KANJI
 50
0.000000
 51
0.000000
  0
TEXT
  8
1
 62
7
  6
CONTINUOUS
 10
83.356146
 20
209.690745
 40
4.000000
 41
0.900000
  1
M4
  7
KANJI
 50
0.000000
 51
0.000000
  0
TEXT
  8
1
 62
7
  6
CONTINUOUS
 10
68.503310
 20
203.570800
 40
4.000000
 41
0.450000
  1
PLAIN WASHER
  7
KANJI
 50
0.000000
 51
0.000000
  0
TEXT
  8
1
 62
7
  6
CONTINUOUS
 10
69.047428
 20
209.690745
 40
4.000000
 41
0.900000
  1
ò¢ì└ïÓ
  7
KANJI
 50
0.000000
 51
0.000000
  0
TEXT
  8
1
 62
7
  6
CONTINUOUS
 10
49.751103
 20
221.452739
 40
5.000000
 41
0.900000
  1
A
  7
KANJI
 50
0.000000
 51
0.000000
  0
TEXT
  8
1
 62
7
  6
CONTINUOUS
 10
61.802638
 20
47.939561
 40
4.000000
 41
0.720000
  1
ADAPTING MOTOR
  7
KANJI
 50
0.000000
 51
0.000000
  0
LINE
  8
1
 62
7
  6
CONTINUOUS
 10
94.590389
 20
106.943865
 11
94.590389
 21
96.250111
  0
LINE
  8
1
 62
7
  6
CONTINUOUS
 10
94.590389
 20
106.943865
 11
94.590389
 21
114.443903
  0
LINE
  8
1
 62
7
  6
CONTINUOUS
 10
94.590389
 20
120.843903
 11
94.590389
 21
114.443903
  0
LINE
  8
1
 62
7
  6
CONTINUOUS
 10
107.750049
 20
114.443903
 11
93.090389
 21
114.443903
  0
LINE
  8
1
 62
7
  6
CONTINUOUS
 10
113.050049
 20
106.943865
 11
93.090389
 21
106.943865
  0
LINE
  8
1
 62
7
  6
CONTINUOUS
 10
94.590389
 20
114.443903
 11
94.174389
 21
117.643903
  0
LINE
  8
1
 62
7
  6
CONTINUOUS
 10
94.174389
 20
117.643903
 11
95.006389
 21
117.643903
  0
LINE
  8
1
 62
7
  6
CONTINUOUS
 10
95.006389
 20
117.643903
 11
94.590389
 21
114.443903
  0
LINE
  8
1
 62
7
  6
CONTINUOUS
 10
94.590389
 20
106.943865
 11
95.006389
 21
103.743865
  0
LINE
  8
1
 62
7
  6
CONTINUOUS
 10
95.006389
 20
103.743865
 11
94.174389
 21
103.743865
  0
LINE
  8
1
 62
7
  6
CONTINUOUS
 10
94.174389
 20
103.743865
 11
94.590389
 21
106.943865
  0
TEXT
  8
1
 62
7
  6
CONTINUOUS
 10
92.470301
 20
96.250111
 40
3.200000
 41
0.900000
  1
7.5
  7
KANJI
 50
90.000000
 51
0.000000
  0
LINE
  8
1
 62
7
  6
CONTINUOUS
 10
241.400810
 20
180.341627
 11
278.400810
 21
180.341627
  0
LINE
  8
1
 62
7
  6
CONTINUOUS
 10
278.400810
 20
173.530954
 11
278.400810
 21
181.841627
  0
LINE
  8
1
 62
7
  6
CONTINUOUS
 10
241.400810
 20
176.243865
 11
241.400810
 21
181.841627
  0
LINE
  8
1
 62
7
  6
CONTINUOUS
 10
241.400810
 20
180.341627
 11
244.600810
 21
180.757627
  0
LINE
  8
1
 62
7
  6
CONTINUOUS
 10
244.600810
 20
180.757627
 11
244.600810
 21
179.925627
  0
LINE
  8
1
 62
7
  6
CONTINUOUS
 10
244.600810
 20
179.925627
 11
241.400810
 21
180.341627
  0
LINE
  8
1
 62
7
  6
CONTINUOUS
 10
278.400810
 20
180.341627
 11
275.200810
 21
179.925627
  0
LINE
  8
1
 62
7
  6
CONTINUOUS
 10
275.200810
 20
179.925627
 11
275.200810
 21
180.757627
  0
LINE
  8
1
 62
7
  6
CONTINUOUS
 10
275.200810
 20
180.757627
 11
278.400810
 21
180.341627
  0
TEXT
  8
1
 62
7
  6
CONTINUOUS
 10
255.886337
 20
182.341627
 40
3.200000
 41
0.900000
  1
37
  7
KANJI
 50
0.000000
 51
0.000000
  0
LINE
  8
1
 62
7
  6
CONTINUOUS
 10
322.917755
 20
96.203714
 11
365.117755
 21
96.203714
  0
LINE
  8
1
 62
7
  6
CONTINUOUS
 10
365.117755
 20
108.108191
 11
365.117755
 21
94.703714
  0
LINE
  8
1
 62
7
  6
CONTINUOUS
 10
322.917755
 20
108.108191
 11
322.917755
 21
94.703714
  0
LINE
  8
1
 62
7
  6
CONTINUOUS
 10
322.917755
 20
96.203714
 11
326.117755
 21
96.619714
  0
LINE
  8
1
 62
7
  6
CONTINUOUS
 10
326.117755
 20
96.619714
 11
326.117755
 21
95.787714
  0
LINE
  8
1
 62
7
  6
CONTINUOUS
 10
326.117755
 20
95.787714
 11
322.917755
 21
96.203714
  0
LINE
  8
1
 62
7
  6
CONTINUOUS
 10
365.117755
 20
96.203714
 11
361.917755
 21
95.787714
  0
LINE
  8
1
 62
7
  6
CONTINUOUS
 10
361.917755
 20
95.787714
 11
361.917755
 21
96.619714
  0
LINE
  8
1
 62
7
  6
CONTINUOUS
 10
361.917755
 20
96.619714
 11
365.117755
 21
96.203714
  0
TEXT
  8
1
 62
7
  6
CONTINUOUS
 10
330.152800
 20
98.203714
 40
3.200000
 41
0.900000
  1
45ê╚ë║ MAX
  7
KANJI
 50
0.000000
 51
0.000000
  0
LINE
  8
1
 62
7
  6
CONTINUOUS
 10
248.000810
 20
100.542313
 11
258.300810
 21
100.542313
  0
LINE
  8
1
 62
7
  6
CONTINUOUS
 10
258.300810
 20
100.542313
 11
269.638728
 21
100.542313
  0
LINE
  8
1
 62
7
  6
CONTINUOUS
 10
248.000810
 20
107.243865
 11
248.000810
 21
99.042313
  0
LINE
  8
1
 62
7
  6
CONTINUOUS
 10
258.300810
 20
106.320538
 11
258.300810
 21
99.042313
  0
LINE
  8
1
 62
7
  6
CONTINUOUS
 10
248.000810
 20
100.542313
 11
251.200810
 21
100.958313
  0
LINE
  8
1
 62
7
  6
CONTINUOUS
 10
251.200810
 20
100.958313
 11
251.200810
 21
100.126313
  0
LINE
  8
1
 62
7
  6
CONTINUOUS
 10
251.200810
 20
100.126313
 11
248.000810
 21
100.542313
  0
LINE
  8
1
 62
7
  6
CONTINUOUS
 10
258.300810
 20
100.542313
 11
255.100810
 21
100.126313
  0
LINE
  8
1
 62
7
  6
CONTINUOUS
 10
255.100810
 20
100.126313
 11
255.100810
 21
100.958313
  0
LINE
  8
1
 62
7
  6
CONTINUOUS
 10
255.100810
 20
100.958313
 11
258.300810
 21
100.542313
  0
TEXT
  8
1
 62
7
  6
CONTINUOUS
 10
261.798728
 20
102.542313
 40
3.200000
 41
0.900000
  1
10.3
  7
KANJI
 50
0.000000
 51
0.000000
  0
LINE
  8
1
 62
7
  6
CONTINUOUS
 10
248.000810
 20
91.610061
 11
278.400810
 21
91.610061
  0
LINE
  8
1
 62
7
  6
CONTINUOUS
 10
278.400810
 20
115.956776
 11
278.400810
 21
90.110061
  0
LINE
  8
1
 62
7
  6
CONTINUOUS
 10
248.000810
 20
105.943865
 11
248.000810
 21
90.110061
  0
LINE
  8
1
 62
7
  6
CONTINUOUS
 10
248.000810
 20
91.610061
 11
251.200810
 21
92.026061
  0
LINE
  8
1
 62
7
  6
CONTINUOUS
 10
251.200810
 20
92.026061
 11
251.200810
 21
91.194061
  0
LINE
  8
1
 62
7
  6
CONTINUOUS
 10
251.200810
 20
91.194061
 11
248.000810
 21
91.610061
  0
LINE
  8
1
 62
7
  6
CONTINUOUS
 10
278.400810
 20
91.610061
 11
275.200810
 21
91.194061
  0
LINE
  8
1
 62
7
  6
CONTINUOUS
 10
275.200810
 20
91.194061
 11
275.200810
 21
92.026061
  0
LINE
  8
1
 62
7
  6
CONTINUOUS
 10
275.200810
 20
92.026061
 11
278.400810
 21
91.610061
  0
TEXT
  8
1
 62
7
  6
CONTINUOUS
 10
258.944619
 20
93.610061
 40
3.200000
 41
0.900000
  1
30.4
  7
KANJI
 50
0.000000
 51
0.000000
  0
LINE
  8
1
 62
7
  6
CONTINUOUS
 10
103.250049
 20
182.665423
 11
163.850049
 21
182.665423
  0
LINE
  8
1
 62
7
  6
CONTINUOUS
 10
163.850049
 20
170.543865
 11
163.850049
 21
184.165423
  0
LINE
  8
1
 62
7
  6
CONTINUOUS
 10
103.250049
 20
163.543865
 11
103.250049
 21
184.165423
  0
LINE
  8
1
 62
7
  6
CONTINUOUS
 10
103.250049
 20
182.665423
 11
106.450049
 21
183.081423
  0
LINE
  8
1
 62
7
  6
CONTINUOUS
 10
106.450049
 20
183.081423
 11
106.450049
 21
182.249423
  0
LINE
  8
1
 62
7
  6
CONTINUOUS
 10
106.450049
 20
182.249423
 11
103.250049
 21
182.665423
  0
LINE
  8
1
 62
7
  6
CONTINUOUS
 10
163.850049
 20
182.665423
 11
160.650049
 21
182.249423
  0
LINE
  8
1
 62
7
  6
CONTINUOUS
 10
160.650049
 20
182.249423
 11
160.650049
 21
183.081423
  0
LINE
  8
1
 62
7
  6
CONTINUOUS
 10
160.650049
 20
183.081423
 11
163.850049
 21
182.665423
  0
TEXT
  8
1
 62
7
  6
CONTINUOUS
 10
129.084643
 20
184.665423
 40
3.200000
 41
0.900000
  1
60.6
  7
KANJI
 50
0.000000
 51
0.000000
  0
LINE
  8
1
 62
7
  6
CONTINUOUS
 10
112.050049
 20
96.406203
 11
155.050024
 21
96.406203
  0
LINE
  8
1
 62
7
  6
CONTINUOUS
 10
112.050049
 20
107.943865
 11
112.050049
 21
94.906203
  0
LINE
  8
1
 62
7
  6
CONTINUOUS
 10
155.050024
 20
107.943865
 11
155.050024
 21
94.906203
  0
LINE
  8
1
 62
7
  6
CONTINUOUS
 10
112.050049
 20
96.406203
 11
115.250049
 21
96.822203
  0
LINE
  8
1
 62
7
  6
CONTINUOUS
 10
115.250049
 20
96.822203
 11
115.250049
 21
95.990203
  0
LINE
  8
1
 62
7
  6
CONTINUOUS
 10
115.250049
 20
95.990203
 11
112.050049
 21
96.406203
  0
LINE
  8
1
 62
7
  6
CONTINUOUS
 10
155.050024
 20
96.406203
 11
151.850024
 21
95.990203
  0
LINE
  8
1
 62
7
  6
CONTINUOUS
 10
151.850024
 20
95.990203
 11
151.850024
 21
96.822203
  0
LINE
  8
1
 62
7
  6
CONTINUOUS
 10
151.850024
 20
96.822203
 11
155.050024
 21
96.406203
  0
TEXT
  8
1
 62
7
  6
CONTINUOUS
 10
131.571526
 20
98.406203
 40
3.200000
 41
0.900000
  1
43
  7
KANJI
 50
0.000000
 51
0.000000
  0
LINE
  8
1
 62
7
  6
CONTINUOUS
 10
94.590389
 20
114.443903
 11
94.590389
 21
175.043865
  0
LINE
  8
1
 62
7
  6
CONTINUOUS
 10
107.750049
 20
175.043865
 11
93.090389
 21
175.043865
  0
LINE
  8
1
 62
7
  6
CONTINUOUS
 10
107.750049
 20
114.443903
 11
93.090389
 21
114.443903
  0
LINE
  8
1
 62
7
  6
CONTINUOUS
 10
94.590389
 20
175.043865
 11
95.006389
 21
171.843865
  0
LINE
  8
1
 62
7
  6
CONTINUOUS
 10
95.006389
 20
171.843865
 11
94.174389
 21
171.843865
  0
LINE
  8
1
 62
7
  6
CONTINUOUS
 10
94.174389
 20
171.843865
 11
94.590389
 21
175.043865
  0
LINE
  8
1
 62
7
  6
CONTINUOUS
 10
94.590389
 20
114.443903
 11
94.174389
 21
117.643903
  0
LINE
  8
1
 62
7
  6
CONTINUOUS
 10
94.174389
 20
117.643903
 11
95.006389
 21
117.643903
  0
LINE
  8
1
 62
7
  6
CONTINUOUS
 10
95.006389
 20
117.643903
 11
94.590389
 21
114.443903
  0
TEXT
  8
1
 62
7
  6
CONTINUOUS
 10
92.590389
 20
141.517885
 40
3.200000
 41
0.900000
  1
60.6
  7
KANJI
 50
90.000000
 51
0.000000
  0
LINE
  8
1
 62
7
  6
CONTINUOUS
 10
162.799533
 20
172.776834
 11
172.778901
 21
180.027785
  0
LINE
  8
1
 62
7
  6
CONTINUOUS
 10
172.778901
 20
180.027785
 11
193.258901
 21
180.027785
  0
LINE
  8
1
 62
7
  6
CONTINUOUS
 10
162.799533
 20
172.776834
 11
165.143794
 21
174.994377
  0
LINE
  8
1
 62
7
  6
CONTINUOUS
 10
165.143794
 20
174.994377
 11
165.632854
 21
174.321292
  0
LINE
  8
1
 62
7
  6
CONTINUOUS
 10
165.632854
 20
174.321292
 11
162.799533
 21
172.776834
  0
TEXT
  8
1
 62
7
  6
CONTINUOUS
 10
187.258901
 20
182.027785
 40
3.200000
 41
0.900000
  1
5.5
  7
KANJI
 50
0.000000
 51
0.000000
  0
TEXT
  8
1
 62
7
  6
CONTINUOUS
 10
177.978901
 20
182.027785
 40
3.200000
 41
0.900000
  1
4-R
  7
KANJI
 50
0.000000
 51
0.000000
  0
LINE
  8
1
 62
7
  6
CONTINUOUS
 10
364.631694
 20
126.958272
 11
377.626693
 21
105.076959
  0
LINE
  8
1
 62
7
  6
CONTINUOUS
 10
377.626693
 20
105.076959
 11
397.751138
 21
105.076959
  0
LINE
  8
1
 62
7
  6
CONTINUOUS
 10
370.452819
 20
117.156512
 11
372.444498
 21
114.617561
  0
LINE
  8
1
 62
7
  6
CONTINUOUS
 10
372.444498
 20
114.617561
 11
371.729141
 21
114.192721
  0
LINE
  8
1
 62
7
  6
CONTINUOUS
 10
371.729141
 20
114.192721
 11
370.452819
 21
117.156512
  0
LINE
  8
1
 62
7
  6
CONTINUOUS
 10
367.082694
 20
122.831215
 11
365.091016
 21
125.370166
  0
LINE
  8
1
 62
7
  6
CONTINUOUS
 10
365.091016
 20
125.370166
 11
365.806372
 21
125.795006
  0
LINE
  8
1
 62
7
  6
CONTINUOUS
 10
365.806372
 20
125.795006
 11
367.082694
 21
122.831215
  0
TEXT
  8
1
 62
7
  6
CONTINUOUS
 10
382.826693
 20
107.076959
 40
3.200000
 41
0.900000
  1
4-âË
  7
KANJI
 50
0.000000
 51
0.000000
  0
LINE
  8
1
 62
7
  6
CONTINUOUS
 10
100.292523
 20
119.010581
 11
85.201377
 21
119.010581
  0
LINE
  8
1
 62
7
  6
CONTINUOUS
 10
161.231211
 20
166.162391
 11
100.292523
 21
119.010581
  0
LINE
  8
1
 62
7
  6
CONTINUOUS
 10
105.868887
 20
123.325339
 11
108.145162
 21
125.612614
  0
LINE
  8
1
 62
7
  6
CONTINUOUS
 10
108.145162
 20
125.612614
 11
108.654310
 21
124.954594
  0
LINE
  8
1
 62
7
  6
CONTINUOUS
 10
108.654310
 20
124.954594
 11
105.868887
 21
123.325339
  0
LINE
  8
1
 62
7
  6
CONTINUOUS
 10
161.231211
 20
166.162391
 11
158.954937
 21
163.875115
  0
LINE
  8
1
 62
7
  6
CONTINUOUS
 10
158.954937
 20
163.875115
 11
158.445788
 21
164.533136
  0
LINE
  8
1
 62
7
  6
CONTINUOUS
 10
158.445788
 20
164.533136
 11
161.231211
 21
166.162391
  0
TEXT
  8
1
 62
7
  6
CONTINUOUS
 10
88.845822
 20
120.097312
 40
3.200000
 41
0.900000
  1
70
  7
KANJI
 50
0.000000
 51
0.000000
  0
TEXT
  8
1
 62
7
  6
CONTINUOUS
 10
85.201377
 20
120.097312
 40
3.200000
 41
0.900000
  1
âË
  7
KANJI
 50
0.000000
 51
0.000000
  0
LINE
  8
1
 62
7
  6
DIVIDE
 10
0.000000
 20
297.000000
 11
0.000000
 21
0.000000
  0
LINE
  8
1
 62
7
  6
DIVIDE
 10
420.000000
 20
297.000000
 11
0.000000
 21
297.000000
  0
LINE
  8
1
 62
7
  6
CONTINUOUS
 10
356.904077
 20
97.911234
 11
361.234204
 21
97.911234
  0
LINE
  8
1
 62
7
  6
CONTINUOUS
 10
361.234204
 20
97.911234
 11
359.069141
 21
101.661234
  0
LINE
  8
1
 62
7
  6
CONTINUOUS
 10
359.069141
 20
101.661234
 11
356.904077
 21
97.911234
  0
TEXT
  8
1
 62
7
  6
CONTINUOUS
 10
358.169141
 20
98.161234
 40
2.000000
 41
0.900000
  1
A
  7
KANJI
 50
0.000000
 51
0.000000
  0
LINE
  8
1
 62
7
  6
CONTINUOUS
 10
358.111815
 20
189.664539
 11
362.441942
 21
189.664539
  0
LINE
  8
1
 62
7
  6
CONTINUOUS
 10
362.441942
 20
189.664539
 11
360.276879
 21
193.414539
  0
LINE
  8
1
 62
7
  6
CONTINUOUS
 10
360.276879
 20
193.414539
 11
358.111815
 21
189.664539
  0
TEXT
  8
1
 62
7
  6
CONTINUOUS
 10
359.376879
 20
189.914539
 40
2.000000
 41
0.900000
  1
A
  7
KANJI
 50
0.000000
 51
0.000000
  0
LINE
  8
1
 62
7
  6
DOT
 10
249.400810
 20
122.222162
 11
249.400810
 21
116.943865
  0
LINE
  8
1
 62
7
  6
DOT
 10
249.200810
 20
172.543865
 11
249.400810
 21
172.543865
  0
LINE
  8
1
 62
7
  6
DOT
 10
249.400810
 20
172.543865
 11
249.400810
 21
167.261610
  0
LINE
  8
1
 62
7
  6
DOT
 10
248.000810
 20
116.943865
 11
249.400810
 21
116.943865
  0
LINE
  8
1
 62
7
  6
DOT
 10
248.000810
 20
106.943865
 11
248.000810
 21
107.434318
  0
LINE
  8
1
 62
7
  6
DOT
 10
248.000810
 20
107.434340
 11
248.000810
 21
114.243865
  0
LINE
  8
1
 62
7
  6
DOT
 10
248.000810
 20
106.943865
 11
242.400810
 21
106.934340
  0
LINE
  8
1
 62
7
  6
DOT
 10
242.400810
 20
114.243865
 11
242.400810
 21
106.934340
  0
LINE
  8
1
 62
7
  6
DOT
 10
241.400810
 20
114.243865
 11
242.400810
 21
114.243865
  0
LINE
  8
1
 62
7
  6
DOT
 10
241.400810
 20
117.743865
 11
241.400810
 21
114.243865
  0
LINE
  8
1
 62
7
  6
DOT
 10
241.400810
 20
117.743865
 11
238.750810
 21
117.743865
  0
LINE
  8
1
 62
7
  6
DOT
 10
238.750810
 20
117.743865
 11
238.400810
 21
118.093865
  0
LINE
  8
1
 62
7
  6
DOT
 10
238.400810
 20
120.743865
 11
238.400810
 21
118.093865
  0
LINE
  8
1
 62
7
  6
DOT
 10
238.400810
 20
140.724162
 11
238.400810
 21
120.743865
  0
LINE
  8
1
 62
7
  6
DOT
 10
238.400810
 20
168.743865
 11
238.400810
 21
140.724162
  0
LINE
  8
1
 62
7
  6
DOT
 10
238.400810
 20
171.393865
 11
238.400810
 21
168.743865
  0
LINE
  8
1
 62
7
  6
DOT
 10
238.750810
 20
171.743865
 11
241.400810
 21
171.743865
  0
LINE
  8
1
 62
7
  6
DOT
 10
241.400810
 20
175.243865
 11
241.400810
 21
171.743865
  0
LINE
  8
1
 62
7
  6
DOT
 10
248.000810
 20
175.243865
 11
241.400810
 21
175.243865
  0
LINE
  8
1
 62
7
  6
DOT
 10
248.000810
 20
131.743865
 11
248.000810
 21
175.243865
  0
LINE
  8
1
 62
7
  6
DOT
 10
238.750810
 20
171.743865
 11
238.400810
 21
171.393865
  0
LINE
  8
1
 62
7
  6
DOT
 10
241.400810
 20
171.743865
 11
241.400810
 21
117.743865
  0
LINE
  8
1
 62
7
  6
DOT
 10
242.400810
 20
114.243865
 11
248.000810
 21
114.243865
  0
LINE
  8
1
 62
7
  6
DOT
 10
248.000810
 20
114.243865
 11
248.000810
 21
131.743865
  0
LINE
  8
1
 62
7
  6
DOT
 10
238.400810
 20
148.743865
 11
233.677675
 21
148.743865
  0
LINE
  8
1
 62
7
  6
DOT
 10
229.713030
 20
144.743865
 11
281.826765
 21
144.743865
  0
LINE
  8
1
 62
7
  6
DOT
 10
236.343351
 20
140.743865
 11
238.400810
 21
140.743865
  0
ARC
  8
1
 62
7
  6
CONTINUOUS
 10
241.760703
 20
143.100264
 40
10.005313
 50
124.860125
 51
135.587908
  0
ARC
  8
1
 62
7
  6
CONTINUOUS
 10
238.521000
 20
146.384744
 40
5.393165
 50
136.427182
 51
151.835055
  0
ARC
  8
1
 62
7
  6
CONTINUOUS
 10
237.015041
 20
147.278373
 40
3.644534
 50
153.045454
 51
171.978855
  0
ARC
  8
1
 62
7
  6
CONTINUOUS
 10
237.069200
 20
147.331346
 40
3.691259
 50
172.910400
 51
-169.580920
  0
ARC
  8
1
 62
7
  6
CONTINUOUS
 10
238.812943
 20
147.662726
 40
5.466189
 50
-169.470175
 51
-157.296886
  0
ARC
  8
1
 62
7
  6
CONTINUOUS
 10
243.474684
 20
149.573575
 40
10.504292
 50
-157.495627
 51
-150.785459
  0
ARC
  8
1
 62
7
  6
CONTINUOUS
 10
262.265908
 20
160.000180
 40
31.994348
 50
-150.913181
 51
-148.612260
  0
ARC
  8
1
 62
7
  6
CONTINUOUS
 10
192.343708
 20
117.365745
 40
49.900764
 50
29.866210
 51
31.362525
  0
ARC
  8
1
 62
7
  6
CONTINUOUS
 10
223.771726
 20
135.408084
 40
13.662025
 50
24.502263
 51
29.884097
  0
ARC
  8
1
 62
7
  6
CONTINUOUS
 10
229.660150
 20
138.093696
 40
7.190081
 50
14.596095
 51
24.489052
  0
ARC
  8
1
 62
7
  6
CONTINUOUS
 10
232.060450
 20
138.729438
 40
4.707050
 50
-0.337965
 51
14.470229
  0
ARC
  8
1
 62
7
  6
CONTINUOUS
 10
232.742896
 20
138.738954
 40
4.024694
 50
-18.613942
 51
-0.530741
  0
ARC
  8
1
 62
7
  6
CONTINUOUS
 10
231.939005
 20
138.996285
 40
4.868689
 50
-35.694653
 51
-18.464202
  0
ARC
  8
1
 62
7
  6
CONTINUOUS
 10
229.510527
 20
140.630654
 40
7.795061
 50
-48.444677
 51
-35.036055
  0
LINE
  8
1
 62
7
  6
CONTINUOUS
 10
174.106728
 20
162.099371
 11
178.436855
 21
162.099371
  0
LINE
  8
1
 62
7
  6
CONTINUOUS
 10
178.436855
 20
162.099371
 11
176.271792
 21
165.849371
  0
LINE
  8
1
 62
7
  6
CONTINUOUS
 10
176.271792
 20
165.849371
 11
174.106728
 21
162.099371
  0
TEXT
  8
1
 62
7
  6
CONTINUOUS
 10
175.371792
 20
162.349371
 40
2.000000
 41
0.900000
  1
A
  7
KANJI
 50
0.000000
 51
0.000000
  0
LINE
  8
1
 62
7
  6
CONTINUOUS
 10
174.123602
 20
207.464133
 11
178.453729
 21
207.464133
  0
LINE
  8
1
 62
7
  6
CONTINUOUS
 10
178.453729
 20
207.464133
 11
176.288666
 21
211.214133
  0
LINE
  8
1
 62
7
  6
CONTINUOUS
 10
176.288666
 20
211.214133
 11
174.123602
 21
207.464133
  0
TEXT
  8
1
 62
7
  6
CONTINUOUS
 10
175.388666
 20
207.714133
 40
2.000000
 41
0.900000
  1
A
  7
KANJI
 50
0.000000
 51
0.000000
  0
LINE
  8
1
 62
7
  6
CONTINUOUS
 10
62.870342
 20
229.446746
 11
67.200469
 21
229.446746
  0
LINE
  8
1
 62
7
  6
CONTINUOUS
 10
56.086508
 20
47.651168
 11
60.416635
 21
47.651168
  0
LINE
  8
1
 62
7
  6
CONTINUOUS
 10
60.416635
 20
47.651168
 11
58.251571
 21
51.401168
  0
LINE
  8
1
 62
7
  6
CONTINUOUS
 10
58.251571
 20
51.401168
 11
56.086508
 21
47.651168
  0
TEXT
  8
1
 62
7
  6
CONTINUOUS
 10
57.351571
 20
47.901168
 40
2.000000
 41
0.900000
  1
A
  7
KANJI
 50
0.000000
 51
0.000000
  0
LINE
  8
1
 62
7
  6
CONTINUOUS
 10
72.059584
 20
226.806052
 11
71.259584
 21
226.806052
  0
LINE
  8
1
 62
7
  6
CONTINUOUS
 10
71.259584
 20
226.806052
 11
71.259584
 21
218.806052
  0
LINE
  8
1
 62
7
  6
CONTINUOUS
 10
71.259584
 20
218.806052
 11
72.059584
 21
218.806052
  0
LINE
  8
1
 62
7
  6
CONTINUOUS
 10
72.059584
 20
218.806052
 11
72.059584
 21
226.806052
  0
LINE
  8
1
 62
7
  6
DIVIDE
 10
420.000000
 20
280.000000
 11
420.000000
 21
297.000000
  0
LINE
  8
1
 62
7
  6
CONTINUOUS
 10
63.189763
 20
230.000000
 11
62.870342
 21
229.446746
  0
LINE
  8
1
 62
7
  6
CONTINUOUS
 10
67.200469
 20
229.446746
 11
66.881048
 21
230.000000
  0
LINE
  8
1
 62
7
  6
CONTINUOUS
 10
345.000000
 20
281.000000
 11
345.000000
 21
280.000000
  0
LINE
  8
1
 62
7
  6
CONTINUOUS
 10
280.000000
 20
281.000000
 11
280.000000
 21
280.000000
  0
LINE
  8
1
 62
7
  6
CONTINUOUS
 10
215.000000
 20
281.000000
 11
215.000000
 21
280.000000
  0
LINE
  8
1
 62
7
  6
CONTINUOUS
 10
150.000000
 20
281.000000
 11
150.000000
 21
280.000000
  0
LINE
  8
1
 62
7
  6
CONTINUOUS
 10
85.000000
 20
281.000000
 11
85.000000
 21
280.000000
  0
LINE
  8
1
 62
7
  6
CONTINUOUS
 10
30.000000
 20
32.441712
 11
108.684047
 21
32.441712
  0
LINE
  8
1
 62
7
  6
CONTINUOUS
 10
30.000000
 20
39.441712
 11
108.684047
 21
39.441712
  0
LINE
  8
1
 62
7
  6
CONTINUOUS
 10
30.000000
 20
46.441712
 11
108.684047
 21
46.441712
  0
LINE
  8
1
 62
7
  6
DIVIDE
 10
0.000000
 20
0.000000
 11
20.000000
 21
0.000000
  0
ENDSEC
  0
EOF
