  0
SECTION
  2
HEADER
  9
$ACADVER
  1
AC1003
  9
$INSBASE
 10
0.000000
 20
0.000000
  9
$EXTMIN
 10
0.000000
 20
0.000000
  9
$EXTMAX
 10
148.000000
 20
210.000000
  9
$LIMMIN
 10
0.000000
 20
0.000000
  9
$LIMMAX
 10
148.000000
 20
210.000000
  9
$VIEWCTR
 10
74.000000
 20
105.000000
  9
$VIEWSIZE
 40
210.000000
  9
$PEXTMIN
 10
0.000000
 20
0.000000
 30
0.000000
  9
$PEXTMAX
 10
148.000000
 20
210.000000
 30
0.000000
  9
$SNAPMODE
 70
     0
  9
$SNAPUNIT
 10
1.000000
 20
1.000000
  9
$SNAPBASE
 10
0.000000
 20
0.000000
  9
$SNAPANG
 50
0.000000
  9
$SNAPISOPAIR
 70
     0
  9
$SNAPSTYLE
 70
     0
  9
$GRIDMODE
 70
     0
  9
$GRIDUNIT
 10
0.000000
 20
0.000000
  9
$ORTHOMODE
 70
     0
  9
$REGENMODE
 70
     1
  9
$FILLMODE
 70
     1
  9
$QTEXTMODE
 70
     0
  9
$DRAGMODE
 70
     2
  9
$LTSCALE
 40
0.250000
  9
$OSMODE
 70
     0
  9
$ATTMODE
 70
     1
  9
$TEXTSIZE
 40
0.200000
  9
$TRACEWID
 40
0.050000
  9
$TEXTSTYLE
  7
STANDARD
  9
$CLAYER
  8
0
  9
$CELTYPE
  6
BYLAYER
  9
$CECOLOR
 62
   256
  9
$DIMSCALE
 40
1.000000
  9
$DIMASZ
 40
1.000000
  9
$DIMEXO
 40
0.000000
  9
$DIMDLI
 40
0.500000
  9
$DIMRND
 40
0.000000
  9
$DIMDLE
 40
0.000000
  9
$DIMEXE
 40
0.000000
  9
$DIMTP
 40
0.000000
  9
$DIMTM
 40
0.000000
  9
$DIMTXT
 40
0.180000
  9
$DIMCEN
 40
0.000000
  9
$DIMTSZ
 40
0.000000
  9
$DIMTOL
 70
     0
  9
$DIMLIM
 70
     0
  9
$DIMTIH
 70
     1
  9
$DIMTOH
 70
     1
  9
$DIMSE1
 70
     0
  9
$DIMSE2
 70
     0
  9
$DIMTAD
 70
     0
  9
$DIMZIN
 70
     0
  9
$DIMBLK
  1

  9
$DIMASO
 70
     0
  9
$DIMSHO
 70
     0
  9
$DIMPOST
  1

  9
$DIMAPOST
  1

  9
$DIMALT
 70
     0
  9
$DIMALTD
 70
     0
  9
$DIMALTF
 40
25.400000
  9
$DIMLFAC
 40
1.000000
  9
$DIMTOFL
 70
     0
  9
$DIMTVP
 40
0.000000
  9
$DIMTIX
 70
     0
  9
$DIMSOXD
 70
     0
  9
$DIMSAH
 70
     0
  9
$DIMBLKL
  1

  9
$DIMBLKR
  1

  9
$LUNITS
 70
     2
  9
$LUPREC
 70
     2
  9
$AXISMODE
 70
     0
  9
$AXISUNIT
 10
1.000000
 20
1.000000
  9
$SKETCHINC
 40
0.000000
  9
$FILLETRAD
 40
0.000000
  9
$AUNITS
 70
     1
  9
$AUPREC
 70
     2
  9
$MENU
  1
ACAD
  9
$ELEVATION
 40
0.000000
  9
$THICKNESS
 40
0.000000
  9
$VIEWDIR
 10
0.000000
 20
0.000000
 30
1.000000
  9
$LIMCHECK
 70
     1
  9
$BLIPMODE
 70
     1
  9
$CHAMFERA
 40
0.000000
  9
$CHAMFERB
 40
0.000000
  9
$FASTZOOM
 70
     1
  9
$SKPOLY
 70
     0
  9
$TDCREATE
 40
0.000000
  9
$TDUPDATE
 40
0.000000
  9
$TDINDWG
 40
0.000000
  9
$TDUSRTIMER
 40
0.000000
  9
$USRTIMER
 70
     1
  9
$ANGBASE
 50
0.000000
  9
$ANGDIR
 70
     0
  9
$PDMODE
 70
     0
  9
$PDSIZE
 40
0.000000
  9
$PLINEWID
 40
0.000000
  9
$COORDS
 70
     2
  9
$USERI1
 70
     0
  9
$USERI2
 70
     0
  9
$USERI3
 70
     0
  9
$USERI4
 70
     0
  9
$USERI5
 70
     0
  9
$USERR1
 40
0.000000
  9
$USERR2
 40
0.000000
  9
$USERR3
 40
0.000000
  9
$USERR4
 40
0.000000
  9
$USERR5
 40
0.000000
  0
ENDSEC
  0
SECTION
  2
TABLES
  0
TABLE
  2
LTYPE
 70
     5
  0
LTYPE
  2
CONTINUOUS
 70
    64
  3
Solid line
 72
    65
 73
     0
 40
0.0
  0
LTYPE
  2
HIDDEN
 70
    64
  3
------------------------
 72
    65
 73
     2
 40
12.6
 49
8.4
 49
-4.2
  0
LTYPE
  2
DOT
 70
    64
  3
¥¥¥¥¥¥¥¥¥¥¥¥¥¥¥¥¥¥¥¥¥¥¥¥
 72
    65
 73
     2
 40
8.0
 49
6.0
 49
-2.0
  0
LTYPE
  2
DASHDOT
 70
    64
  3
--¥--¥--¥--¥--¥--¥--¥--
 72
    65
 73
     4
 40
50.5
 49
30.0
 49
-9.0
 49
2.5
 49
-9.0
  0
LTYPE
  2
DIVIDE
 70
    64
  3
--¥¥--¥¥--¥¥--¥¥--¥¥--
 72
    65
 73
     6
 40
58.0
 49
30.0
 49
-9.0
 49
2.5
 49
-5.0
 49
2.5
 49
-9.0
  0
ENDTAB
  0
TABLE
  2
LAYER
 70
1
  0
LAYER
  2
1
 70
64
 62
7
  6
CONTINUOUS
  0
ENDTAB
  0
TABLE
  2
STYLE
 70
     2
  0
STYLE
  2
STANDARD
 70
    64
 40
0.0
 41
1.0
 50
0.0
 71
     0
 42
0.2
  3
TXT
  4

  0
STYLE
  2
KANJI
 70
    64
 40
0.0
 41
1.0
 50
0.0
 71
     0
 42
0.2
  3
TXT
  4
BIGFONT
  0
ENDTAB
  0
TABLE
  2
VIEW
 70
     0
  0
ENDTAB
  0
ENDSEC
  0
SECTION
  2
BLOCKS
  0
ENDSEC
  0
SECTION
  2
ENTITIES
  0
LINE
  8
1
 62
7
  6
CONTINUOUS
 10
89.927101
 20
141.470388
 11
126.249642
 21
141.470388
  0
LINE
  8
1
 62
7
  6
CONTINUOUS
 10
90.131671
 20
136.270388
 11
126.249642
 21
136.270388
  0
LINE
  8
1
 62
7
  6
CONTINUOUS
 10
90.234161
 20
138.870388
 11
126.249642
 21
138.870388
  0
LINE
  8
1
 62
7
  6
CONTINUOUS
 10
89.983175
 20
101.673527
 11
126.249642
 21
101.673527
  0
LINE
  8
1
 62
7
  6
CONTINUOUS
 10
89.983175
 20
104.273527
 11
126.249642
 21
104.273527
  0
LINE
  8
1
 62
7
  6
CONTINUOUS
 10
126.249642
 20
101.673527
 11
126.249642
 21
104.273527
  0
LINE
  8
1
 62
7
  6
CONTINUOUS
 10
126.249642
 20
136.270388
 11
126.249642
 21
141.470388
  0
LINE
  8
1
 62
7
  6
CONTINUOUS
 10
59.007422
 20
101.673527
 11
59.007422
 21
99.973527
  0
LINE
  8
1
 62
7
  6
CONTINUOUS
 10
59.007422
 20
101.673527
 11
88.176788
 21
101.673527
  0
LINE
  8
1
 62
7
  6
CONTINUOUS
 10
59.007422
 20
104.273527
 11
59.007422
 21
101.673527
  0
LINE
  8
1
 62
7
  6
CONTINUOUS
 10
59.007422
 20
104.273527
 11
88.176788
 21
104.273527
  0
LINE
  8
1
 62
7
  6
CONTINUOUS
 10
59.007422
 20
105.973527
 11
59.007422
 21
104.273527
  0
LINE
  8
1
 62
7
  6
CONTINUOUS
 10
51.507422
 20
99.473527
 11
49.294256
 21
99.325983
  0
LINE
  8
1
 62
7
  6
CONTINUOUS
 10
51.507422
 20
106.473527
 11
51.507422
 21
110.973527
  0
LINE
  8
1
 62
7
  6
CONTINUOUS
 10
51.507422
 20
106.473527
 11
49.298776
 21
106.620770
  0
LINE
  8
1
 62
7
  6
CONTINUOUS
 10
51.507422
 20
94.973527
 11
51.507422
 21
99.473527
  0
LINE
  8
1
 62
7
  6
CONTINUOUS
 10
44.007422
 20
110.973527
 11
44.007422
 21
94.973527
  0
LINE
  8
1
 62
7
  6
CONTINUOUS
 10
59.007422
 20
99.973527
 11
51.507422
 21
99.473527
  0
LINE
  8
1
 62
7
  6
CONTINUOUS
 10
59.007422
 20
105.973527
 11
51.507422
 21
106.473527
  0
LINE
  8
1
 62
7
  6
CONTINUOUS
 10
44.007422
 20
94.973527
 11
51.507422
 21
94.973527
  0
LINE
  8
1
 62
7
  6
CONTINUOUS
 10
44.007422
 20
110.973527
 11
51.507422
 21
110.973527
  0
LINE
  8
1
 62
7
  6
CONTINUOUS
 10
49.607422
 20
135.470388
 11
49.607422
 21
134.970388
  0
LINE
  8
1
 62
7
  6
CONTINUOUS
 10
48.857422
 20
136.220388
 11
48.807422
 21
136.220388
  0
LINE
  8
1
 62
7
  6
CONTINUOUS
 10
49.357422
 20
135.470388
 11
49.357422
 21
134.970388
  0
LINE
  8
1
 62
7
  6
CONTINUOUS
 10
48.857422
 20
135.970388
 11
48.807422
 21
135.970388
  0
LINE
  8
1
 62
7
  6
CONTINUOUS
 10
49.057422
 20
134.420388
 11
47.757422
 21
134.420388
  0
LINE
  8
1
 62
7
  6
CONTINUOUS
 10
49.057422
 20
134.670388
 11
47.757422
 21
134.670388
  0
LINE
  8
1
 62
7
  6
CONTINUOUS
 10
48.057422
 20
135.020388
 11
48.057422
 21
135.470388
  0
LINE
  8
1
 62
7
  6
CONTINUOUS
 10
48.307422
 20
135.020388
 11
48.307422
 21
135.470388
  0
LINE
  8
1
 62
7
  6
CONTINUOUS
 10
48.307422
 20
135.020388
 11
48.057422
 21
135.020388
  0
LINE
  8
1
 62
7
  6
CONTINUOUS
 10
45.907422
 20
134.970388
 11
45.907422
 21
135.470388
  0
LINE
  8
1
 62
7
  6
CONTINUOUS
 10
46.707422
 20
136.220388
 11
46.657422
 21
136.220388
  0
LINE
  8
1
 62
7
  6
CONTINUOUS
 10
46.157422
 20
134.970388
 11
46.157422
 21
135.470388
  0
LINE
  8
1
 62
7
  6
CONTINUOUS
 10
46.707422
 20
135.970388
 11
46.657422
 21
135.970388
  0
LINE
  8
1
 62
7
  6
CONTINUOUS
 10
47.757422
 20
134.420388
 11
46.457422
 21
134.420388
  0
LINE
  8
1
 62
7
  6
CONTINUOUS
 10
47.757422
 20
134.670388
 11
46.457422
 21
134.670388
  0
LINE
  8
1
 62
7
  6
CONTINUOUS
 10
47.457422
 20
135.470388
 11
47.457422
 21
135.020388
  0
LINE
  8
1
 62
7
  6
CONTINUOUS
 10
47.207422
 20
135.470388
 11
47.207422
 21
135.020388
  0
LINE
  8
1
 62
7
  6
CONTINUOUS
 10
47.457422
 20
135.020388
 11
47.207422
 21
135.020388
  0
LINE
  8
1
 62
7
  6
CONTINUOUS
 10
50.257422
 20
133.620388
 11
45.257422
 21
133.620388
  0
LINE
  8
1
 62
7
  6
CONTINUOUS
 10
50.257422
 20
136.470388
 11
50.257422
 21
133.620388
  0
LINE
  8
1
 62
7
  6
CONTINUOUS
 10
50.257422
 20
136.470388
 11
45.257422
 21
136.470388
  0
LINE
  8
1
 62
7
  6
CONTINUOUS
 10
45.257422
 20
136.470388
 11
45.257422
 21
133.620388
  0
LINE
  8
1
 62
7
  6
CONTINUOUS
 10
49.607422
 20
142.770388
 11
49.607422
 21
142.270388
  0
LINE
  8
1
 62
7
  6
CONTINUOUS
 10
48.807422
 20
141.520388
 11
48.857422
 21
141.520388
  0
LINE
  8
1
 62
7
  6
CONTINUOUS
 10
49.357422
 20
142.770388
 11
49.357422
 21
142.270388
  0
LINE
  8
1
 62
7
  6
CONTINUOUS
 10
48.807422
 20
141.770388
 11
48.857422
 21
141.770388
  0
LINE
  8
1
 62
7
  6
CONTINUOUS
 10
47.757422
 20
143.320388
 11
49.057422
 21
143.320388
  0
LINE
  8
1
 62
7
  6
CONTINUOUS
 10
47.757422
 20
143.070388
 11
49.057422
 21
143.070388
  0
LINE
  8
1
 62
7
  6
CONTINUOUS
 10
48.057422
 20
142.270388
 11
48.057422
 21
142.720388
  0
LINE
  8
1
 62
7
  6
CONTINUOUS
 10
48.307422
 20
142.270388
 11
48.307422
 21
142.720388
  0
LINE
  8
1
 62
7
  6
CONTINUOUS
 10
48.057422
 20
142.720388
 11
48.307422
 21
142.720388
  0
LINE
  8
1
 62
7
  6
CONTINUOUS
 10
45.907422
 20
142.270388
 11
45.907422
 21
142.770388
  0
LINE
  8
1
 62
7
  6
CONTINUOUS
 10
46.657422
 20
141.520388
 11
46.707422
 21
141.520388
  0
LINE
  8
1
 62
7
  6
CONTINUOUS
 10
46.157422
 20
142.270388
 11
46.157422
 21
142.770388
  0
LINE
  8
1
 62
7
  6
CONTINUOUS
 10
46.657422
 20
141.770388
 11
46.707422
 21
141.770388
  0
LINE
  8
1
 62
7
  6
CONTINUOUS
 10
46.457422
 20
143.320388
 11
47.757422
 21
143.320388
  0
LINE
  8
1
 62
7
  6
CONTINUOUS
 10
46.457422
 20
143.070388
 11
47.757422
 21
143.070388
  0
LINE
  8
1
 62
7
  6
CONTINUOUS
 10
47.457422
 20
142.720388
 11
47.457422
 21
142.270388
  0
LINE
  8
1
 62
7
  6
CONTINUOUS
 10
47.207422
 20
142.720388
 11
47.207422
 21
142.270388
  0
LINE
  8
1
 62
7
  6
CONTINUOUS
 10
47.207422
 20
142.720388
 11
47.457422
 21
142.720388
  0
LINE
  8
1
 62
7
  6
CONTINUOUS
 10
59.007422
 20
141.470388
 11
59.007422
 21
142.391157
  0
LINE
  8
1
 62
7
  6
CONTINUOUS
 10
45.257422
 20
144.120388
 11
50.257422
 21
144.120388
  0
LINE
  8
1
 62
7
  6
CONTINUOUS
 10
50.257422
 20
144.120388
 11
50.257422
 21
141.270388
  0
LINE
  8
1
 62
7
  6
CONTINUOUS
 10
45.257422
 20
141.270388
 11
50.257422
 21
141.270388
  0
LINE
  8
1
 62
7
  6
CONTINUOUS
 10
45.257422
 20
144.120388
 11
45.257422
 21
141.270388
  0
LINE
  8
1
 62
7
  6
CONTINUOUS
 10
59.007422
 20
138.870388
 11
59.007422
 21
141.470388
  0
LINE
  8
1
 62
7
  6
CONTINUOUS
 10
59.007422
 20
136.270388
 11
59.007422
 21
138.870388
  0
LINE
  8
1
 62
7
  6
CONTINUOUS
 10
59.007422
 20
136.270388
 11
88.074299
 21
136.270388
  0
LINE
  8
1
 62
7
  6
CONTINUOUS
 10
59.007422
 20
141.470388
 11
87.869729
 21
141.470388
  0
LINE
  8
1
 62
7
  6
CONTINUOUS
 10
59.007422
 20
135.349619
 11
59.007422
 21
136.270388
  0
LINE
  8
1
 62
7
  6
CONTINUOUS
 10
59.007422
 20
138.870388
 11
88.176788
 21
138.870388
  0
LINE
  8
1
 62
7
  6
CONTINUOUS
 10
58.786244
 20
135.060159
 11
49.295646
 21
132.475789
  0
LINE
  8
1
 62
7
  6
CONTINUOUS
 10
49.295646
 20
145.264987
 11
58.786244
 21
142.680616
  0
LINE
  8
1
 62
7
  6
CONTINUOUS
 10
51.507422
 20
142.370388
 11
51.507422
 21
135.370388
  0
LINE
  8
1
 62
7
  6
CONTINUOUS
 10
47.007422
 20
145.370388
 11
48.507422
 21
145.370388
  0
LINE
  8
1
 62
7
  6
CONTINUOUS
 10
44.007422
 20
142.370388
 11
44.007422
 21
135.370388
  0
LINE
  8
1
 62
7
  6
CONTINUOUS
 10
47.007422
 20
132.370388
 11
48.507422
 21
132.370388
  0
ARC
  8
1
 62
7
  6
CONTINUOUS
 10
48.857422
 20
135.470388
 40
0.750000
 50
0.000000
 51
90.000000
  0
ARC
  8
1
 62
7
  6
CONTINUOUS
 10
48.807422
 20
135.470388
 40
0.750000
 50
90.000000
 51
180.000000
  0
ARC
  8
1
 62
7
  6
CONTINUOUS
 10
48.807422
 20
135.470388
 40
0.500000
 50
90.000000
 51
180.000000
  0
ARC
  8
1
 62
7
  6
CONTINUOUS
 10
48.857422
 20
135.470388
 40
0.500000
 50
0.000000
 51
90.000000
  0
ARC
  8
1
 62
7
  6
CONTINUOUS
 10
49.057422
 20
134.970388
 40
0.550000
 50
-90.000000
 51
0.000000
  0
ARC
  8
1
 62
7
  6
CONTINUOUS
 10
49.057422
 20
134.970388
 40
0.300000
 50
-90.000000
 51
0.000000
  0
ARC
  8
1
 62
7
  6
CONTINUOUS
 10
46.657422
 20
135.470388
 40
0.750000
 50
90.000000
 51
180.000000
  0
ARC
  8
1
 62
7
  6
CONTINUOUS
 10
46.707422
 20
135.470388
 40
0.750000
 50
0.000000
 51
90.000000
  0
ARC
  8
1
 62
7
  6
CONTINUOUS
 10
46.707422
 20
135.470388
 40
0.500000
 50
0.000000
 51
90.000000
  0
ARC
  8
1
 62
7
  6
CONTINUOUS
 10
46.657422
 20
135.470388
 40
0.500000
 50
90.000000
 51
180.000000
  0
ARC
  8
1
 62
7
  6
CONTINUOUS
 10
46.457422
 20
134.970388
 40
0.550000
 50
180.000000
 51
-90.000000
  0
ARC
  8
1
 62
7
  6
CONTINUOUS
 10
46.457422
 20
134.970388
 40
0.300000
 50
180.000000
 51
-90.000000
  0
ARC
  8
1
 62
7
  6
CONTINUOUS
 10
48.857422
 20
142.270388
 40
0.750000
 50
-90.000000
 51
0.000000
  0
ARC
  8
1
 62
7
  6
CONTINUOUS
 10
48.807422
 20
142.270388
 40
0.750000
 50
180.000000
 51
-90.000000
  0
ARC
  8
1
 62
7
  6
CONTINUOUS
 10
48.807422
 20
142.270388
 40
0.500000
 50
180.000000
 51
-90.000000
  0
ARC
  8
1
 62
7
  6
CONTINUOUS
 10
48.857422
 20
142.270388
 40
0.500000
 50
-90.000000
 51
0.000000
  0
ARC
  8
1
 62
7
  6
CONTINUOUS
 10
49.057422
 20
142.770388
 40
0.550000
 50
0.000000
 51
90.000000
  0
ARC
  8
1
 62
7
  6
CONTINUOUS
 10
49.057422
 20
142.770388
 40
0.300000
 50
0.000000
 51
90.000000
  0
ARC
  8
1
 62
7
  6
CONTINUOUS
 10
46.657422
 20
142.270388
 40
0.750000
 50
180.000000
 51
-90.000000
  0
ARC
  8
1
 62
7
  6
CONTINUOUS
 10
46.707422
 20
142.270388
 40
0.750000
 50
-90.000000
 51
0.000000
  0
ARC
  8
1
 62
7
  6
CONTINUOUS
 10
46.707422
 20
142.270388
 40
0.500000
 50
-90.000000
 51
0.000000
  0
ARC
  8
1
 62
7
  6
CONTINUOUS
 10
46.657422
 20
142.270388
 40
0.500000
 50
180.000000
 51
-90.000000
  0
ARC
  8
1
 62
7
  6
CONTINUOUS
 10
46.457422
 20
142.770388
 40
0.550000
 50
90.000000
 51
180.000000
  0
ARC
  8
1
 62
7
  6
CONTINUOUS
 10
46.457422
 20
142.770388
 40
0.300000
 50
90.000000
 51
180.000000
  0
ARC
  8
1
 62
7
  6
CONTINUOUS
 10
58.707422
 20
135.349619
 40
0.300000
 50
-74.767218
 51
0.000000
  0
ARC
  8
1
 62
7
  6
CONTINUOUS
 10
58.707422
 20
142.391157
 40
0.300000
 50
0.000000
 51
74.767218
  0
ARC
  8
1
 62
7
  6
CONTINUOUS
 10
48.507422
 20
142.370388
 40
3.000000
 50
0.000000
 51
74.767218
  0
ARC
  8
1
 62
7
  6
CONTINUOUS
 10
48.507422
 20
142.370388
 40
3.000000
 50
74.767218
 51
90.000000
  0
ARC
  8
1
 62
7
  6
CONTINUOUS
 10
47.007422
 20
142.370388
 40
3.000000
 50
90.000000
 51
180.000000
  0
ARC
  8
1
 62
7
  6
CONTINUOUS
 10
48.507422
 20
135.370388
 40
3.000000
 50
-90.000000
 51
-0.000000
  0
ARC
  8
1
 62
7
  6
CONTINUOUS
 10
47.007422
 20
135.370388
 40
3.000000
 50
180.000000
 51
-90.000000
  0
ARC
  8
1
 62
7
  6
CONTINUOUS
 10
89.086170
 20
103.263404
 40
1.350913
 50
36.484552
 51
48.394414
  0
ARC
  8
1
 62
7
  6
CONTINUOUS
 10
89.512104
 20
103.594009
 40
0.811972
 50
19.711125
 51
35.599002
  0
ARC
  8
1
 62
7
  6
CONTINUOUS
 10
89.672259
 20
103.663654
 40
0.637816
 50
1.075999
 51
18.673768
  0
ARC
  8
1
 62
7
  6
CONTINUOUS
 10
89.586760
 20
103.669368
 40
0.723229
 50
-14.487233
 51
0.496182
  0
ARC
  8
1
 62
7
  6
CONTINUOUS
 10
89.212665
 20
103.766064
 40
1.109620
 50
-24.563516
 51
-14.489078
  0
ARC
  8
1
 62
7
  6
CONTINUOUS
 10
88.249976
 20
104.200052
 40
2.165603
 50
-29.819158
 51
-24.418566
  0
ARC
  8
1
 62
7
  6
CONTINUOUS
 10
83.136663
 20
107.118118
 40
8.052966
 50
-31.236463
 51
-29.741213
  0
ARC
  8
1
 62
7
  6
CONTINUOUS
 10
95.020104
 20
99.911657
 40
5.844848
 50
148.769800
 51
150.835051
  0
ARC
  8
1
 62
7
  6
CONTINUOUS
 10
91.674361
 20
101.778228
 40
2.013650
 50
150.819731
 51
156.678041
  0
ARC
  8
1
 62
7
  6
CONTINUOUS
 10
90.841814
 20
102.137770
 40
1.106785
 50
156.707135
 51
166.994278
  0
ARC
  8
1
 62
7
  6
CONTINUOUS
 10
90.494450
 20
102.219893
 40
0.749852
 50
167.135106
 51
-177.926411
  0
ARC
  8
1
 62
7
  6
CONTINUOUS
 10
90.410649
 20
102.218822
 40
0.666071
 50
-177.757696
 51
-160.058623
  0
ARC
  8
1
 62
7
  6
CONTINUOUS
 10
90.562720
 20
102.270954
 40
0.826809
 50
-160.256708
 51
-143.746666
  0
LINE
  8
1
 62
7
  6
CONTINUOUS
 10
89.895973
 20
101.782015
 11
89.983175
 21
101.673527
  0
ARC
  8
1
 62
7
  6
CONTINUOUS
 10
87.279783
 20
103.263404
 40
1.350913
 50
36.484552
 51
48.394414
  0
ARC
  8
1
 62
7
  6
CONTINUOUS
 10
87.705718
 20
103.594009
 40
0.811972
 50
19.711125
 51
35.599002
  0
ARC
  8
1
 62
7
  6
CONTINUOUS
 10
87.865873
 20
103.663654
 40
0.637816
 50
1.075999
 51
18.673768
  0
ARC
  8
1
 62
7
  6
CONTINUOUS
 10
87.780374
 20
103.669368
 40
0.723229
 50
-14.487233
 51
0.496182
  0
ARC
  8
1
 62
7
  6
CONTINUOUS
 10
87.406278
 20
103.766064
 40
1.109620
 50
-24.563516
 51
-14.489078
  0
ARC
  8
1
 62
7
  6
CONTINUOUS
 10
86.443589
 20
104.200052
 40
2.165603
 50
-29.819158
 51
-24.418566
  0
ARC
  8
1
 62
7
  6
CONTINUOUS
 10
81.330277
 20
107.118118
 40
8.052966
 50
-31.236463
 51
-29.741213
  0
ARC
  8
1
 62
7
  6
CONTINUOUS
 10
93.213717
 20
99.911657
 40
5.844848
 50
148.769800
 51
150.835051
  0
ARC
  8
1
 62
7
  6
CONTINUOUS
 10
89.867974
 20
101.778228
 40
2.013650
 50
150.819731
 51
156.678041
  0
ARC
  8
1
 62
7
  6
CONTINUOUS
 10
89.035427
 20
102.137770
 40
1.106785
 50
156.707135
 51
166.994278
  0
ARC
  8
1
 62
7
  6
CONTINUOUS
 10
88.688063
 20
102.219893
 40
0.749852
 50
167.135106
 51
-177.926411
  0
ARC
  8
1
 62
7
  6
CONTINUOUS
 10
88.604263
 20
102.218822
 40
0.666071
 50
-177.757696
 51
-160.058623
  0
ARC
  8
1
 62
7
  6
CONTINUOUS
 10
88.756333
 20
102.270954
 40
0.826809
 50
-160.256708
 51
-143.746666
  0
LINE
  8
1
 62
7
  6
CONTINUOUS
 10
88.089587
 20
101.782015
 11
88.176788
 21
101.673527
  0
ARC
  8
1
 62
7
  6
CONTINUOUS
 10
88.133355
 20
139.418634
 40
2.725293
 50
37.098320
 51
48.838417
  0
ARC
  8
1
 62
7
  6
CONTINUOUS
 10
88.902946
 20
140.031509
 40
1.741963
 50
21.258638
 51
36.288351
  0
ARC
  8
1
 62
7
  6
CONTINUOUS
 10
89.179976
 20
140.162723
 40
1.436375
 50
4.294367
 51
20.387393
  0
ARC
  8
1
 62
7
  6
CONTINUOUS
 10
88.973810
 20
140.160806
 40
1.642161
 50
-9.773517
 51
3.822428
  0
ARC
  8
1
 62
7
  6
CONTINUOUS
 10
88.151644
 20
140.303404
 40
2.476602
 50
-19.016386
 51
-9.795774
  0
ARC
  8
1
 62
7
  6
CONTINUOUS
 10
85.943796
 20
141.055072
 40
4.808887
 50
-23.838890
 51
-18.912067
  0
ARC
  8
1
 62
7
  6
CONTINUOUS
 10
71.793962
 20
147.284182
 40
20.269143
 50
-24.977674
 51
-23.778938
  0
ARC
  8
1
 62
7
  6
CONTINUOUS
 10
99.958083
 20
134.165433
 40
10.800445
 50
155.027318
 51
157.286642
  0
ARC
  8
1
 62
7
  6
CONTINUOUS
 10
93.769981
 20
136.754872
 40
4.092405
 50
157.276360
 51
163.152344
  0
ARC
  8
1
 62
7
  6
CONTINUOUS
 10
92.138959
 20
137.249921
 40
2.387910
 50
163.178396
 51
173.046213
  0
ARC
  8
1
 62
7
  6
CONTINUOUS
 10
91.476744
 20
137.333616
 40
1.720435
 50
173.142965
 51
-173.133328
  0
ARC
  8
1
 62
7
  6
CONTINUOUS
 10
91.344139
 20
137.319646
 40
1.587112
 50
-173.061660
 51
-157.242377
  0
ARC
  8
1
 62
7
  6
CONTINUOUS
 10
91.673772
 20
137.449943
 40
1.941501
 50
-157.459579
 51
-142.587561
  0
ARC
  8
1
 62
7
  6
CONTINUOUS
 10
86.075983
 20
139.418634
 40
2.725293
 50
37.098320
 51
48.838417
  0
ARC
  8
1
 62
7
  6
CONTINUOUS
 10
86.845574
 20
140.031509
 40
1.741963
 50
21.258638
 51
36.288351
  0
ARC
  8
1
 62
7
  6
CONTINUOUS
 10
87.122603
 20
140.162723
 40
1.436375
 50
4.294367
 51
20.387393
  0
ARC
  8
1
 62
7
  6
CONTINUOUS
 10
86.916438
 20
140.160806
 40
1.642161
 50
-9.773517
 51
3.822428
  0
ARC
  8
1
 62
7
  6
CONTINUOUS
 10
86.094271
 20
140.303404
 40
2.476602
 50
-19.016386
 51
-9.795774
  0
ARC
  8
1
 62
7
  6
CONTINUOUS
 10
83.886424
 20
141.055072
 40
4.808887
 50
-23.838890
 51
-18.912067
  0
ARC
  8
1
 62
7
  6
CONTINUOUS
 10
69.736590
 20
147.284182
 40
20.269143
 50
-24.977674
 51
-23.778938
  0
ARC
  8
1
 62
7
  6
CONTINUOUS
 10
97.900711
 20
134.165433
 40
10.800445
 50
155.027318
 51
157.286642
  0
ARC
  8
1
 62
7
  6
CONTINUOUS
 10
91.712609
 20
136.754872
 40
4.092405
 50
157.276360
 51
163.152344
  0
ARC
  8
1
 62
7
  6
CONTINUOUS
 10
90.081587
 20
137.249921
 40
2.387910
 50
163.178396
 51
173.046213
  0
ARC
  8
1
 62
7
  6
CONTINUOUS
 10
89.419372
 20
137.333616
 40
1.720435
 50
173.142965
 51
-173.133328
  0
ARC
  8
1
 62
7
  6
CONTINUOUS
 10
89.286766
 20
137.319646
 40
1.587112
 50
-173.061660
 51
-157.242377
  0
ARC
  8
1
 62
7
  6
CONTINUOUS
 10
89.616400
 20
137.449943
 40
1.941501
 50
-157.459579
 51
-142.587561
  0
TEXT
  8
1
 62
7
  6
CONTINUOUS
 10
65.744838
 20
70.156061
 40
3.500000
 41
0.900000
  1
T2P1CODE_OUT
  7
KANJI
 50
0.000000
 51
0.000000
  0
LINE
  8
1
 62
7
  6
CONTINUOUS
 10
59.007422
 20
161.653527
 11
126.249642
 21
161.653527
  0
LINE
  8
1
 62
7
  6
CONTINUOUS
 10
126.249642
 20
141.470388
 11
126.249642
 21
162.653527
  0
LINE
  8
1
 62
7
  6
CONTINUOUS
 10
59.007422
 20
142.391157
 11
59.007422
 21
162.653527
  0
LINE
  8
1
 62
7
  6
CONTINUOUS
 10
126.249642
 20
161.653527
 11
122.749642
 21
161.198527
  0
LINE
  8
1
 62
7
  6
CONTINUOUS
 10
122.749642
 20
161.198527
 11
122.749642
 21
162.108527
  0
LINE
  8
1
 62
7
  6
CONTINUOUS
 10
122.749642
 20
162.108527
 11
126.249642
 21
161.653527
  0
LINE
  8
1
 62
7
  6
CONTINUOUS
 10
59.007422
 20
161.653527
 11
62.507422
 21
162.108527
  0
LINE
  8
1
 62
7
  6
CONTINUOUS
 10
62.507422
 20
162.108527
 11
62.507422
 21
161.198527
  0
LINE
  8
1
 62
7
  6
CONTINUOUS
 10
62.507422
 20
161.198527
 11
59.007422
 21
161.653527
  0
TEXT
  8
1
 62
7
  6
CONTINUOUS
 10
87.828532
 20
162.653527
 40
3.200000
 41
0.900000
  1
1000
  7
KANJI
 50
0.000000
 51
0.000000
  0
LINE
  8
1
 62
7
  6
CONTINUOUS
 10
35.491263
 20
94.973527
 11
35.491263
 21
110.973527
  0
LINE
  8
1
 62
7
  6
CONTINUOUS
 10
44.007422
 20
110.973527
 11
34.491263
 21
110.973527
  0
LINE
  8
1
 62
7
  6
CONTINUOUS
 10
44.007422
 20
94.973527
 11
34.491263
 21
94.973527
  0
LINE
  8
1
 62
7
  6
CONTINUOUS
 10
35.491263
 20
110.973527
 11
35.946263
 21
107.473527
  0
LINE
  8
1
 62
7
  6
CONTINUOUS
 10
35.946263
 20
107.473527
 11
35.036263
 21
107.473527
  0
LINE
  8
1
 62
7
  6
CONTINUOUS
 10
35.036263
 20
107.473527
 11
35.491263
 21
110.973527
  0
LINE
  8
1
 62
7
  6
CONTINUOUS
 10
35.491263
 20
94.973527
 11
35.036263
 21
98.473527
  0
LINE
  8
1
 62
7
  6
CONTINUOUS
 10
35.036263
 20
98.473527
 11
35.946263
 21
98.473527
  0
LINE
  8
1
 62
7
  6
CONTINUOUS
 10
35.946263
 20
98.473527
 11
35.491263
 21
94.973527
  0
TEXT
  8
1
 62
7
  6
CONTINUOUS
 10
34.491263
 20
101.053527
 40
3.200000
 41
0.900000
  1
16
  7
KANJI
 50
90.000000
 51
0.000000
  0
LINE
  8
1
 62
7
  6
CONTINUOUS
 10
44.007422
 20
161.703595
 11
59.007422
 21
161.703595
  0
LINE
  8
1
 62
7
  6
CONTINUOUS
 10
59.007422
 20
142.391157
 11
59.007422
 21
162.703595
  0
LINE
  8
1
 62
7
  6
CONTINUOUS
 10
44.007422
 20
142.370388
 11
44.007422
 21
162.703595
  0
LINE
  8
1
 62
7
  6
CONTINUOUS
 10
44.007422
 20
161.703595
 11
47.507422
 21
162.158595
  0
LINE
  8
1
 62
7
  6
CONTINUOUS
 10
47.507422
 20
162.158595
 11
47.507422
 21
161.248595
  0
LINE
  8
1
 62
7
  6
CONTINUOUS
 10
47.507422
 20
161.248595
 11
44.007422
 21
161.703595
  0
LINE
  8
1
 62
7
  6
CONTINUOUS
 10
59.007422
 20
161.703595
 11
55.507422
 21
161.248595
  0
LINE
  8
1
 62
7
  6
CONTINUOUS
 10
55.507422
 20
161.248595
 11
55.507422
 21
162.158595
  0
LINE
  8
1
 62
7
  6
CONTINUOUS
 10
55.507422
 20
162.158595
 11
59.007422
 21
161.703595
  0
TEXT
  8
1
 62
7
  6
CONTINUOUS
 10
49.587422
 20
162.703595
 40
3.200000
 41
0.900000
  1
15
  7
KANJI
 50
0.000000
 51
0.000000
  0
LINE
  8
1
 62
7
  6
CONTINUOUS
 10
51.507422
 20
153.974166
 11
58.507422
 21
153.974166
  0
LINE
  8
1
 62
7
  6
CONTINUOUS
 10
44.007422
 20
153.974166
 11
37.007422
 21
153.974166
  0
LINE
  8
1
 62
7
  6
CONTINUOUS
 10
44.007422
 20
153.974166
 11
51.507422
 21
153.974166
  0
LINE
  8
1
 62
7
  6
CONTINUOUS
 10
51.507422
 20
142.370388
 11
51.507422
 21
154.974166
  0
LINE
  8
1
 62
7
  6
CONTINUOUS
 10
44.007422
 20
142.370388
 11
44.007422
 21
154.974166
  0
LINE
  8
1
 62
7
  6
CONTINUOUS
 10
44.007422
 20
153.974166
 11
40.507422
 21
153.519166
  0
LINE
  8
1
 62
7
  6
CONTINUOUS
 10
40.507422
 20
153.519166
 11
40.507422
 21
154.429166
  0
LINE
  8
1
 62
7
  6
CONTINUOUS
 10
40.507422
 20
154.429166
 11
44.007422
 21
153.974166
  0
LINE
  8
1
 62
7
  6
CONTINUOUS
 10
51.507422
 20
153.974166
 11
55.007422
 21
154.429166
  0
LINE
  8
1
 62
7
  6
CONTINUOUS
 10
55.007422
 20
154.429166
 11
55.007422
 21
153.519166
  0
LINE
  8
1
 62
7
  6
CONTINUOUS
 10
55.007422
 20
153.519166
 11
51.507422
 21
153.974166
  0
TEXT
  8
1
 62
7
  6
CONTINUOUS
 10
44.837422
 20
154.974166
 40
3.200000
 41
0.900000
  1
7.5
  7
KANJI
 50
0.000000
 51
0.000000
  0
LINE
  8
1
 62
7
  6
CONTINUOUS
 10
34.632438
 20
132.370388
 11
34.632438
 21
145.370388
  0
LINE
  8
1
 62
7
  6
CONTINUOUS
 10
47.007422
 20
145.370388
 11
33.632438
 21
145.370388
  0
LINE
  8
1
 62
7
  6
CONTINUOUS
 10
47.007422
 20
132.370388
 11
33.632438
 21
132.370388
  0
LINE
  8
1
 62
7
  6
CONTINUOUS
 10
34.632438
 20
145.370388
 11
35.087438
 21
141.870388
  0
LINE
  8
1
 62
7
  6
CONTINUOUS
 10
35.087438
 20
141.870388
 11
34.177438
 21
141.870388
  0
LINE
  8
1
 62
7
  6
CONTINUOUS
 10
34.177438
 20
141.870388
 11
34.632438
 21
145.370388
  0
LINE
  8
1
 62
7
  6
CONTINUOUS
 10
34.632438
 20
132.370388
 11
34.177438
 21
135.870388
  0
LINE
  8
1
 62
7
  6
CONTINUOUS
 10
34.177438
 20
135.870388
 11
35.087438
 21
135.870388
  0
LINE
  8
1
 62
7
  6
CONTINUOUS
 10
35.087438
 20
135.870388
 11
34.632438
 21
132.370388
  0
TEXT
  8
1
 62
7
  6
CONTINUOUS
 10
33.632438
 20
136.950388
 40
3.200000
 41
0.900000
  1
13
  7
KANJI
 50
90.000000
 51
0.000000
  0
ENDSEC
  0
EOF
