  0
SECTION
  2
HEADER
  9
$ACADVER
  1
AC1003
  9
$INSBASE
 10
0.000000
 20
0.000000
  9
$EXTMIN
 10
0.000000
 20
0.000000
  9
$EXTMAX
 10
210.000000
 20
148.000000
  9
$LIMMIN
 10
0.000000
 20
0.000000
  9
$LIMMAX
 10
210.000000
 20
148.000000
  9
$VIEWCTR
 10
105.000000
 20
74.000000
  9
$VIEWSIZE
 40
148.000000
  9
$PEXTMIN
 10
0.000000
 20
0.000000
 30
0.000000
  9
$PEXTMAX
 10
210.000000
 20
148.000000
 30
0.000000
  9
$SNAPMODE
 70
     0
  9
$SNAPUNIT
 10
1.000000
 20
1.000000
  9
$SNAPBASE
 10
0.000000
 20
0.000000
  9
$SNAPANG
 50
0.000000
  9
$SNAPISOPAIR
 70
     0
  9
$SNAPSTYLE
 70
     0
  9
$GRIDMODE
 70
     0
  9
$GRIDUNIT
 10
0.000000
 20
0.000000
  9
$ORTHOMODE
 70
     0
  9
$REGENMODE
 70
     1
  9
$FILLMODE
 70
     1
  9
$QTEXTMODE
 70
     0
  9
$DRAGMODE
 70
     2
  9
$LTSCALE
 40
0.250000
  9
$OSMODE
 70
     0
  9
$ATTMODE
 70
     1
  9
$TEXTSIZE
 40
0.200000
  9
$TRACEWID
 40
0.050000
  9
$TEXTSTYLE
  7
STANDARD
  9
$CLAYER
  8
0
  9
$CELTYPE
  6
BYLAYER
  9
$CECOLOR
 62
   256
  9
$DIMSCALE
 40
1.000000
  9
$DIMASZ
 40
1.000000
  9
$DIMEXO
 40
0.000000
  9
$DIMDLI
 40
0.500000
  9
$DIMRND
 40
0.000000
  9
$DIMDLE
 40
0.000000
  9
$DIMEXE
 40
0.000000
  9
$DIMTP
 40
0.000000
  9
$DIMTM
 40
0.000000
  9
$DIMTXT
 40
0.180000
  9
$DIMCEN
 40
0.000000
  9
$DIMTSZ
 40
0.000000
  9
$DIMTOL
 70
     0
  9
$DIMLIM
 70
     0
  9
$DIMTIH
 70
     1
  9
$DIMTOH
 70
     1
  9
$DIMSE1
 70
     0
  9
$DIMSE2
 70
     0
  9
$DIMTAD
 70
     0
  9
$DIMZIN
 70
     0
  9
$DIMBLK
  1

  9
$DIMASO
 70
     0
  9
$DIMSHO
 70
     0
  9
$DIMPOST
  1

  9
$DIMAPOST
  1

  9
$DIMALT
 70
     0
  9
$DIMALTD
 70
     0
  9
$DIMALTF
 40
25.400000
  9
$DIMLFAC
 40
1.000000
  9
$DIMTOFL
 70
     0
  9
$DIMTVP
 40
0.000000
  9
$DIMTIX
 70
     0
  9
$DIMSOXD
 70
     0
  9
$DIMSAH
 70
     0
  9
$DIMBLKL
  1

  9
$DIMBLKR
  1

  9
$LUNITS
 70
     2
  9
$LUPREC
 70
     2
  9
$AXISMODE
 70
     0
  9
$AXISUNIT
 10
1.000000
 20
1.000000
  9
$SKETCHINC
 40
0.000000
  9
$FILLETRAD
 40
0.000000
  9
$AUNITS
 70
     1
  9
$AUPREC
 70
     2
  9
$MENU
  1
ACAD
  9
$ELEVATION
 40
0.000000
  9
$THICKNESS
 40
0.000000
  9
$VIEWDIR
 10
0.000000
 20
0.000000
 30
1.000000
  9
$LIMCHECK
 70
     1
  9
$BLIPMODE
 70
     1
  9
$CHAMFERA
 40
0.000000
  9
$CHAMFERB
 40
0.000000
  9
$FASTZOOM
 70
     1
  9
$SKPOLY
 70
     0
  9
$TDCREATE
 40
0.000000
  9
$TDUPDATE
 40
0.000000
  9
$TDINDWG
 40
0.000000
  9
$TDUSRTIMER
 40
0.000000
  9
$USRTIMER
 70
     1
  9
$ANGBASE
 50
0.000000
  9
$ANGDIR
 70
     0
  9
$PDMODE
 70
     0
  9
$PDSIZE
 40
0.000000
  9
$PLINEWID
 40
0.000000
  9
$COORDS
 70
     2
  9
$USERI1
 70
     0
  9
$USERI2
 70
     0
  9
$USERI3
 70
     0
  9
$USERI4
 70
     0
  9
$USERI5
 70
     0
  9
$USERR1
 40
0.000000
  9
$USERR2
 40
0.000000
  9
$USERR3
 40
0.000000
  9
$USERR4
 40
0.000000
  9
$USERR5
 40
0.000000
  0
ENDSEC
  0
SECTION
  2
TABLES
  0
TABLE
  2
LTYPE
 70
     5
  0
LTYPE
  2
CONTINUOUS
 70
    64
  3
Solid line
 72
    65
 73
     0
 40
0.0
  0
LTYPE
  2
HIDDEN
 70
    64
  3
------------------------
 72
    65
 73
     2
 40
12.6
 49
8.4
 49
-4.2
  0
LTYPE
  2
DOT
 70
    64
  3
¥¥¥¥¥¥¥¥¥¥¥¥¥¥¥¥¥¥¥¥¥¥¥¥
 72
    65
 73
     2
 40
8.0
 49
6.0
 49
-2.0
  0
LTYPE
  2
DASHDOT
 70
    64
  3
--¥--¥--¥--¥--¥--¥--¥--
 72
    65
 73
     4
 40
50.5
 49
30.0
 49
-9.0
 49
2.5
 49
-9.0
  0
LTYPE
  2
DIVIDE
 70
    64
  3
--¥¥--¥¥--¥¥--¥¥--¥¥--
 72
    65
 73
     6
 40
58.0
 49
30.0
 49
-9.0
 49
2.5
 49
-5.0
 49
2.5
 49
-9.0
  0
ENDTAB
  0
TABLE
  2
LAYER
 70
1
  0
LAYER
  2
1
 70
64
 62
7
  6
CONTINUOUS
  0
ENDTAB
  0
TABLE
  2
STYLE
 70
     2
  0
STYLE
  2
STANDARD
 70
    64
 40
0.0
 41
1.0
 50
0.0
 71
     0
 42
0.2
  3
TXT
  4

  0
STYLE
  2
KANJI
 70
    64
 40
0.0
 41
1.0
 50
0.0
 71
     0
 42
0.2
  3
TXT
  4
BIGFONT
  0
ENDTAB
  0
TABLE
  2
VIEW
 70
     0
  0
ENDTAB
  0
ENDSEC
  0
SECTION
  2
BLOCKS
  0
ENDSEC
  0
SECTION
  2
ENTITIES
  0
LINE
  8
1
 62
7
  6
DASHDOT
 10
229.988908
 20
131.471881
 11
250.189432
 21
131.471881
  0
LINE
  8
1
 62
7
  6
CONTINUOUS
 10
248.590474
 20
126.617779
 11
248.590474
 21
127.471871
  0
LINE
  8
1
 62
7
  6
CONTINUOUS
 10
231.590474
 20
126.617779
 11
231.590474
 21
126.913871
  0
LINE
  8
1
 62
7
  6
CONTINUOUS
 10
231.590474
 20
126.617779
 11
248.590474
 21
126.617779
  0
LINE
  8
1
 62
7
  6
CONTINUOUS
 10
208.626572
 20
122.185119
 11
208.626572
 21
121.438637
  0
LINE
  8
1
 62
7
  6
CONTINUOUS
 10
248.590474
 20
128.845161
 11
248.590474
 21
134.971871
  0
LINE
  8
1
 62
7
  6
CONTINUOUS
 10
231.590474
 20
128.845161
 11
231.590474
 21
134.971871
  0
LINE
  8
1
 62
7
  6
CONTINUOUS
 10
237.757140
 20
120.971881
 11
242.423807
 21
120.971881
  0
LINE
  8
1
 62
7
  6
CONTINUOUS
 10
232.090474
 20
135.471871
 11
248.090474
 21
135.471871
  0
LINE
  8
1
 62
7
  6
CONTINUOUS
 10
231.590474
 20
128.845161
 11
248.590474
 21
128.845161
  0
LINE
  8
1
 62
7
  6
CONTINUOUS
 10
231.590474
 20
128.845161
 11
231.590474
 21
127.617779
  0
LINE
  8
1
 62
7
  6
CONTINUOUS
 10
248.590474
 20
128.845161
 11
248.590474
 21
127.617779
  0
LINE
  8
1
 62
7
  6
CONTINUOUS
 10
231.590474
 20
127.617779
 11
248.590474
 21
127.617779
  0
LINE
  8
1
 62
7
  6
CONTINUOUS
 10
231.590474
 20
127.617779
 11
231.590474
 21
126.913871
  0
LINE
  8
1
 62
7
  6
CONTINUOUS
 10
248.590474
 20
127.617779
 11
248.590474
 21
127.471871
  0
LINE
  8
1
 62
7
  6
DASHDOT
 10
202.207765
 20
131.471881
 11
213.136598
 21
131.471881
  0
LINE
  8
1
 62
7
  6
DASHDOT
 10
207.625074
 20
136.760623
 11
207.625074
 21
120.780546
  0
LINE
  8
1
 62
7
  6
CONTINUOUS
 10
208.759049
 20
121.739831
 11
209.144690
 21
121.071881
  0
LINE
  8
1
 62
7
  6
CONTINUOUS
 10
209.317895
 20
120.971881
 11
209.925074
 21
120.971881
  0
LINE
  8
1
 62
7
  6
CONTINUOUS
 10
206.491100
 20
121.739831
 11
206.105459
 21
121.071881
  0
LINE
  8
1
 62
7
  6
CONTINUOUS
 10
205.932254
 20
120.971881
 11
205.325074
 21
120.971881
  0
LINE
  8
1
 62
7
  6
CONTINUOUS
 10
208.677861
 20
127.077454
 11
209.072288
 21
127.866309
  0
LINE
  8
1
 62
7
  6
CONTINUOUS
 10
206.572288
 20
127.077454
 11
206.177861
 21
127.866309
  0
LINE
  8
1
 62
7
  6
CONTINUOUS
 10
209.125074
 20
128.089915
 11
209.125074
 21
129.235813
  0
LINE
  8
1
 62
7
  6
CONTINUOUS
 10
206.125074
 20
129.235813
 11
206.125074
 21
128.089915
  0
LINE
  8
1
 62
7
  6
CONTINUOUS
 10
210.177861
 20
126.723352
 11
210.572288
 21
127.512207
  0
LINE
  8
1
 62
7
  6
CONTINUOUS
 10
210.625074
 20
127.735813
 11
210.625074
 21
128.643454
  0
LINE
  8
1
 62
7
  6
CONTINUOUS
 10
205.072288
 20
126.723352
 11
204.677861
 21
127.512207
  0
LINE
  8
1
 62
7
  6
CONTINUOUS
 10
204.625074
 20
127.735813
 11
204.625074
 21
128.643454
  0
LINE
  8
1
 62
7
  6
CONTINUOUS
 10
205.125074
 20
126.499745
 11
205.125074
 21
125.471881
  0
LINE
  8
1
 62
7
  6
CONTINUOUS
 10
206.625074
 20
126.853847
 11
206.625074
 21
125.471881
  0
LINE
  8
1
 62
7
  6
CONTINUOUS
 10
208.625074
 20
126.853847
 11
208.625074
 21
125.471881
  0
LINE
  8
1
 62
7
  6
CONTINUOUS
 10
210.125074
 20
126.499745
 11
210.125074
 21
125.471881
  0
LINE
  8
1
 62
7
  6
CONTINUOUS
 10
242.723807
 20
121.071881
 11
248.390474
 21
125.321881
  0
LINE
  8
1
 62
7
  6
CONTINUOUS
 10
237.457140
 20
121.071881
 11
231.790474
 21
125.321881
  0
LINE
  8
1
 62
7
  6
CONTINUOUS
 10
248.590474
 20
125.721881
 11
248.590474
 21
126.617779
  0
LINE
  8
1
 62
7
  6
CONTINUOUS
 10
231.590474
 20
125.721881
 11
231.590474
 21
126.617779
  0
LINE
  8
1
 62
7
  6
CONTINUOUS
 10
205.125074
 20
125.471881
 11
206.625074
 21
125.471881
  0
LINE
  8
1
 62
7
  6
CONTINUOUS
 10
205.125074
 20
125.471881
 11
205.125074
 21
121.171881
  0
LINE
  8
1
 62
7
  6
CONTINUOUS
 10
206.625074
 20
125.471881
 11
206.625074
 21
122.239831
  0
LINE
  8
1
 62
7
  6
CONTINUOUS
 10
208.625074
 20
125.471881
 11
210.125074
 21
125.471881
  0
LINE
  8
1
 62
7
  6
CONTINUOUS
 10
208.625074
 20
125.471881
 11
208.625074
 21
122.239831
  0
LINE
  8
1
 62
7
  6
CONTINUOUS
 10
210.125074
 20
125.471881
 11
210.125074
 21
121.171881
  0
ARC
  8
1
 62
7
  6
CONTINUOUS
 10
207.625074
 20
131.471881
 40
2.500000
 50
-48.189685
 51
-131.810315
  0
ARC
  8
1
 62
7
  6
CONTINUOUS
 10
207.625074
 20
131.471881
 40
4.000000
 50
33.833917
 51
-141.057559
  0
ARC
  8
1
 62
7
  6
CONTINUOUS
 10
207.625074
 20
131.471881
 40
4.000000
 50
-38.942441
 51
33.833917
  0
ARC
  8
1
 62
7
  6
CONTINUOUS
 10
209.625074
 20
122.239831
 40
1.000000
 50
180.000000
 51
-176.863664
  0
ARC
  8
1
 62
7
  6
CONTINUOUS
 10
205.932254
 20
121.171881
 40
0.200000
 50
-90.000000
 51
-30.000000
  0
ARC
  8
1
 62
7
  6
CONTINUOUS
 10
209.317895
 20
121.171881
 40
0.200000
 50
-150.000000
 51
-90.000000
  0
ARC
  8
1
 62
7
  6
CONTINUOUS
 10
209.925074
 20
121.171881
 40
0.200000
 50
-90.000000
 51
0.000000
  0
ARC
  8
1
 62
7
  6
CONTINUOUS
 10
205.325074
 20
121.171881
 40
0.200000
 50
180.000000
 51
-90.000000
  0
ARC
  8
1
 62
7
  6
CONTINUOUS
 10
209.625074
 20
122.239831
 40
1.000000
 50
-176.863664
 51
-150.000000
  0
ARC
  8
1
 62
7
  6
CONTINUOUS
 10
205.625074
 20
122.239831
 40
1.000000
 50
-30.000000
 51
0.000000
  0
ARC
  8
1
 62
7
  6
CONTINUOUS
 10
209.625074
 20
129.235813
 40
0.500000
 50
131.810315
 51
180.000000
  0
ARC
  8
1
 62
7
  6
CONTINUOUS
 10
205.625074
 20
129.235813
 40
0.500000
 50
0.000000
 51
48.189685
  0
ARC
  8
1
 62
7
  6
CONTINUOUS
 10
204.125074
 20
128.643454
 40
0.500000
 50
0.000000
 51
38.942441
  0
ARC
  8
1
 62
7
  6
CONTINUOUS
 10
211.125074
 20
128.643454
 40
0.500000
 50
141.057559
 51
180.000000
  0
ARC
  8
1
 62
7
  6
CONTINUOUS
 10
208.625074
 20
128.089915
 40
0.500000
 50
-26.565051
 51
0.000000
  0
ARC
  8
1
 62
7
  6
CONTINUOUS
 10
209.125074
 20
126.853847
 40
0.500000
 50
153.434949
 51
180.000000
  0
ARC
  8
1
 62
7
  6
CONTINUOUS
 10
210.625074
 20
126.499745
 40
0.500000
 50
153.434949
 51
180.000000
  0
ARC
  8
1
 62
7
  6
CONTINUOUS
 10
210.125074
 20
127.735813
 40
0.500000
 50
-26.565051
 51
0.000000
  0
ARC
  8
1
 62
7
  6
CONTINUOUS
 10
206.625074
 20
128.089915
 40
0.500000
 50
180.000000
 51
-153.434949
  0
ARC
  8
1
 62
7
  6
CONTINUOUS
 10
206.125074
 20
126.853847
 40
0.500000
 50
0.000000
 51
26.565051
  0
ARC
  8
1
 62
7
  6
CONTINUOUS
 10
205.125074
 20
127.735813
 40
0.500000
 50
180.000000
 51
-153.434949
  0
ARC
  8
1
 62
7
  6
CONTINUOUS
 10
204.625074
 20
126.499745
 40
0.500000
 50
0.000000
 51
26.565051
  0
ARC
  8
1
 62
7
  6
CONTINUOUS
 10
248.090474
 20
125.721881
 40
0.500000
 50
-53.130102
 51
0.000000
  0
ARC
  8
1
 62
7
  6
CONTINUOUS
 10
248.090474
 20
134.971871
 40
0.500000
 50
0.000000
 51
90.000000
  0
ARC
  8
1
 62
7
  6
CONTINUOUS
 10
232.090474
 20
134.971871
 40
0.500000
 50
90.000000
 51
180.000000
  0
ARC
  8
1
 62
7
  6
CONTINUOUS
 10
232.090474
 20
125.721881
 40
0.500000
 50
180.000000
 51
-126.869898
  0
ARC
  8
1
 62
7
  6
CONTINUOUS
 10
237.757140
 20
121.471881
 40
0.500000
 50
-126.869898
 51
-90.000000
  0
ARC
  8
1
 62
7
  6
CONTINUOUS
 10
242.423807
 20
121.471881
 40
0.500000
 50
-90.000000
 51
-53.130102
  0
TEXT
  8
1
 62
7
  6
CONTINUOUS
 10
199.693002
 20
85.995230
 40
3.500000
 41
0.900000
  1
SPACER-PUDC_OUT
  7
KANJI
 50
0.000000
 51
0.000000
  0
LINE
  8
1
 62
7
  6
CONTINUOUS
 10
231.590474
 20
146.622270
 11
248.590474
 21
146.622270
  0
LINE
  8
1
 62
7
  6
CONTINUOUS
 10
248.590474
 20
128.845161
 11
248.590474
 21
148.622270
  0
LINE
  8
1
 62
7
  6
CONTINUOUS
 10
231.590474
 20
128.845161
 11
231.590474
 21
148.622270
  0
LINE
  8
1
 62
7
  6
CONTINUOUS
 10
231.590474
 20
146.622270
 11
235.090474
 21
147.077270
  0
LINE
  8
1
 62
7
  6
CONTINUOUS
 10
235.090474
 20
147.077270
 11
235.090474
 21
146.167270
  0
LINE
  8
1
 62
7
  6
CONTINUOUS
 10
235.090474
 20
146.167270
 11
231.590474
 21
146.622270
  0
LINE
  8
1
 62
7
  6
CONTINUOUS
 10
248.590474
 20
146.622270
 11
245.090474
 21
146.167270
  0
LINE
  8
1
 62
7
  6
CONTINUOUS
 10
245.090474
 20
146.167270
 11
245.090474
 21
147.077270
  0
LINE
  8
1
 62
7
  6
CONTINUOUS
 10
245.090474
 20
147.077270
 11
248.590474
 21
146.622270
  0
TEXT
  8
1
 62
7
  6
CONTINUOUS
 10
237.990474
 20
148.622270
 40
3.500000
 41
0.900000
  1
17
  7
KANJI
 50
0.000000
 51
0.000000
  0
LINE
  8
1
 62
7
  6
CONTINUOUS
 10
267.781469
 20
120.971881
 11
267.781469
 21
135.471871
  0
LINE
  8
1
 62
7
  6
CONTINUOUS
 10
248.090474
 20
135.471871
 11
269.781469
 21
135.471871
  0
LINE
  8
1
 62
7
  6
CONTINUOUS
 10
242.423807
 20
120.971881
 11
269.781469
 21
120.971881
  0
LINE
  8
1
 62
7
  6
CONTINUOUS
 10
267.781469
 20
135.471871
 11
268.236469
 21
131.971871
  0
LINE
  8
1
 62
7
  6
CONTINUOUS
 10
268.236469
 20
131.971871
 11
267.326469
 21
131.971871
  0
LINE
  8
1
 62
7
  6
CONTINUOUS
 10
267.326469
 20
131.971871
 11
267.781469
 21
135.471871
  0
LINE
  8
1
 62
7
  6
CONTINUOUS
 10
267.781469
 20
120.971881
 11
267.326469
 21
124.471881
  0
LINE
  8
1
 62
7
  6
CONTINUOUS
 10
267.326469
 20
124.471881
 11
268.236469
 21
124.471881
  0
LINE
  8
1
 62
7
  6
CONTINUOUS
 10
268.236469
 20
124.471881
 11
267.781469
 21
120.971881
  0
TEXT
  8
1
 62
7
  6
CONTINUOUS
 10
265.781469
 20
122.403126
 40
3.500000
 41
0.900000
  1
(14.5)
  7
KANJI
 50
90.000000
 51
0.000000
  0
LINE
  8
1
 62
7
  6
CONTINUOUS
 10
208.625074
 20
109.296971
 11
223.630496
 21
109.296971
  0
LINE
  8
1
 62
7
  6
CONTINUOUS
 10
206.625074
 20
109.296971
 11
208.625074
 21
109.296971
  0
LINE
  8
1
 62
7
  6
CONTINUOUS
 10
199.625074
 20
109.296971
 11
206.625074
 21
109.296971
  0
LINE
  8
1
 62
7
  6
CONTINUOUS
 10
208.625074
 20
122.239831
 11
208.625074
 21
107.296971
  0
LINE
  8
1
 62
7
  6
CONTINUOUS
 10
206.625074
 20
122.239831
 11
206.625074
 21
107.296971
  0
LINE
  8
1
 62
7
  6
CONTINUOUS
 10
206.625074
 20
109.296971
 11
203.125074
 21
108.841971
  0
LINE
  8
1
 62
7
  6
CONTINUOUS
 10
203.125074
 20
108.841971
 11
203.125074
 21
109.751971
  0
LINE
  8
1
 62
7
  6
CONTINUOUS
 10
203.125074
 20
109.751971
 11
206.625074
 21
109.296971
  0
LINE
  8
1
 62
7
  6
CONTINUOUS
 10
208.625074
 20
109.296971
 11
212.125074
 21
109.751971
  0
LINE
  8
1
 62
7
  6
CONTINUOUS
 10
212.125074
 20
109.751971
 11
212.125074
 21
108.841971
  0
LINE
  8
1
 62
7
  6
CONTINUOUS
 10
212.125074
 20
108.841971
 11
208.625074
 21
109.296971
  0
TEXT
  8
1
 62
7
  6
CONTINUOUS
 10
216.840496
 20
112.171971
 40
3.500000
 41
0.900000
  1
2
  7
KANJI
 50
0.000000
 51
0.000000
  0
TEXT
  8
1
 62
7
  6
CONTINUOUS
 10
220.690496
 20
114.446971
 40
2.100000
 41
0.900000
  1
 0
  7
KANJI
 50
0.000000
 51
0.000000
  0
TEXT
  8
1
 62
7
  6
CONTINUOUS
 10
220.690496
 20
111.296971
 40
2.100000
 41
0.900000
  1
-1
  7
KANJI
 50
0.000000
 51
0.000000
  0
LINE
  8
1
 62
7
  6
CONTINUOUS
 10
214.145221
 20
127.282587
 11
195.151754
 21
139.486182
  0
LINE
  8
1
 62
7
  6
CONTINUOUS
 10
205.521801
 20
132.823267
 11
202.331267
 21
134.332411
  0
LINE
  8
1
 62
7
  6
CONTINUOUS
 10
202.331267
 20
134.332411
 11
202.823171
 21
135.098002
  0
LINE
  8
1
 62
7
  6
CONTINUOUS
 10
202.823171
 20
135.098002
 11
205.521801
 21
132.823267
  0
LINE
  8
1
 62
7
  6
CONTINUOUS
 10
209.728348
 20
130.120496
 11
212.918882
 21
128.611352
  0
LINE
  8
1
 62
7
  6
CONTINUOUS
 10
212.918882
 20
128.611352
 11
212.426978
 21
127.845761
  0
LINE
  8
1
 62
7
  6
CONTINUOUS
 10
212.426978
 20
127.845761
 11
209.728348
 21
130.120496
  0
TEXT
  8
1
 62
7
  6
CONTINUOUS
 10
198.922936
 20
138.251764
 40
3.200000
 41
0.900000
  1
5
  7
KANJI
 50
327.278629
 51
0.000000
  0
TEXT
  8
1
 62
7
  6
CONTINUOUS
 10
195.692308
 20
140.327492
 40
3.200000
 41
0.900000
  1
ƒÓ
  7
KANJI
 50
327.278629
 51
0.000000
  0
LINE
  8
1
 62
7
  6
CONTINUOUS
 10
199.975836
 20
126.270761
 11
221.292487
 21
140.765077
  0
LINE
  8
1
 62
7
  6
CONTINUOUS
 10
210.932853
 20
133.721015
 11
213.571321
 21
136.065266
  0
LINE
  8
1
 62
7
  6
CONTINUOUS
 10
213.571321
 20
136.065266
 11
214.082998
 21
135.312746
  0
LINE
  8
1
 62
7
  6
CONTINUOUS
 10
214.082998
 20
135.312746
 11
210.932853
 21
133.721015
  0
LINE
  8
1
 62
7
  6
CONTINUOUS
 10
204.317296
 20
129.222748
 11
201.678828
 21
126.878497
  0
LINE
  8
1
 62
7
  6
CONTINUOUS
 10
201.678828
 20
126.878497
 11
201.167151
 21
127.631016
  0
LINE
  8
1
 62
7
  6
CONTINUOUS
 10
201.167151
 20
127.631016
 11
204.317296
 21
129.222748
  0
TEXT
  8
1
 62
7
  6
CONTINUOUS
 10
219.142470
 20
140.512438
 40
3.200000
 41
0.900000
  1
8
  7
KANJI
 50
34.213852
 51
0.000000
  0
TEXT
  8
1
 62
7
  6
CONTINUOUS
 10
215.967003
 20
138.353270
 40
3.200000
 41
0.900000
  1
ƒÓ
  7
KANJI
 50
34.213852
 51
0.000000
  0
ENDSEC
  0
EOF
