  0
SECTION
  2
HEADER
  9
$ACADVER
  1
AC1003
  9
$INSBASE
 10
0.000000
 20
0.000000
  9
$EXTMIN
 10
0.000000
 20
0.000000
  9
$EXTMAX
 10
148.000000
 20
210.000000
  9
$LIMMIN
 10
0.000000
 20
0.000000
  9
$LIMMAX
 10
148.000000
 20
210.000000
  9
$VIEWCTR
 10
74.000000
 20
105.000000
  9
$VIEWSIZE
 40
210.000000
  9
$PEXTMIN
 10
0.000000
 20
0.000000
 30
0.000000
  9
$PEXTMAX
 10
148.000000
 20
210.000000
 30
0.000000
  9
$SNAPMODE
 70
     0
  9
$SNAPUNIT
 10
1.000000
 20
1.000000
  9
$SNAPBASE
 10
0.000000
 20
0.000000
  9
$SNAPANG
 50
0.000000
  9
$SNAPISOPAIR
 70
     0
  9
$SNAPSTYLE
 70
     0
  9
$GRIDMODE
 70
     0
  9
$GRIDUNIT
 10
0.000000
 20
0.000000
  9
$ORTHOMODE
 70
     0
  9
$REGENMODE
 70
     1
  9
$FILLMODE
 70
     1
  9
$QTEXTMODE
 70
     0
  9
$DRAGMODE
 70
     2
  9
$LTSCALE
 40
0.250000
  9
$OSMODE
 70
     0
  9
$ATTMODE
 70
     1
  9
$TEXTSIZE
 40
0.200000
  9
$TRACEWID
 40
0.050000
  9
$TEXTSTYLE
  7
STANDARD
  9
$CLAYER
  8
0
  9
$CELTYPE
  6
BYLAYER
  9
$CECOLOR
 62
   256
  9
$DIMSCALE
 40
1.000000
  9
$DIMASZ
 40
1.000000
  9
$DIMEXO
 40
0.000000
  9
$DIMDLI
 40
0.500000
  9
$DIMRND
 40
0.000000
  9
$DIMDLE
 40
0.000000
  9
$DIMEXE
 40
0.000000
  9
$DIMTP
 40
0.000000
  9
$DIMTM
 40
0.000000
  9
$DIMTXT
 40
0.180000
  9
$DIMCEN
 40
0.000000
  9
$DIMTSZ
 40
0.000000
  9
$DIMTOL
 70
     0
  9
$DIMLIM
 70
     0
  9
$DIMTIH
 70
     1
  9
$DIMTOH
 70
     1
  9
$DIMSE1
 70
     0
  9
$DIMSE2
 70
     0
  9
$DIMTAD
 70
     0
  9
$DIMZIN
 70
     0
  9
$DIMBLK
  1

  9
$DIMASO
 70
     0
  9
$DIMSHO
 70
     0
  9
$DIMPOST
  1

  9
$DIMAPOST
  1

  9
$DIMALT
 70
     0
  9
$DIMALTD
 70
     0
  9
$DIMALTF
 40
25.400000
  9
$DIMLFAC
 40
1.000000
  9
$DIMTOFL
 70
     0
  9
$DIMTVP
 40
0.000000
  9
$DIMTIX
 70
     0
  9
$DIMSOXD
 70
     0
  9
$DIMSAH
 70
     0
  9
$DIMBLKL
  1

  9
$DIMBLKR
  1

  9
$LUNITS
 70
     2
  9
$LUPREC
 70
     2
  9
$AXISMODE
 70
     0
  9
$AXISUNIT
 10
1.000000
 20
1.000000
  9
$SKETCHINC
 40
0.000000
  9
$FILLETRAD
 40
0.000000
  9
$AUNITS
 70
     1
  9
$AUPREC
 70
     2
  9
$MENU
  1
ACAD
  9
$ELEVATION
 40
0.000000
  9
$THICKNESS
 40
0.000000
  9
$VIEWDIR
 10
0.000000
 20
0.000000
 30
1.000000
  9
$LIMCHECK
 70
     1
  9
$BLIPMODE
 70
     1
  9
$CHAMFERA
 40
0.000000
  9
$CHAMFERB
 40
0.000000
  9
$FASTZOOM
 70
     1
  9
$SKPOLY
 70
     0
  9
$TDCREATE
 40
0.000000
  9
$TDUPDATE
 40
0.000000
  9
$TDINDWG
 40
0.000000
  9
$TDUSRTIMER
 40
0.000000
  9
$USRTIMER
 70
     1
  9
$ANGBASE
 50
0.000000
  9
$ANGDIR
 70
     0
  9
$PDMODE
 70
     0
  9
$PDSIZE
 40
0.000000
  9
$PLINEWID
 40
0.000000
  9
$COORDS
 70
     2
  9
$USERI1
 70
     0
  9
$USERI2
 70
     0
  9
$USERI3
 70
     0
  9
$USERI4
 70
     0
  9
$USERI5
 70
     0
  9
$USERR1
 40
0.000000
  9
$USERR2
 40
0.000000
  9
$USERR3
 40
0.000000
  9
$USERR4
 40
0.000000
  9
$USERR5
 40
0.000000
  0
ENDSEC
  0
SECTION
  2
TABLES
  0
TABLE
  2
LTYPE
 70
     5
  0
LTYPE
  2
CONTINUOUS
 70
    64
  3
Solid line
 72
    65
 73
     0
 40
0.0
  0
LTYPE
  2
HIDDEN
 70
    64
  3
------------------------
 72
    65
 73
     2
 40
12.6
 49
8.4
 49
-4.2
  0
LTYPE
  2
DOT
 70
    64
  3
¥¥¥¥¥¥¥¥¥¥¥¥¥¥¥¥¥¥¥¥¥¥¥¥
 72
    65
 73
     2
 40
8.0
 49
6.0
 49
-2.0
  0
LTYPE
  2
DASHDOT
 70
    64
  3
--¥--¥--¥--¥--¥--¥--¥--
 72
    65
 73
     4
 40
50.5
 49
30.0
 49
-9.0
 49
2.5
 49
-9.0
  0
LTYPE
  2
DIVIDE
 70
    64
  3
--¥¥--¥¥--¥¥--¥¥--¥¥--
 72
    65
 73
     6
 40
58.0
 49
30.0
 49
-9.0
 49
2.5
 49
-5.0
 49
2.5
 49
-9.0
  0
ENDTAB
  0
TABLE
  2
LAYER
 70
1
  0
LAYER
  2
1
 70
64
 62
7
  6
CONTINUOUS
  0
ENDTAB
  0
TABLE
  2
STYLE
 70
     2
  0
STYLE
  2
STANDARD
 70
    64
 40
0.0
 41
1.0
 50
0.0
 71
     0
 42
0.2
  3
TXT
  4

  0
STYLE
  2
KANJI
 70
    64
 40
0.0
 41
1.0
 50
0.0
 71
     0
 42
0.2
  3
TXT
  4
BIGFONT
  0
ENDTAB
  0
TABLE
  2
VIEW
 70
     0
  0
ENDTAB
  0
ENDSEC
  0
SECTION
  2
BLOCKS
  0
ENDSEC
  0
SECTION
  2
ENTITIES
  0
LINE
  8
1
 62
7
  6
CONTINUOUS
 10
15.497341
 20
45.881865
 11
15.497341
 21
44.845336
  0
LINE
  8
1
 62
7
  6
DASHDOT
 10
6.813459
 20
58.181865
 11
20.939778
 21
58.181865
  0
LINE
  8
1
 62
7
  6
DASHDOT
 10
13.747341
 20
64.627602
 11
13.747341
 21
43.141075
  0
LINE
  8
1
 62
7
  6
CONTINUOUS
 10
15.497341
 20
50.763831
 11
15.497341
 21
49.381865
  0
LINE
  8
1
 62
7
  6
CONTINUOUS
 10
15.550127
 20
50.987438
 11
15.944555
 21
51.776292
  0
LINE
  8
1
 62
7
  6
CONTINUOUS
 10
11.944555
 20
50.987438
 11
11.550127
 21
51.776292
  0
LINE
  8
1
 62
7
  6
CONTINUOUS
 10
16.997341
 20
44.081865
 11
16.997341
 21
49.381865
  0
LINE
  8
1
 62
7
  6
CONTINUOUS
 10
17.050127
 20
50.633336
 11
17.444555
 21
51.422190
  0
LINE
  8
1
 62
7
  6
CONTINUOUS
 10
17.497341
 20
51.645797
 11
17.497341
 21
53.946596
  0
LINE
  8
1
 62
7
  6
CONTINUOUS
 10
10.444555
 20
50.633336
 11
10.050127
 21
51.422190
  0
LINE
  8
1
 62
7
  6
CONTINUOUS
 10
9.997341
 20
51.645797
 11
9.997341
 21
53.946596
  0
LINE
  8
1
 62
7
  6
CONTINUOUS
 10
10.497341
 20
50.409729
 11
10.497341
 21
49.381865
  0
LINE
  8
1
 62
7
  6
CONTINUOUS
 10
10.697341
 20
43.881865
 11
10.937312
 21
43.881865
  0
LINE
  8
1
 62
7
  6
CONTINUOUS
 10
15.997341
 20
51.999899
 11
15.997341
 21
54.619913
  0
LINE
  8
1
 62
7
  6
CONTINUOUS
 10
11.497341
 20
51.999899
 11
11.497341
 21
54.619913
  0
LINE
  8
1
 62
7
  6
CONTINUOUS
 10
16.553439
 20
43.881865
 11
16.797341
 21
43.881865
  0
LINE
  8
1
 62
7
  6
CONTINUOUS
 10
11.903649
 20
45.680941
 11
11.118573
 21
43.997341
  0
LINE
  8
1
 62
7
  6
CONTINUOUS
 10
43.260055
 20
63.681865
 11
57.260055
 21
63.681865
  0
LINE
  8
1
 62
7
  6
CONTINUOUS
 10
46.534528
 20
43.881865
 11
53.985582
 21
43.881865
  0
LINE
  8
1
 62
7
  6
CONTINUOUS
 10
57.760055
 20
63.181865
 11
57.760055
 21
54.158496
  0
LINE
  8
1
 62
7
  6
CONTINUOUS
 10
42.760055
 20
63.181865
 11
42.760055
 21
54.158496
  0
LINE
  8
1
 62
7
  6
CONTINUOUS
 10
11.997341
 20
49.381865
 11
11.997341
 21
46.103559
  0
LINE
  8
1
 62
7
  6
CONTINUOUS
 10
57.681886
 20
49.259027
 11
54.407413
 21
44.113427
  0
LINE
  8
1
 62
7
  6
CONTINUOUS
 10
42.838224
 20
49.259027
 11
46.112697
 21
44.113427
  0
LINE
  8
1
 62
7
  6
CONTINUOUS
 10
10.497341
 20
49.381865
 11
11.997341
 21
49.381865
  0
LINE
  8
1
 62
7
  6
CONTINUOUS
 10
10.497341
 20
49.381865
 11
10.497341
 21
44.081865
  0
LINE
  8
1
 62
7
  6
CONTINUOUS
 10
11.997341
 20
49.381865
 11
11.997341
 21
50.763831
  0
LINE
  8
1
 62
7
  6
CONTINUOUS
 10
15.497341
 20
49.381865
 11
16.997341
 21
49.381865
  0
LINE
  8
1
 62
7
  6
CONTINUOUS
 10
15.497341
 20
49.381865
 11
15.497341
 21
46.103559
  0
LINE
  8
1
 62
7
  6
CONTINUOUS
 10
16.997341
 20
49.381865
 11
16.997341
 21
50.409729
  0
LINE
  8
1
 62
7
  6
CONTINUOUS
 10
42.760055
 20
51.527763
 11
57.760055
 21
51.527763
  0
LINE
  8
1
 62
7
  6
CONTINUOUS
 10
42.760055
 20
51.527763
 11
42.760055
 21
50.527763
  0
LINE
  8
1
 62
7
  6
CONTINUOUS
 10
57.760055
 20
51.527763
 11
57.760055
 21
50.527763
  0
LINE
  8
1
 62
7
  6
CONTINUOUS
 10
57.760055
 20
50.527763
 11
42.760055
 21
50.527763
  0
LINE
  8
1
 62
7
  6
CONTINUOUS
 10
57.760055
 20
50.527763
 11
57.760055
 21
49.527465
  0
LINE
  8
1
 62
7
  6
CONTINUOUS
 10
42.760055
 20
50.527763
 11
42.760055
 21
49.527465
  0
LINE
  8
1
 62
7
  6
CONTINUOUS
 10
42.760055
 20
54.158496
 11
57.760055
 21
54.158496
  0
LINE
  8
1
 62
7
  6
CONTINUOUS
 10
42.760055
 20
54.158496
 11
42.760055
 21
51.527763
  0
LINE
  8
1
 62
7
  6
CONTINUOUS
 10
57.760055
 20
54.158496
 11
57.760055
 21
51.527763
  0
LINE
  8
1
 62
7
  6
DASHDOT
 10
41.699837
 20
58.181865
 11
59.072044
 21
58.181865
  0
LINE
  8
1
 62
7
  6
CONTINUOUS
 10
15.591033
 20
45.680941
 11
16.376109
 21
43.997341
  0
LINE
  8
1
 62
7
  6
CONTINUOUS
 10
16.557370
 20
43.881865
 11
16.797341
 21
43.881865
  0
ARC
  8
1
 62
7
  6
CONTINUOUS
 10
13.747341
 20
58.181865
 40
4.000000
 50
-52.330113
 51
-127.669887
  0
ARC
  8
1
 62
7
  6
CONTINUOUS
 10
13.747341
 20
58.181865
 40
5.500000
 50
32.808681
 51
-135.099472
  0
ARC
  8
1
 62
7
  6
CONTINUOUS
 10
13.747341
 20
58.181865
 40
5.500000
 50
-44.900528
 51
32.808681
  0
ARC
  8
1
 62
7
  6
CONTINUOUS
 10
16.497341
 20
54.619913
 40
0.500000
 50
127.669887
 51
180.000000
  0
ARC
  8
1
 62
7
  6
CONTINUOUS
 10
17.997341
 20
53.946596
 40
0.500000
 50
135.099472
 51
180.000000
  0
ARC
  8
1
 62
7
  6
CONTINUOUS
 10
9.497341
 20
53.946596
 40
0.500000
 50
0.000000
 51
44.900528
  0
ARC
  8
1
 62
7
  6
CONTINUOUS
 10
10.997341
 20
54.619913
 40
0.500000
 50
0.000000
 51
52.330113
  0
ARC
  8
1
 62
7
  6
CONTINUOUS
 10
15.497341
 20
51.999899
 40
0.500000
 50
-26.565051
 51
0.000000
  0
ARC
  8
1
 62
7
  6
CONTINUOUS
 10
15.997341
 20
50.763831
 40
0.500000
 50
153.434949
 51
180.000000
  0
ARC
  8
1
 62
7
  6
CONTINUOUS
 10
17.497341
 20
50.409729
 40
0.500000
 50
153.434949
 51
180.000000
  0
ARC
  8
1
 62
7
  6
CONTINUOUS
 10
16.997341
 20
51.645797
 40
0.500000
 50
-26.565051
 51
0.000000
  0
ARC
  8
1
 62
7
  6
CONTINUOUS
 10
10.497341
 20
51.645797
 40
0.500000
 50
180.000000
 51
-153.434949
  0
ARC
  8
1
 62
7
  6
CONTINUOUS
 10
9.997341
 20
50.409729
 40
0.500000
 50
0.000000
 51
26.565051
  0
ARC
  8
1
 62
7
  6
CONTINUOUS
 10
11.497341
 20
50.763831
 40
0.500000
 50
0.000000
 51
26.565051
  0
ARC
  8
1
 62
7
  6
CONTINUOUS
 10
11.997341
 20
51.999899
 40
0.500000
 50
180.000000
 51
-153.434949
  0
ARC
  8
1
 62
7
  6
CONTINUOUS
 10
10.937312
 20
44.081865
 40
0.200000
 50
-90.000000
 51
-25.000000
  0
ARC
  8
1
 62
7
  6
CONTINUOUS
 10
10.697341
 20
44.081865
 40
0.200000
 50
180.000000
 51
-90.000000
  0
ARC
  8
1
 62
7
  6
CONTINUOUS
 10
16.797341
 20
44.081865
 40
0.200000
 50
-90.000000
 51
0.000000
  0
ARC
  8
1
 62
7
  6
CONTINUOUS
 10
43.260055
 20
63.181865
 40
0.500000
 50
90.000000
 51
180.000000
  0
ARC
  8
1
 62
7
  6
CONTINUOUS
 10
57.260055
 20
63.181865
 40
0.500000
 50
0.000000
 51
90.000000
  0
ARC
  8
1
 62
7
  6
CONTINUOUS
 10
57.260055
 20
49.527465
 40
0.500000
 50
-32.471192
 51
0.000000
  0
ARC
  8
1
 62
7
  6
CONTINUOUS
 10
53.985582
 20
44.381865
 40
0.500000
 50
-90.000000
 51
-32.471192
  0
ARC
  8
1
 62
7
  6
CONTINUOUS
 10
46.534528
 20
44.381865
 40
0.500000
 50
-147.528808
 51
-90.000000
  0
ARC
  8
1
 62
7
  6
CONTINUOUS
 10
43.260055
 20
49.527465
 40
0.500000
 50
180.000000
 51
-147.528808
  0
ARC
  8
1
 62
7
  6
CONTINUOUS
 10
16.557370
 20
44.081865
 40
0.200000
 50
-155.000000
 51
-90.000000
  0
ARC
  8
1
 62
7
  6
CONTINUOUS
 10
10.997341
 20
46.103559
 40
1.000000
 50
-25.000000
 51
-0.000000
  0
ARC
  8
1
 62
7
  6
CONTINUOUS
 10
16.497341
 20
46.103559
 40
1.000000
 50
180.000000
 51
-155.000000
  0
LINE
  8
1
 62
7
  6
CONTINUOUS
 10
13.747341
 20
58.181865
 11
9.124676
 21
55.201769
  0
LINE
  8
1
 62
7
  6
CONTINUOUS
 10
11.816703
 20
57.485475
 11
12.316041
 21
56.710912
  0
LINE
  8
1
 62
7
  6
CONTINUOUS
 10
12.316041
 20
56.710912
 11
9.124676
 21
55.201769
  0
LINE
  8
1
 62
7
  6
CONTINUOUS
 10
9.124676
 20
55.201769
 11
11.816703
 21
57.485475
  0
LINE
  8
1
 62
7
  6
CONTINUOUS
 10
13.747341
 20
58.181865
 11
18.370006
 21
61.161960
  0
LINE
  8
1
 62
7
  6
CONTINUOUS
 10
15.677979
 20
58.878254
 11
15.178641
 21
59.652817
  0
LINE
  8
1
 62
7
  6
CONTINUOUS
 10
15.178641
 20
59.652817
 11
18.370006
 21
61.161960
  0
LINE
  8
1
 62
7
  6
CONTINUOUS
 10
18.370006
 20
61.161960
 11
15.677979
 21
58.878254
  0
TEXT
  8
1
 62
7
  6
CONTINUOUS
 10
4.538865
 20
0.350000
 40
3.500000
 41
0.900000
  1
SPACER-CUDC_OUT
  7
KANJI
 50
0.000000
 51
0.000000
  0
LINE
  8
1
 62
7
  6
CONTINUOUS
 10
74.534546
 20
43.881865
 11
74.534546
 21
63.681865
  0
LINE
  8
1
 62
7
  6
CONTINUOUS
 10
57.260055
 20
63.681865
 11
76.534546
 21
63.681865
  0
LINE
  8
1
 62
7
  6
CONTINUOUS
 10
53.985582
 20
43.881865
 11
76.534546
 21
43.881865
  0
LINE
  8
1
 62
7
  6
CONTINUOUS
 10
74.534546
 20
63.681865
 11
74.989546
 21
60.181865
  0
LINE
  8
1
 62
7
  6
CONTINUOUS
 10
74.989546
 20
60.181865
 11
74.079546
 21
60.181865
  0
LINE
  8
1
 62
7
  6
CONTINUOUS
 10
74.079546
 20
60.181865
 11
74.534546
 21
63.681865
  0
LINE
  8
1
 62
7
  6
CONTINUOUS
 10
74.534546
 20
43.881865
 11
74.079546
 21
47.381865
  0
LINE
  8
1
 62
7
  6
CONTINUOUS
 10
74.079546
 20
47.381865
 11
74.989546
 21
47.381865
  0
LINE
  8
1
 62
7
  6
CONTINUOUS
 10
74.989546
 20
47.381865
 11
74.534546
 21
43.881865
  0
TEXT
  8
1
 62
7
  6
CONTINUOUS
 10
72.534546
 20
47.963115
 40
3.500000
 41
0.900000
  1
(19.8)
  7
KANJI
 50
90.000000
 51
0.000000
  0
LINE
  8
1
 62
7
  6
CONTINUOUS
 10
42.760055
 20
73.736496
 11
57.760055
 21
73.736496
  0
LINE
  8
1
 62
7
  6
CONTINUOUS
 10
57.760055
 20
63.181865
 11
57.760055
 21
75.736496
  0
LINE
  8
1
 62
7
  6
CONTINUOUS
 10
42.760055
 20
63.181865
 11
42.760055
 21
75.736496
  0
LINE
  8
1
 62
7
  6
CONTINUOUS
 10
42.760055
 20
73.736496
 11
46.260055
 21
74.191496
  0
LINE
  8
1
 62
7
  6
CONTINUOUS
 10
46.260055
 20
74.191496
 11
46.260055
 21
73.281496
  0
LINE
  8
1
 62
7
  6
CONTINUOUS
 10
46.260055
 20
73.281496
 11
42.760055
 21
73.736496
  0
LINE
  8
1
 62
7
  6
CONTINUOUS
 10
57.760055
 20
73.736496
 11
54.260055
 21
73.281496
  0
LINE
  8
1
 62
7
  6
CONTINUOUS
 10
54.260055
 20
73.281496
 11
54.260055
 21
74.191496
  0
LINE
  8
1
 62
7
  6
CONTINUOUS
 10
54.260055
 20
74.191496
 11
57.760055
 21
73.736496
  0
TEXT
  8
1
 62
7
  6
CONTINUOUS
 10
48.953542
 20
75.736496
 40
3.500000
 41
0.900000
  1
15
  7
KANJI
 50
0.000000
 51
0.000000
  0
LINE
  8
1
 62
7
  6
CONTINUOUS
 10
15.497341
 20
28.690027
 11
30.276788
 21
28.690027
  0
LINE
  8
1
 62
7
  6
CONTINUOUS
 10
11.997341
 20
28.690027
 11
15.497341
 21
28.690027
  0
LINE
  8
1
 62
7
  6
CONTINUOUS
 10
4.997341
 20
28.690027
 11
11.997341
 21
28.690027
  0
LINE
  8
1
 62
7
  6
CONTINUOUS
 10
15.497341
 20
46.103560
 11
15.497341
 21
26.690027
  0
LINE
  8
1
 62
7
  6
CONTINUOUS
 10
11.997341
 20
46.103560
 11
11.997341
 21
26.690027
  0
LINE
  8
1
 62
7
  6
CONTINUOUS
 10
11.997341
 20
28.690027
 11
8.497341
 21
28.235027
  0
LINE
  8
1
 62
7
  6
CONTINUOUS
 10
8.497341
 20
28.235027
 11
8.497341
 21
29.145027
  0
LINE
  8
1
 62
7
  6
CONTINUOUS
 10
8.497341
 20
29.145027
 11
11.997341
 21
28.690027
  0
LINE
  8
1
 62
7
  6
CONTINUOUS
 10
15.497341
 20
28.690027
 11
18.997341
 21
29.145027
  0
LINE
  8
1
 62
7
  6
CONTINUOUS
 10
18.997341
 20
29.145027
 11
18.997341
 21
28.235027
  0
LINE
  8
1
 62
7
  6
CONTINUOUS
 10
18.997341
 20
28.235027
 11
15.497341
 21
28.690027
  0
TEXT
  8
1
 62
7
  6
CONTINUOUS
 10
17.256788
 20
31.565027
 40
3.500000
 41
0.900000
  1
3.5
  7
KANJI
 50
0.000000
 51
0.000000
  0
TEXT
  8
1
 62
7
  6
CONTINUOUS
 10
25.394288
 20
33.840027
 40
2.100000
 41
0.900000
  1
 0
  7
KANJI
 50
0.000000
 51
0.000000
  0
TEXT
  8
1
 62
7
  6
CONTINUOUS
 10
25.394288
 20
30.690027
 40
2.100000
 41
0.900000
  1
-1.5
  7
KANJI
 50
0.000000
 51
0.000000
  0
LINE
  8
1
 62
7
  6
CONTINUOUS
 10
21.388654
 20
52.969108
 11
0.000000
 21
67.560036
  0
LINE
  8
1
 62
7
  6
CONTINUOUS
 10
10.442989
 20
60.436030
 11
7.295270
 21
62.032554
  0
LINE
  8
1
 62
7
  6
CONTINUOUS
 10
7.295270
 20
62.032554
 11
7.808093
 21
62.784294
  0
LINE
  8
1
 62
7
  6
CONTINUOUS
 10
7.808093
 20
62.784294
 11
10.442989
 21
60.436030
  0
LINE
  8
1
 62
7
  6
CONTINUOUS
 10
17.051693
 20
55.927700
 11
20.199412
 21
54.331176
  0
LINE
  8
1
 62
7
  6
CONTINUOUS
 10
20.199412
 20
54.331176
 11
19.686589
 21
53.579436
  0
LINE
  8
1
 62
7
  6
CONTINUOUS
 10
19.686589
 20
53.579436
 11
17.051693
 21
55.927700
  0
TEXT
  8
1
 62
7
  6
CONTINUOUS
 10
3.735719
 20
66.222125
 40
3.200000
 41
0.900000
  1
8
  7
KANJI
 50
325.698946
 51
0.000000
  0
TEXT
  8
1
 62
7
  6
CONTINUOUS
 10
0.563541
 20
68.386123
 40
3.200000
 41
0.900000
  1
ƒÓ
  7
KANJI
 50
325.698946
 51
0.000000
  0
LINE
  8
1
 62
7
  6
CONTINUOUS
 10
9.326648
 20
54.909636
 11
30.446268
 21
70.542532
  0
LINE
  8
1
 62
7
  6
CONTINUOUS
 10
18.168033
 20
61.454093
 11
15.625568
 21
59.006054
  0
LINE
  8
1
 62
7
  6
CONTINUOUS
 10
15.625568
 20
59.006054
 11
15.084163
 21
59.737478
  0
LINE
  8
1
 62
7
  6
CONTINUOUS
 10
15.084163
 20
59.737478
 11
18.168033
 21
61.454093
  0
LINE
  8
1
 62
7
  6
CONTINUOUS
 10
9.326648
 20
54.909636
 11
11.869114
 21
57.357675
  0
LINE
  8
1
 62
7
  6
CONTINUOUS
 10
11.869114
 20
57.357675
 11
12.410519
 21
56.626252
  0
LINE
  8
1
 62
7
  6
CONTINUOUS
 10
12.410519
 20
56.626252
 11
9.326648
 21
54.909636
  0
TEXT
  8
1
 62
7
  6
CONTINUOUS
 10
27.536482
 20
69.632836
 40
3.200000
 41
0.900000
  1
11
  7
KANJI
 50
36.509113
 51
0.000000
  0
TEXT
  8
1
 62
7
  6
CONTINUOUS
 10
24.450035
 20
67.348226
 40
3.200000
 41
0.900000
  1
ƒÓ
  7
KANJI
 50
36.509113
 51
0.000000
  0
ENDSEC
  0
EOF
