  0
SECTION
  2
HEADER
  9
$ACADVER
  1
AC1003
  9
$INSBASE
 10
0.000000
 20
0.000000
  9
$EXTMIN
 10
0.000000
 20
0.000000
  9
$EXTMAX
 10
210.000000
 20
148.000000
  9
$LIMMIN
 10
0.000000
 20
0.000000
  9
$LIMMAX
 10
210.000000
 20
148.000000
  9
$VIEWCTR
 10
105.000000
 20
74.000000
  9
$VIEWSIZE
 40
148.000000
  9
$PEXTMIN
 10
0.000000
 20
0.000000
 30
0.000000
  9
$PEXTMAX
 10
210.000000
 20
148.000000
 30
0.000000
  9
$SNAPMODE
 70
     0
  9
$SNAPUNIT
 10
1.000000
 20
1.000000
  9
$SNAPBASE
 10
0.000000
 20
0.000000
  9
$SNAPANG
 50
0.000000
  9
$SNAPISOPAIR
 70
     0
  9
$SNAPSTYLE
 70
     0
  9
$GRIDMODE
 70
     0
  9
$GRIDUNIT
 10
0.000000
 20
0.000000
  9
$ORTHOMODE
 70
     0
  9
$REGENMODE
 70
     1
  9
$FILLMODE
 70
     1
  9
$QTEXTMODE
 70
     0
  9
$DRAGMODE
 70
     2
  9
$LTSCALE
 40
0.250000
  9
$OSMODE
 70
     0
  9
$ATTMODE
 70
     1
  9
$TEXTSIZE
 40
0.200000
  9
$TRACEWID
 40
0.050000
  9
$TEXTSTYLE
  7
STANDARD
  9
$CLAYER
  8
0
  9
$CELTYPE
  6
BYLAYER
  9
$CECOLOR
 62
   256
  9
$DIMSCALE
 40
1.000000
  9
$DIMASZ
 40
1.000000
  9
$DIMEXO
 40
0.000000
  9
$DIMDLI
 40
0.500000
  9
$DIMRND
 40
0.000000
  9
$DIMDLE
 40
0.000000
  9
$DIMEXE
 40
0.000000
  9
$DIMTP
 40
0.000000
  9
$DIMTM
 40
0.000000
  9
$DIMTXT
 40
0.180000
  9
$DIMCEN
 40
0.000000
  9
$DIMTSZ
 40
0.000000
  9
$DIMTOL
 70
     0
  9
$DIMLIM
 70
     0
  9
$DIMTIH
 70
     1
  9
$DIMTOH
 70
     1
  9
$DIMSE1
 70
     0
  9
$DIMSE2
 70
     0
  9
$DIMTAD
 70
     0
  9
$DIMZIN
 70
     0
  9
$DIMBLK
  1

  9
$DIMASO
 70
     0
  9
$DIMSHO
 70
     0
  9
$DIMPOST
  1

  9
$DIMAPOST
  1

  9
$DIMALT
 70
     0
  9
$DIMALTD
 70
     0
  9
$DIMALTF
 40
25.400000
  9
$DIMLFAC
 40
1.000000
  9
$DIMTOFL
 70
     0
  9
$DIMTVP
 40
0.000000
  9
$DIMTIX
 70
     0
  9
$DIMSOXD
 70
     0
  9
$DIMSAH
 70
     0
  9
$DIMBLKL
  1

  9
$DIMBLKR
  1

  9
$LUNITS
 70
     2
  9
$LUPREC
 70
     2
  9
$AXISMODE
 70
     0
  9
$AXISUNIT
 10
1.000000
 20
1.000000
  9
$SKETCHINC
 40
0.000000
  9
$FILLETRAD
 40
0.000000
  9
$AUNITS
 70
     1
  9
$AUPREC
 70
     2
  9
$MENU
  1
ACAD
  9
$ELEVATION
 40
0.000000
  9
$THICKNESS
 40
0.000000
  9
$VIEWDIR
 10
0.000000
 20
0.000000
 30
1.000000
  9
$LIMCHECK
 70
     1
  9
$BLIPMODE
 70
     1
  9
$CHAMFERA
 40
0.000000
  9
$CHAMFERB
 40
0.000000
  9
$FASTZOOM
 70
     1
  9
$SKPOLY
 70
     0
  9
$TDCREATE
 40
0.000000
  9
$TDUPDATE
 40
0.000000
  9
$TDINDWG
 40
0.000000
  9
$TDUSRTIMER
 40
0.000000
  9
$USRTIMER
 70
     1
  9
$ANGBASE
 50
0.000000
  9
$ANGDIR
 70
     0
  9
$PDMODE
 70
     0
  9
$PDSIZE
 40
0.000000
  9
$PLINEWID
 40
0.000000
  9
$COORDS
 70
     2
  9
$USERI1
 70
     0
  9
$USERI2
 70
     0
  9
$USERI3
 70
     0
  9
$USERI4
 70
     0
  9
$USERI5
 70
     0
  9
$USERR1
 40
0.000000
  9
$USERR2
 40
0.000000
  9
$USERR3
 40
0.000000
  9
$USERR4
 40
0.000000
  9
$USERR5
 40
0.000000
  0
ENDSEC
  0
SECTION
  2
TABLES
  0
TABLE
  2
LTYPE
 70
     5
  0
LTYPE
  2
CONTINUOUS
 70
    64
  3
Solid line
 72
    65
 73
     0
 40
0.0
  0
LTYPE
  2
HIDDEN
 70
    64
  3
------------------------
 72
    65
 73
     2
 40
12.6
 49
8.4
 49
-4.2
  0
LTYPE
  2
DOT
 70
    64
  3
¥¥¥¥¥¥¥¥¥¥¥¥¥¥¥¥¥¥¥¥¥¥¥¥
 72
    65
 73
     2
 40
8.0
 49
6.0
 49
-2.0
  0
LTYPE
  2
DASHDOT
 70
    64
  3
--¥--¥--¥--¥--¥--¥--¥--
 72
    65
 73
     4
 40
50.5
 49
30.0
 49
-9.0
 49
2.5
 49
-9.0
  0
LTYPE
  2
DIVIDE
 70
    64
  3
--¥¥--¥¥--¥¥--¥¥--¥¥--
 72
    65
 73
     6
 40
58.0
 49
30.0
 49
-9.0
 49
2.5
 49
-5.0
 49
2.5
 49
-9.0
  0
ENDTAB
  0
TABLE
  2
LAYER
 70
1
  0
LAYER
  2
1
 70
64
 62
7
  6
CONTINUOUS
  0
ENDTAB
  0
TABLE
  2
STYLE
 70
     2
  0
STYLE
  2
STANDARD
 70
    64
 40
0.0
 41
1.0
 50
0.0
 71
     0
 42
0.2
  3
TXT
  4

  0
STYLE
  2
KANJI
 70
    64
 40
0.0
 41
1.0
 50
0.0
 71
     0
 42
0.2
  3
TXT
  4
BIGFONT
  0
ENDTAB
  0
TABLE
  2
VIEW
 70
     0
  0
ENDTAB
  0
ENDSEC
  0
SECTION
  2
BLOCKS
  0
ENDSEC
  0
SECTION
  2
ENTITIES
  0
LINE
  8
1
 62
7
  6
CONTINUOUS
 10
293.763958
 20
48.260592
 11
320.651066
 21
48.260592
  0
LINE
  8
1
 62
7
  6
CONTINUOUS
 10
293.207512
 20
49.260592
 11
293.207512
 21
48.889166
  0
LINE
  8
1
 62
7
  6
CONTINUOUS
 10
321.207512
 20
49.260592
 11
321.207512
 21
48.889166
  0
LINE
  8
1
 62
7
  6
CONTINUOUS
 10
321.207512
 20
49.260592
 11
293.207512
 21
49.260592
  0
LINE
  8
1
 62
7
  6
CONTINUOUS
 10
321.207512
 20
51.891324
 11
321.207512
 21
49.260592
  0
LINE
  8
1
 62
7
  6
CONTINUOUS
 10
293.207512
 20
51.891324
 11
293.207512
 21
49.260592
  0
LINE
  8
1
 62
7
  6
CONTINUOUS
 10
293.207512
 20
51.891324
 11
321.207512
 21
51.891324
  0
LINE
  8
1
 62
7
  6
CONTINUOUS
 10
293.707512
 20
61.414694
 11
320.707512
 21
61.414694
  0
LINE
  8
1
 62
7
  6
CONTINUOUS
 10
321.207512
 20
60.914694
 11
321.207512
 21
51.891324
  0
LINE
  8
1
 62
7
  6
CONTINUOUS
 10
293.207512
 20
60.914694
 11
293.207512
 21
51.891324
  0
LINE
  8
1
 62
7
  6
CONTINUOUS
 10
274.461901
 20
41.614618
 11
274.701872
 21
41.614618
  0
LINE
  8
1
 62
7
  6
CONTINUOUS
 10
273.495564
 20
43.413694
 11
274.280640
 21
41.730094
  0
LINE
  8
1
 62
7
  6
CONTINUOUS
 10
269.901872
 20
43.836313
 11
269.901872
 21
48.496584
  0
LINE
  8
1
 62
7
  6
CONTINUOUS
 10
269.808180
 20
43.413694
 11
269.023104
 21
41.730094
  0
LINE
  8
1
 62
7
  6
CONTINUOUS
 10
274.457970
 20
41.614618
 11
274.701872
 21
41.614618
  0
LINE
  8
1
 62
7
  6
CONTINUOUS
 10
269.401872
 20
49.732652
 11
269.401872
 21
52.352666
  0
LINE
  8
1
 62
7
  6
CONTINUOUS
 10
273.901872
 20
49.732652
 11
273.901872
 21
52.352666
  0
LINE
  8
1
 62
7
  6
CONTINUOUS
 10
268.601872
 20
41.614618
 11
268.841843
 21
41.614618
  0
LINE
  8
1
 62
7
  6
CONTINUOUS
 10
268.401872
 20
48.142482
 11
268.401872
 21
41.814618
  0
LINE
  8
1
 62
7
  6
CONTINUOUS
 10
267.901872
 20
49.378550
 11
267.901872
 21
51.679349
  0
LINE
  8
1
 62
7
  6
CONTINUOUS
 10
268.349086
 20
48.366089
 11
268.224821
 21
48.614618
  0
LINE
  8
1
 62
7
  6
CONTINUOUS
 10
275.401872
 20
49.378550
 11
275.401872
 21
51.679349
  0
LINE
  8
1
 62
7
  6
CONTINUOUS
 10
274.954658
 20
48.366089
 11
275.078923
 21
48.614618
  0
LINE
  8
1
 62
7
  6
CONTINUOUS
 10
274.901872
 20
41.814618
 11
274.901872
 21
48.142482
  0
LINE
  8
1
 62
7
  6
CONTINUOUS
 10
269.849086
 20
48.720191
 11
269.454658
 21
49.509045
  0
LINE
  8
1
 62
7
  6
CONTINUOUS
 10
273.454658
 20
48.720191
 11
273.849086
 21
49.509045
  0
LINE
  8
1
 62
7
  6
CONTINUOUS
 10
273.401872
 20
48.496584
 11
273.401872
 21
43.836313
  0
LINE
  8
1
 62
7
  6
DASHDOT
 10
271.651872
 20
62.360355
 11
271.651872
 21
40.873828
  0
LINE
  8
1
 62
7
  6
DASHDOT
 10
264.717990
 20
55.914618
 11
278.844309
 21
55.914618
  0
LINE
  8
1
 62
7
  6
CONTINUOUS
 10
269.887740
 20
48.614618
 11
268.865007
 21
48.614618
  0
LINE
  8
1
 62
7
  6
CONTINUOUS
 10
273.401872
 20
43.614618
 11
273.401872
 21
42.578089
  0
LINE
  8
1
 62
7
  6
CONTINUOUS
 10
275.078923
 20
48.614618
 11
273.416004
 21
48.614618
  0
LINE
  8
1
 62
7
  6
CONTINUOUS
 10
275.078923
 20
48.614618
 11
275.349086
 21
49.154943
  0
LINE
  8
1
 62
7
  6
CONTINUOUS
 10
269.887740
 20
48.614618
 11
268.224821
 21
48.614618
  0
LINE
  8
1
 62
7
  6
CONTINUOUS
 10
268.224821
 20
48.614618
 11
267.954658
 21
49.154943
  0
LINE
  8
1
 62
7
  6
DASHDOT
 10
291.633717
 20
55.914618
 11
322.877194
 21
55.914618
  0
LINE
  8
1
 62
7
  6
CONTINUOUS
 10
310.330349
 20
41.692863
 11
320.975950
 21
48.467336
  0
LINE
  8
1
 62
7
  6
CONTINUOUS
 10
293.439074
 20
48.467336
 11
304.084675
 21
41.692863
  0
LINE
  8
1
 62
7
  6
CONTINUOUS
 10
304.353112
 20
41.614694
 11
310.061912
 21
41.614694
  0
ARC
  8
1
 62
7
  6
CONTINUOUS
 10
271.651872
 20
55.914618
 40
5.500000
 50
32.989869
 51
-135.099472
  0
ARC
  8
1
 62
7
  6
CONTINUOUS
 10
271.651872
 20
55.914618
 40
4.000000
 50
-52.330113
 51
-127.669887
  0
ARC
  8
1
 62
7
  6
CONTINUOUS
 10
271.651872
 20
55.914618
 40
5.500000
 50
-44.900528
 51
32.989869
  0
ARC
  8
1
 62
7
  6
CONTINUOUS
 10
274.401872
 20
43.836313
 40
1.000000
 50
180.000000
 51
-155.000000
  0
ARC
  8
1
 62
7
  6
CONTINUOUS
 10
268.901872
 20
43.836313
 40
1.000000
 50
-25.000000
 51
-0.000000
  0
ARC
  8
1
 62
7
  6
CONTINUOUS
 10
274.461901
 20
41.814618
 40
0.200000
 50
-155.000000
 51
-90.000000
  0
ARC
  8
1
 62
7
  6
CONTINUOUS
 10
274.701872
 20
41.814618
 40
0.200000
 50
-90.000000
 51
0.000000
  0
ARC
  8
1
 62
7
  6
CONTINUOUS
 10
268.601872
 20
41.814618
 40
0.200000
 50
180.000000
 51
-90.000000
  0
ARC
  8
1
 62
7
  6
CONTINUOUS
 10
268.841843
 20
41.814618
 40
0.200000
 50
-90.000000
 51
-25.000000
  0
ARC
  8
1
 62
7
  6
CONTINUOUS
 10
269.401872
 20
48.496584
 40
0.500000
 50
13.654585
 51
26.565051
  0
ARC
  8
1
 62
7
  6
CONTINUOUS
 10
267.901872
 20
48.142482
 40
0.500000
 50
0.000000
 51
26.565051
  0
ARC
  8
1
 62
7
  6
CONTINUOUS
 10
268.401872
 20
49.378550
 40
0.500000
 50
180.000000
 51
-153.434949
  0
ARC
  8
1
 62
7
  6
CONTINUOUS
 10
274.901872
 20
49.378550
 40
0.500000
 50
-26.565051
 51
0.000000
  0
ARC
  8
1
 62
7
  6
CONTINUOUS
 10
275.401872
 20
48.142482
 40
0.500000
 50
153.434949
 51
180.000000
  0
ARC
  8
1
 62
7
  6
CONTINUOUS
 10
273.901872
 20
48.496584
 40
0.500000
 50
166.345415
 51
180.000000
  0
ARC
  8
1
 62
7
  6
CONTINUOUS
 10
273.401872
 20
49.732652
 40
0.500000
 50
-26.565051
 51
0.000000
  0
ARC
  8
1
 62
7
  6
CONTINUOUS
 10
268.901872
 20
52.352666
 40
0.500000
 50
0.000000
 51
52.330113
  0
ARC
  8
1
 62
7
  6
CONTINUOUS
 10
267.401872
 20
51.679349
 40
0.500000
 50
0.000000
 51
44.900528
  0
ARC
  8
1
 62
7
  6
CONTINUOUS
 10
275.901872
 20
51.679349
 40
0.500000
 50
135.099472
 51
180.000000
  0
ARC
  8
1
 62
7
  6
CONTINUOUS
 10
274.401872
 20
52.352666
 40
0.500000
 50
127.669887
 51
180.000000
  0
ARC
  8
1
 62
7
  6
CONTINUOUS
 10
269.901872
 20
49.732652
 40
0.500000
 50
180.000000
 51
-153.434949
  0
ARC
  8
1
 62
7
  6
CONTINUOUS
 10
269.401872
 20
48.496584
 40
0.500000
 50
0.000000
 51
13.654585
  0
ARC
  8
1
 62
7
  6
CONTINUOUS
 10
293.707512
 20
60.914694
 40
0.500000
 50
90.000000
 51
180.000000
  0
ARC
  8
1
 62
7
  6
CONTINUOUS
 10
320.707512
 20
60.914694
 40
0.500000
 50
0.000000
 51
90.000000
  0
ARC
  8
1
 62
7
  6
CONTINUOUS
 10
273.901872
 20
48.496584
 40
0.500000
 50
153.434949
 51
166.345415
  0
ARC
  8
1
 62
7
  6
CONTINUOUS
 10
320.707512
 20
48.889166
 40
0.500000
 50
-57.528808
 51
0.000000
  0
ARC
  8
1
 62
7
  6
CONTINUOUS
 10
293.707512
 20
48.889166
 40
0.500000
 50
180.000000
 51
-122.471192
  0
ARC
  8
1
 62
7
  6
CONTINUOUS
 10
304.353112
 20
42.114694
 40
0.500000
 50
-122.471192
 51
-90.000000
  0
ARC
  8
1
 62
7
  6
CONTINUOUS
 10
310.061912
 20
42.114694
 40
0.500000
 50
-90.000000
 51
-57.528808
  0
TEXT
  8
1
 62
7
  6
CONTINUOUS
 10
267.986070
 20
0.350000
 40
3.500000
 41
0.900000
  1
SPACER-CNDC_OUT
  7
KANJI
 50
0.000000
 51
0.000000
  0
LINE
  8
1
 62
7
  6
CONTINUOUS
 10
293.207512
 20
71.882734
 11
321.207512
 21
71.882734
  0
LINE
  8
1
 62
7
  6
CONTINUOUS
 10
321.207512
 20
48.889166
 11
321.207512
 21
73.882734
  0
LINE
  8
1
 62
7
  6
CONTINUOUS
 10
293.207512
 20
60.914693
 11
293.207512
 21
73.882734
  0
LINE
  8
1
 62
7
  6
CONTINUOUS
 10
293.207512
 20
71.882734
 11
296.707512
 21
72.337734
  0
LINE
  8
1
 62
7
  6
CONTINUOUS
 10
296.707512
 20
72.337734
 11
296.707512
 21
71.427734
  0
LINE
  8
1
 62
7
  6
CONTINUOUS
 10
296.707512
 20
71.427734
 11
293.207512
 21
71.882734
  0
LINE
  8
1
 62
7
  6
CONTINUOUS
 10
321.207512
 20
71.882734
 11
317.707512
 21
71.427734
  0
LINE
  8
1
 62
7
  6
CONTINUOUS
 10
317.707512
 20
71.427734
 11
317.707512
 21
72.337734
  0
LINE
  8
1
 62
7
  6
CONTINUOUS
 10
317.707512
 20
72.337734
 11
321.207512
 21
71.882734
  0
TEXT
  8
1
 62
7
  6
CONTINUOUS
 10
305.439945
 20
73.882734
 40
3.500000
 41
0.900000
  1
28
  7
KANJI
 50
0.000000
 51
0.000000
  0
LINE
  8
1
 62
7
  6
CONTINUOUS
 10
273.401872
 20
26.659204
 11
292.055008
 21
26.659204
  0
LINE
  8
1
 62
7
  6
CONTINUOUS
 10
269.901872
 20
26.659204
 11
273.401872
 21
26.659204
  0
LINE
  8
1
 62
7
  6
CONTINUOUS
 10
262.901872
 20
26.659204
 11
269.901872
 21
26.659204
  0
LINE
  8
1
 62
7
  6
CONTINUOUS
 10
273.401872
 20
43.836312
 11
273.401872
 21
24.659204
  0
LINE
  8
1
 62
7
  6
CONTINUOUS
 10
269.901872
 20
43.836312
 11
269.901872
 21
24.659204
  0
LINE
  8
1
 62
7
  6
CONTINUOUS
 10
269.901872
 20
26.659204
 11
266.401872
 21
26.204204
  0
LINE
  8
1
 62
7
  6
CONTINUOUS
 10
266.401872
 20
26.204204
 11
266.401872
 21
27.114204
  0
LINE
  8
1
 62
7
  6
CONTINUOUS
 10
266.401872
 20
27.114204
 11
269.901872
 21
26.659204
  0
LINE
  8
1
 62
7
  6
CONTINUOUS
 10
273.401872
 20
26.659204
 11
276.901872
 21
27.114204
  0
LINE
  8
1
 62
7
  6
CONTINUOUS
 10
276.901872
 20
27.114204
 11
276.901872
 21
26.204204
  0
LINE
  8
1
 62
7
  6
CONTINUOUS
 10
276.901872
 20
26.204204
 11
273.401872
 21
26.659204
  0
TEXT
  8
1
 62
7
  6
CONTINUOUS
 10
279.035008
 20
29.534204
 40
3.500000
 41
0.900000
  1
3.5
  7
KANJI
 50
0.000000
 51
0.000000
  0
TEXT
  8
1
 62
7
  6
CONTINUOUS
 10
287.172508
 20
31.809204
 40
2.100000
 41
0.900000
  1
 0
  7
KANJI
 50
0.000000
 51
0.000000
  0
TEXT
  8
1
 62
7
  6
CONTINUOUS
 10
287.172508
 20
28.659204
 40
2.100000
 41
0.900000
  1
-1.5
  7
KANJI
 50
0.000000
 51
0.000000
  0
LINE
  8
1
 62
7
  6
CONTINUOUS
 10
340.145522
 20
41.614693
 11
340.145522
 21
61.414693
  0
LINE
  8
1
 62
7
  6
CONTINUOUS
 10
320.707512
 20
61.414693
 11
342.145522
 21
61.414693
  0
LINE
  8
1
 62
7
  6
CONTINUOUS
 10
310.061912
 20
41.614693
 11
342.145522
 21
41.614693
  0
LINE
  8
1
 62
7
  6
CONTINUOUS
 10
340.145522
 20
61.414693
 11
340.600522
 21
57.914693
  0
LINE
  8
1
 62
7
  6
CONTINUOUS
 10
340.600522
 20
57.914693
 11
339.690522
 21
57.914693
  0
LINE
  8
1
 62
7
  6
CONTINUOUS
 10
339.690522
 20
57.914693
 11
340.145522
 21
61.414693
  0
LINE
  8
1
 62
7
  6
CONTINUOUS
 10
340.145522
 20
41.614693
 11
339.690522
 21
45.114693
  0
LINE
  8
1
 62
7
  6
CONTINUOUS
 10
339.690522
 20
45.114693
 11
340.600522
 21
45.114693
  0
LINE
  8
1
 62
7
  6
CONTINUOUS
 10
340.600522
 20
45.114693
 11
340.145522
 21
41.614693
  0
TEXT
  8
1
 62
7
  6
CONTINUOUS
 10
338.145522
 20
45.695943
 40
3.500000
 41
0.900000
  1
(19.8)
  7
KANJI
 50
90.000000
 51
0.000000
  0
LINE
  8
1
 62
7
  6
CONTINUOUS
 10
279.419345
 20
50.891784
 11
259.059099
 21
64.057730
  0
LINE
  8
1
 62
7
  6
CONTINUOUS
 10
268.292965
 20
58.086654
 11
265.106852
 21
59.605110
  0
LINE
  8
1
 62
7
  6
CONTINUOUS
 10
265.106852
 20
59.605110
 11
265.600990
 21
60.369261
  0
LINE
  8
1
 62
7
  6
CONTINUOUS
 10
265.600990
 20
60.369261
 11
268.292965
 21
58.086654
  0
LINE
  8
1
 62
7
  6
CONTINUOUS
 10
275.010779
 20
53.742581
 11
278.196892
 21
52.224125
  0
LINE
  8
1
 62
7
  6
CONTINUOUS
 10
278.196892
 20
52.224125
 11
277.702754
 21
51.459974
  0
LINE
  8
1
 62
7
  6
CONTINUOUS
 10
277.702754
 20
51.459974
 11
275.010779
 21
53.742581
  0
TEXT
  8
1
 62
7
  6
CONTINUOUS
 10
262.826659
 20
62.812302
 40
3.200000
 41
0.900000
  1
8
  7
KANJI
 50
327.111284
 51
0.000000
  0
TEXT
  8
1
 62
7
  6
CONTINUOUS
 10
259.602108
 20
64.897457
 40
3.200000
 41
0.900000
  1
ƒÓ
  7
KANJI
 50
327.111284
 51
0.000000
  0
LINE
  8
1
 62
7
  6
CONTINUOUS
 10
267.040016
 20
52.917822
 11
284.740124
 21
64.419398
  0
LINE
  8
1
 62
7
  6
CONTINUOUS
 10
276.263728
 20
58.911413
 11
273.576827
 21
56.622835
  0
LINE
  8
1
 62
7
  6
CONTINUOUS
 10
273.576827
 20
56.622835
 11
273.080994
 21
57.385888
  0
LINE
  8
1
 62
7
  6
CONTINUOUS
 10
273.080994
 20
57.385888
 11
276.263728
 21
58.911413
  0
LINE
  8
1
 62
7
  6
CONTINUOUS
 10
267.040016
 20
52.917822
 11
269.726917
 21
55.206400
  0
LINE
  8
1
 62
7
  6
CONTINUOUS
 10
269.726917
 20
55.206400
 11
270.222750
 21
54.443347
  0
LINE
  8
1
 62
7
  6
CONTINUOUS
 10
270.222750
 20
54.443347
 11
267.040016
 21
52.917822
  0
TEXT
  8
1
 62
7
  6
CONTINUOUS
 10
281.780317
 20
63.688686
 40
3.200000
 41
0.900000
  1
11
  7
KANJI
 50
33.015915
 51
0.000000
  0
TEXT
  8
1
 62
7
  6
CONTINUOUS
 10
278.560403
 20
61.596377
 40
3.200000
 41
0.900000
  1
ƒÓ
  7
KANJI
 50
33.015915
 51
0.000000
  0
ENDSEC
  0
EOF
