  0
SECTION
  2
HEADER
  9
$ACADVER
  1
AC1003
  9
$INSBASE
 10
0.000000
 20
0.000000
  9
$EXTMIN
 10
0.000000
 20
0.000000
  9
$EXTMAX
 10
420.000000
 20
297.000000
  9
$LIMMIN
 10
0.000000
 20
0.000000
  9
$LIMMAX
 10
420.000000
 20
297.000000
  9
$VIEWCTR
 10
210.000000
 20
148.500000
  9
$VIEWSIZE
 40
297.000000
  9
$PEXTMIN
 10
0.000000
 20
0.000000
 30
0.000000
  9
$PEXTMAX
 10
420.000000
 20
297.000000
 30
0.000000
  9
$SNAPMODE
 70
     0
  9
$SNAPUNIT
 10
1.000000
 20
1.000000
  9
$SNAPBASE
 10
0.000000
 20
0.000000
  9
$SNAPANG
 50
0.000000
  9
$SNAPISOPAIR
 70
     0
  9
$SNAPSTYLE
 70
     0
  9
$GRIDMODE
 70
     0
  9
$GRIDUNIT
 10
0.000000
 20
0.000000
  9
$ORTHOMODE
 70
     0
  9
$REGENMODE
 70
     1
  9
$FILLMODE
 70
     1
  9
$QTEXTMODE
 70
     0
  9
$DRAGMODE
 70
     2
  9
$LTSCALE
 40
0.250000
  9
$OSMODE
 70
     0
  9
$ATTMODE
 70
     1
  9
$TEXTSIZE
 40
0.200000
  9
$TRACEWID
 40
0.050000
  9
$TEXTSTYLE
  7
STANDARD
  9
$CLAYER
  8
0
  9
$CELTYPE
  6
BYLAYER
  9
$CECOLOR
 62
   256
  9
$DIMSCALE
 40
1.000000
  9
$DIMASZ
 40
1.000000
  9
$DIMEXO
 40
0.000000
  9
$DIMDLI
 40
0.500000
  9
$DIMRND
 40
0.000000
  9
$DIMDLE
 40
0.000000
  9
$DIMEXE
 40
0.000000
  9
$DIMTP
 40
0.000000
  9
$DIMTM
 40
0.000000
  9
$DIMTXT
 40
0.180000
  9
$DIMCEN
 40
0.000000
  9
$DIMTSZ
 40
0.000000
  9
$DIMTOL
 70
     0
  9
$DIMLIM
 70
     0
  9
$DIMTIH
 70
     1
  9
$DIMTOH
 70
     1
  9
$DIMSE1
 70
     0
  9
$DIMSE2
 70
     0
  9
$DIMTAD
 70
     0
  9
$DIMZIN
 70
     0
  9
$DIMBLK
  1

  9
$DIMASO
 70
     0
  9
$DIMSHO
 70
     0
  9
$DIMPOST
  1

  9
$DIMAPOST
  1

  9
$DIMALT
 70
     0
  9
$DIMALTD
 70
     0
  9
$DIMALTF
 40
25.400000
  9
$DIMLFAC
 40
1.000000
  9
$DIMTOFL
 70
     0
  9
$DIMTVP
 40
0.000000
  9
$DIMTIX
 70
     0
  9
$DIMSOXD
 70
     0
  9
$DIMSAH
 70
     0
  9
$DIMBLKL
  1

  9
$DIMBLKR
  1

  9
$LUNITS
 70
     2
  9
$LUPREC
 70
     2
  9
$AXISMODE
 70
     0
  9
$AXISUNIT
 10
1.000000
 20
1.000000
  9
$SKETCHINC
 40
0.000000
  9
$FILLETRAD
 40
0.000000
  9
$AUNITS
 70
     1
  9
$AUPREC
 70
     2
  9
$MENU
  1
ACAD
  9
$ELEVATION
 40
0.000000
  9
$THICKNESS
 40
0.000000
  9
$VIEWDIR
 10
0.000000
 20
0.000000
 30
1.000000
  9
$LIMCHECK
 70
     1
  9
$BLIPMODE
 70
     1
  9
$CHAMFERA
 40
0.000000
  9
$CHAMFERB
 40
0.000000
  9
$FASTZOOM
 70
     1
  9
$SKPOLY
 70
     0
  9
$TDCREATE
 40
0.000000
  9
$TDUPDATE
 40
0.000000
  9
$TDINDWG
 40
0.000000
  9
$TDUSRTIMER
 40
0.000000
  9
$USRTIMER
 70
     1
  9
$ANGBASE
 50
0.000000
  9
$ANGDIR
 70
     0
  9
$PDMODE
 70
     0
  9
$PDSIZE
 40
0.000000
  9
$PLINEWID
 40
0.000000
  9
$COORDS
 70
     2
  9
$USERI1
 70
     0
  9
$USERI2
 70
     0
  9
$USERI3
 70
     0
  9
$USERI4
 70
     0
  9
$USERI5
 70
     0
  9
$USERR1
 40
0.000000
  9
$USERR2
 40
0.000000
  9
$USERR3
 40
0.000000
  9
$USERR4
 40
0.000000
  9
$USERR5
 40
0.000000
  0
ENDSEC
  0
SECTION
  2
TABLES
  0
TABLE
  2
LTYPE
 70
     5
  0
LTYPE
  2
CONTINUOUS
 70
    64
  3
Solid line
 72
    65
 73
     0
 40
0.0
  0
LTYPE
  2
HIDDEN
 70
    64
  3
------------------------
 72
    65
 73
     2
 40
12.6
 49
8.4
 49
-4.2
  0
LTYPE
  2
DOT
 70
    64
  3
････････････････････････
 72
    65
 73
     2
 40
8.0
 49
6.0
 49
-2.0
  0
LTYPE
  2
DASHDOT
 70
    64
  3
--･--･--･--･--･--･--･--
 72
    65
 73
     4
 40
50.5
 49
30.0
 49
-9.0
 49
2.5
 49
-9.0
  0
LTYPE
  2
DIVIDE
 70
    64
  3
--･･--･･--･･--･･--･･--
 72
    65
 73
     6
 40
58.0
 49
30.0
 49
-9.0
 49
2.5
 49
-5.0
 49
2.5
 49
-9.0
  0
ENDTAB
  0
TABLE
  2
LAYER
 70
4
  0
LAYER
  2
1
 70
64
 62
7
  6
CONTINUOUS
  0
LAYER
  2
2
 70
64
 62
134
  6
CONTINUOUS
  0
LAYER
  2
4
 70
64
 62
54
  6
CONTINUOUS
  0
LAYER
  2
128
 70
64
 62
7
  6
CONTINUOUS
  0
ENDTAB
  0
TABLE
  2
STYLE
 70
     2
  0
STYLE
  2
STANDARD
 70
    64
 40
0.0
 41
1.0
 50
0.0
 71
     0
 42
0.2
  3
TXT
  4

  0
STYLE
  2
KANJI
 70
    64
 40
0.0
 41
1.0
 50
0.0
 71
     0
 42
0.2
  3
TXT
  4
BIGFONT
  0
ENDTAB
  0
TABLE
  2
VIEW
 70
     0
  0
ENDTAB
  0
ENDSEC
  0
SECTION
  2
BLOCKS
  0
ENDSEC
  0
SECTION
  2
ENTITIES
  0
CIRCLE
  8
1
 62
7
  6
DIVIDE
 10
136.033308
 20
0.000000
 40
0.500000
  0
CIRCLE
  8
1
 62
7
  6
DIVIDE
 10
136.033308
 20
0.000000
 40
0.250000
  0
LINE
  8
1
 62
7
  6
CONTINUOUS
 10
182.000000
 20
129.834569
 11
182.000000
 21
139.390504
  0
LINE
  8
1
 62
7
  6
CONTINUOUS
 10
183.000000
 20
129.834619
 11
183.000000
 21
137.954051
  0
LINE
  8
1
 62
7
  6
CONTINUOUS
 10
184.000000
 20
123.834553
 11
184.000000
 21
136.517597
  0
LINE
  8
1
 62
7
  6
CONTINUOUS
 10
185.000000
 20
123.834553
 11
185.000000
 21
135.081144
  0
LINE
  8
1
 62
7
  6
CONTINUOUS
 10
186.000000
 20
123.834553
 11
186.000000
 21
133.644690
  0
LINE
  8
1
 62
7
  6
CONTINUOUS
 10
187.000000
 20
123.834553
 11
187.000000
 21
132.208237
  0
LINE
  8
1
 62
7
  6
CONTINUOUS
 10
188.000000
 20
123.834553
 11
188.000000
 21
130.771783
  0
LINE
  8
1
 62
7
  6
CONTINUOUS
 10
189.000000
 20
123.834553
 11
189.000000
 21
129.335330
  0
LINE
  8
1
 62
7
  6
CONTINUOUS
 10
190.000000
 20
123.834553
 11
190.000000
 21
127.898876
  0
LINE
  8
1
 62
7
  6
CONTINUOUS
 10
191.000000
 20
162.462420
 11
191.000000
 21
165.834553
  0
LINE
  8
1
 62
7
  6
CONTINUOUS
 10
192.000000
 20
161.025956
 11
192.000000
 21
165.834553
  0
LINE
  8
1
 62
7
  6
CONTINUOUS
 10
193.000000
 20
159.589492
 11
193.000000
 21
165.834553
  0
LINE
  8
1
 62
7
  6
CONTINUOUS
 10
194.000000
 20
158.153028
 11
194.000000
 21
165.834553
  0
LINE
  8
1
 62
7
  6
CONTINUOUS
 10
195.000000
 20
156.716564
 11
195.000000
 21
165.834553
  0
LINE
  8
1
 62
7
  6
CONTINUOUS
 10
196.000000
 20
155.280100
 11
196.000000
 21
165.834553
  0
LINE
  8
1
 62
7
  6
CONTINUOUS
 10
197.000000
 20
153.843636
 11
197.000000
 21
165.834553
  0
LINE
  8
1
 62
7
  6
CONTINUOUS
 10
198.000000
 20
152.407172
 11
198.000000
 21
159.834553
  0
LINE
  8
1
 62
7
  6
CONTINUOUS
 10
199.000000
 20
150.970707
 11
199.000000
 21
159.834553
  0
CIRCLE
  8
1
 62
7
  6
DIVIDE
 10
51.509846
 20
144.834553
 40
0.500000
  0
CIRCLE
  8
1
 62
7
  6
DIVIDE
 10
51.509846
 20
144.834553
 40
0.250000
  0
LINE
  8
1
 62
7
  6
CONTINUOUS
 10
159.442342
 20
44.078331
 11
97.236959
 21
44.078331
  0
LINE
  8
1
 62
7
  6
CONTINUOUS
 10
146.846569
 20
49.432817
 11
93.012842
 21
49.432817
  0
LINE
  8
1
 62
7
  6
CONTINUOUS
 10
34.417977
 20
37.579600
 11
85.843162
 21
37.579600
  0
LINE
  8
1
 62
7
  6
HIDDEN
 10
44.259846
 20
118.984553
 11
44.259846
 21
118.334553
  0
LINE
  8
1
 62
7
  6
HIDDEN
 10
58.759846
 20
118.984553
 11
58.759846
 21
118.334553
  0
LINE
  8
1
 62
7
  6
HIDDEN
 10
43.609846
 20
116.984553
 11
44.259846
 21
118.334553
  0
LINE
  8
1
 62
7
  6
HIDDEN
 10
46.159846
 20
103.869195
 11
46.159846
 21
116.384553
  0
LINE
  8
1
 62
7
  6
HIDDEN
 10
43.609846
 20
116.984553
 11
43.609846
 21
116.384553
  0
LINE
  8
1
 62
7
  6
HIDDEN
 10
44.859846
 20
103.869195
 11
44.859846
 21
116.384553
  0
LINE
  8
1
 62
7
  6
HIDDEN
 10
51.509846
 20
116.384553
 11
43.609846
 21
116.384553
  0
LINE
  8
1
 62
7
  6
HIDDEN
 10
56.859846
 20
116.384553
 11
56.859846
 21
103.869195
  0
LINE
  8
1
 62
7
  6
HIDDEN
 10
59.409846
 20
116.384553
 11
59.409846
 21
116.984553
  0
LINE
  8
1
 62
7
  6
HIDDEN
 10
58.759846
 20
118.334553
 11
59.409846
 21
116.984553
  0
LINE
  8
1
 62
7
  6
HIDDEN
 10
48.859846
 20
103.869195
 11
48.859846
 21
116.384553
  0
LINE
  8
1
 62
7
  6
HIDDEN
 10
58.159846
 20
116.384553
 11
58.159846
 21
103.869195
  0
LINE
  8
1
 62
7
  6
HIDDEN
 10
50.159846
 20
103.869195
 11
50.159846
 21
116.384553
  0
LINE
  8
1
 62
7
  6
HIDDEN
 10
59.409846
 20
116.384553
 11
51.509846
 21
116.384553
  0
LINE
  8
1
 62
7
  6
CONTINUOUS
 10
197.790938
 20
129.834553
 11
183.690938
 21
129.834653
  0
LINE
  8
1
 62
7
  6
CONTINUOUS
 10
183.690938
 20
159.834553
 11
197.790938
 21
159.834553
  0
LINE
  8
1
 62
7
  6
CONTINUOUS
 10
204.590927
 20
119.984553
 11
204.590927
 21
118.984553
  0
LINE
  8
1
 62
7
  6
CONTINUOUS
 10
206.190927
 20
118.984553
 11
206.190927
 21
119.984553
  0
LINE
  8
1
 62
7
  6
CONTINUOUS
 10
199.707615
 20
118.984553
 11
206.190927
 21
118.984553
  0
LINE
  8
1
 62
7
  6
CONTINUOUS
 10
199.707615
 20
123.834553
 11
199.707615
 21
118.984553
  0
LINE
  8
1
 62
7
  6
CONTINUOUS
 10
28.876840
 20
53.958211
 11
25.376840
 21
53.958211
  0
LINE
  8
1
 62
7
  6
CONTINUOUS
 10
28.876840
 20
54.268211
 11
25.376840
 21
54.268211
  0
LINE
  8
1
 62
7
  6
CONTINUOUS
 10
28.876840
 20
54.578211
 11
25.376840
 21
54.578211
  0
LINE
  8
1
 62
7
  6
CONTINUOUS
 10
28.876840
 20
61.958211
 11
25.376840
 21
61.958211
  0
LINE
  8
1
 62
7
  6
CONTINUOUS
 10
28.876840
 20
62.268211
 11
25.376840
 21
62.268211
  0
LINE
  8
1
 62
7
  6
CONTINUOUS
 10
28.876840
 20
62.578211
 11
25.376840
 21
62.578211
  0
LINE
  8
1
 62
7
  6
CONTINUOUS
 10
28.876840
 20
65.958211
 11
25.376840
 21
65.958211
  0
LINE
  8
1
 62
7
  6
CONTINUOUS
 10
28.876840
 20
66.268211
 11
25.376840
 21
66.268211
  0
LINE
  8
1
 62
7
  6
CONTINUOUS
 10
28.876840
 20
66.578211
 11
25.376840
 21
66.578211
  0
LINE
  8
1
 62
7
  6
CONTINUOUS
 10
28.876840
 20
61.958211
 11
25.376840
 21
61.958211
  0
LINE
  8
1
 62
7
  6
CONTINUOUS
 10
28.876840
 20
62.268211
 11
25.376840
 21
62.268211
  0
LINE
  8
1
 62
7
  6
CONTINUOUS
 10
28.876840
 20
62.578211
 11
25.376840
 21
62.578211
  0
LINE
  8
1
 62
7
  6
CONTINUOUS
 10
28.876840
 20
65.958211
 11
25.376840
 21
65.958211
  0
LINE
  8
1
 62
7
  6
CONTINUOUS
 10
28.876840
 20
66.268211
 11
25.376840
 21
66.268211
  0
LINE
  8
1
 62
7
  6
CONTINUOUS
 10
28.876840
 20
66.578211
 11
25.376840
 21
66.578211
  0
LINE
  8
1
 62
7
  6
CONTINUOUS
 10
28.876840
 20
54.888211
 11
28.876840
 21
53.648211
  0
LINE
  8
1
 62
7
  6
CONTINUOUS
 10
28.876840
 20
62.888211
 11
28.876840
 21
61.648211
  0
LINE
  8
1
 62
7
  6
CONTINUOUS
 10
28.876840
 20
66.888211
 11
28.876840
 21
65.648211
  0
LINE
  8
1
 62
7
  6
CONTINUOUS
 10
28.876840
 20
62.888211
 11
28.876840
 21
61.648211
  0
LINE
  8
1
 62
7
  6
CONTINUOUS
 10
28.876840
 20
66.888211
 11
28.876840
 21
65.648211
  0
LINE
  8
1
 62
7
  6
CONTINUOUS
 10
86.994905
 20
67.468211
 11
92.144905
 21
67.468211
  0
LINE
  8
1
 62
7
  6
CONTINUOUS
 10
92.144905
 20
67.468211
 11
92.144905
 21
53.068211
  0
LINE
  8
1
 62
7
  6
CONTINUOUS
 10
92.144905
 20
53.068211
 11
86.994905
 21
53.068211
  0
LINE
  8
1
 62
7
  6
CONTINUOUS
 10
86.994905
 20
53.068211
 11
85.794905
 21
52.318211
  0
LINE
  8
1
 62
7
  6
CONTINUOUS
 10
86.994905
 20
67.468211
 11
85.794905
 21
68.218211
  0
LINE
  8
1
 62
7
  6
CONTINUOUS
 10
85.794905
 20
68.218211
 11
85.794905
 21
52.318211
  0
LINE
  8
1
 62
7
  6
CONTINUOUS
 10
85.794905
 20
55.668211
 11
85.294905
 21
55.668211
  0
LINE
  8
1
 62
7
  6
CONTINUOUS
 10
85.294905
 20
55.668211
 11
85.294905
 21
54.868211
  0
LINE
  8
1
 62
7
  6
CONTINUOUS
 10
85.294905
 20
54.868211
 11
85.794905
 21
54.868211
  0
LINE
  8
1
 62
7
  6
CONTINUOUS
 10
85.794905
 20
57.668211
 11
85.294905
 21
57.668211
  0
LINE
  8
1
 62
7
  6
CONTINUOUS
 10
85.294905
 20
57.668211
 11
85.294905
 21
56.868211
  0
LINE
  8
1
 62
7
  6
CONTINUOUS
 10
85.294905
 20
56.868211
 11
85.794905
 21
56.868211
  0
LINE
  8
1
 62
7
  6
CONTINUOUS
 10
85.794905
 20
59.668211
 11
85.294905
 21
59.668211
  0
LINE
  8
1
 62
7
  6
CONTINUOUS
 10
85.294905
 20
59.668211
 11
85.294905
 21
58.868211
  0
LINE
  8
1
 62
7
  6
CONTINUOUS
 10
85.294905
 20
58.868211
 11
85.794905
 21
58.868211
  0
LINE
  8
1
 62
7
  6
CONTINUOUS
 10
85.794905
 20
61.668211
 11
85.294905
 21
61.668211
  0
LINE
  8
1
 62
7
  6
CONTINUOUS
 10
85.294905
 20
61.668211
 11
85.294905
 21
60.868211
  0
LINE
  8
1
 62
7
  6
CONTINUOUS
 10
85.294905
 20
60.868211
 11
85.794905
 21
60.868211
  0
LINE
  8
1
 62
7
  6
CONTINUOUS
 10
85.794905
 20
63.668211
 11
85.294905
 21
63.668211
  0
LINE
  8
1
 62
7
  6
CONTINUOUS
 10
85.294905
 20
63.668211
 11
85.294905
 21
62.868211
  0
LINE
  8
1
 62
7
  6
CONTINUOUS
 10
85.294905
 20
62.868211
 11
85.794905
 21
62.868211
  0
LINE
  8
1
 62
7
  6
CONTINUOUS
 10
85.794905
 20
65.668211
 11
85.294905
 21
65.668211
  0
LINE
  8
1
 62
7
  6
CONTINUOUS
 10
85.294905
 20
65.668211
 11
85.294905
 21
64.868211
  0
LINE
  8
1
 62
7
  6
CONTINUOUS
 10
85.294905
 20
64.868211
 11
85.794905
 21
64.868211
  0
LINE
  8
1
 62
7
  6
CONTINUOUS
 10
85.294905
 20
67.668211
 11
85.294905
 21
66.868211
  0
LINE
  8
1
 62
7
  6
CONTINUOUS
 10
85.294905
 20
66.868211
 11
85.794905
 21
66.868211
  0
LINE
  8
1
 62
7
  6
CONTINUOUS
 10
85.794905
 20
61.668211
 11
85.294905
 21
61.668211
  0
LINE
  8
1
 62
7
  6
CONTINUOUS
 10
85.294905
 20
61.668211
 11
85.294905
 21
60.868211
  0
LINE
  8
1
 62
7
  6
CONTINUOUS
 10
85.294905
 20
60.868211
 11
85.794905
 21
60.868211
  0
LINE
  8
1
 62
7
  6
CONTINUOUS
 10
85.794905
 20
63.668211
 11
85.294905
 21
63.668211
  0
LINE
  8
1
 62
7
  6
CONTINUOUS
 10
85.294905
 20
63.668211
 11
85.294905
 21
62.868211
  0
LINE
  8
1
 62
7
  6
CONTINUOUS
 10
85.294905
 20
62.868211
 11
85.794905
 21
62.868211
  0
LINE
  8
1
 62
7
  6
CONTINUOUS
 10
85.794905
 20
65.668211
 11
85.294905
 21
65.668211
  0
LINE
  8
1
 62
7
  6
CONTINUOUS
 10
85.294905
 20
65.668211
 11
85.294905
 21
64.868211
  0
LINE
  8
1
 62
7
  6
CONTINUOUS
 10
85.294905
 20
64.868211
 11
85.794905
 21
64.868211
  0
LINE
  8
1
 62
7
  6
CONTINUOUS
 10
85.294905
 20
66.868211
 11
85.294905
 21
68.218211
  0
LINE
  8
1
 62
7
  6
CONTINUOUS
 10
85.294905
 20
68.218211
 11
85.794905
 21
68.218211
  0
LINE
  8
1
 62
7
  6
CONTINUOUS
 10
85.794905
 20
52.318211
 11
85.294905
 21
52.318211
  0
LINE
  8
1
 62
7
  6
CONTINUOUS
 10
85.294905
 20
52.318211
 11
85.294905
 21
53.668211
  0
LINE
  8
1
 62
7
  6
CONTINUOUS
 10
85.794905
 20
64.868211
 11
92.144905
 21
64.868211
  0
LINE
  8
1
 62
7
  6
CONTINUOUS
 10
92.144905
 20
63.868211
 11
86.494905
 21
63.868211
  0
LINE
  8
1
 62
7
  6
CONTINUOUS
 10
86.494905
 20
63.868211
 11
86.494905
 21
56.668211
  0
LINE
  8
1
 62
7
  6
CONTINUOUS
 10
86.494905
 20
56.668211
 11
92.144905
 21
56.668211
  0
LINE
  8
1
 62
7
  6
CONTINUOUS
 10
85.794905
 20
55.668211
 11
92.144905
 21
55.668211
  0
LINE
  8
1
 62
7
  6
CONTINUOUS
 10
87.994905
 20
63.868211
 11
87.994905
 21
56.668211
  0
LINE
  8
1
 62
7
  6
CONTINUOUS
 10
85.294905
 20
66.868211
 11
85.794905
 21
66.868211
  0
LINE
  8
1
 62
7
  6
CONTINUOUS
 10
85.294905
 20
53.668211
 11
85.794905
 21
53.668211
  0
LINE
  8
1
 62
7
  6
CONTINUOUS
 10
85.294905
 20
66.888211
 11
55.017905
 21
66.888211
  0
LINE
  8
1
 62
7
  6
CONTINUOUS
 10
85.294905
 20
62.888211
 11
55.017905
 21
62.888211
  0
LINE
  8
1
 62
7
  6
CONTINUOUS
 10
85.294905
 20
66.888211
 11
55.017905
 21
66.888211
  0
LINE
  8
1
 62
7
  6
CONTINUOUS
 10
85.294905
 20
62.888211
 11
55.017905
 21
62.888211
  0
LINE
  8
1
 62
7
  6
CONTINUOUS
 10
54.017905
 20
67.888211
 11
54.017905
 21
52.648211
  0
LINE
  8
1
 62
7
  6
CONTINUOUS
 10
55.017905
 20
67.888211
 11
55.017905
 21
52.648211
  0
LINE
  8
1
 62
7
  6
CONTINUOUS
 10
54.017905
 20
53.648211
 11
28.876840
 21
53.648211
  0
LINE
  8
1
 62
7
  6
CONTINUOUS
 10
54.017905
 20
54.888211
 11
28.876840
 21
54.888211
  0
LINE
  8
1
 62
7
  6
CONTINUOUS
 10
54.017905
 20
61.648211
 11
28.876840
 21
61.648211
  0
LINE
  8
1
 62
7
  6
CONTINUOUS
 10
54.017905
 20
62.888211
 11
28.876840
 21
62.888211
  0
LINE
  8
1
 62
7
  6
CONTINUOUS
 10
54.017905
 20
65.648211
 11
28.876840
 21
65.648211
  0
LINE
  8
1
 62
7
  6
CONTINUOUS
 10
54.017905
 20
66.888211
 11
28.876840
 21
66.888211
  0
LINE
  8
1
 62
7
  6
CONTINUOUS
 10
54.017905
 20
61.648211
 11
28.876840
 21
61.648211
  0
LINE
  8
1
 62
7
  6
CONTINUOUS
 10
54.017905
 20
62.888211
 11
28.876840
 21
62.888211
  0
LINE
  8
1
 62
7
  6
CONTINUOUS
 10
54.017905
 20
65.648211
 11
28.876840
 21
65.648211
  0
LINE
  8
1
 62
7
  6
CONTINUOUS
 10
54.017905
 20
66.888211
 11
28.876840
 21
66.888211
  0
LINE
  8
1
 62
7
  6
CONTINUOUS
 10
55.017905
 20
65.648211
 11
85.294905
 21
65.648211
  0
LINE
  8
1
 62
7
  6
CONTINUOUS
 10
55.017905
 20
61.648211
 11
85.294905
 21
61.648211
  0
LINE
  8
1
 62
7
  6
CONTINUOUS
 10
55.017905
 20
65.648211
 11
85.294905
 21
65.648211
  0
LINE
  8
1
 62
7
  6
CONTINUOUS
 10
55.017905
 20
61.648211
 11
85.294905
 21
61.648211
  0
LINE
  8
1
 62
7
  6
CONTINUOUS
 10
55.017905
 20
54.888211
 11
85.294905
 21
54.888211
  0
LINE
  8
1
 62
7
  6
CONTINUOUS
 10
55.017905
 20
53.648211
 11
85.294905
 21
53.648211
  0
LINE
  8
1
 62
7
  6
CONTINUOUS
 10
62.068136
 20
119.984553
 11
59.509846
 21
119.984553
  0
LINE
  8
1
 62
7
  6
CONTINUOUS
 10
199.790938
 20
119.984553
 11
210.490929
 21
119.984553
  0
LINE
  8
1
 62
7
  6
CONTINUOUS
 10
199.790938
 20
123.834553
 11
199.790938
 21
119.984553
  0
LINE
  8
1
 62
7
  6
CONTINUOUS
 10
172.290925
 20
123.834553
 11
199.790938
 21
123.834553
  0
LINE
  8
1
 62
7
  6
CONTINUOUS
 10
211.490943
 20
164.834553
 11
211.490928
 21
120.984538
  0
LINE
  8
1
 62
7
  6
CONTINUOUS
 10
210.490943
 20
165.834553
 11
172.290925
 21
165.834553
  0
LINE
  8
1
 62
7
  6
CONTINUOUS
 10
171.790925
 20
134.834553
 11
171.790925
 21
124.527353
  0
LINE
  8
1
 62
7
  6
CONTINUOUS
 10
171.790925
 20
134.834553
 11
172.290925
 21
134.834553
  0
LINE
  8
1
 62
7
  6
CONTINUOUS
 10
171.790925
 20
154.834553
 11
171.790925
 21
165.141753
  0
LINE
  8
1
 62
7
  6
CONTINUOUS
 10
171.790925
 20
154.834553
 11
172.290925
 21
154.834553
  0
LINE
  8
1
 62
7
  6
CONTINUOUS
 10
197.790938
 20
129.834553
 11
197.790938
 21
123.834553
  0
LINE
  8
1
 62
7
  6
CONTINUOUS
 10
199.790938
 20
129.834553
 11
197.790938
 21
129.834553
  0
LINE
  8
1
 62
7
  6
CONTINUOUS
 10
199.790938
 20
159.834553
 11
199.790938
 21
129.834553
  0
LINE
  8
1
 62
7
  6
CONTINUOUS
 10
183.690938
 20
129.834653
 11
183.690838
 21
123.834553
  0
LINE
  8
1
 62
7
  6
CONTINUOUS
 10
181.690838
 20
129.834553
 11
183.690938
 21
129.834653
  0
LINE
  8
1
 62
7
  6
CONTINUOUS
 10
181.690938
 20
159.834553
 11
181.690838
 21
129.834553
  0
LINE
  8
1
 62
7
  6
CONTINUOUS
 10
197.790938
 20
159.834553
 11
199.790938
 21
159.834553
  0
LINE
  8
1
 62
7
  6
CONTINUOUS
 10
197.790938
 20
159.834553
 11
197.790938
 21
165.834553
  0
LINE
  8
1
 62
7
  6
CONTINUOUS
 10
181.690938
 20
159.834553
 11
183.690938
 21
159.834553
  0
LINE
  8
1
 62
7
  6
CONTINUOUS
 10
183.690938
 20
159.834553
 11
183.690938
 21
165.834553
  0
LINE
  8
1
 62
7
  6
CONTINUOUS
 10
172.290925
 20
165.834553
 11
172.290925
 21
123.834553
  0
LINE
  8
1
 62
7
  6
CONTINUOUS
 10
169.790829
 20
133.834553
 11
169.790929
 21
155.834553
  0
LINE
  8
1
 62
7
  6
CONTINUOUS
 10
169.790829
 20
133.834553
 11
171.790925
 21
133.834553
  0
LINE
  8
1
 62
7
  6
CONTINUOUS
 10
169.790929
 20
155.834553
 11
171.790925
 21
155.834553
  0
LINE
  8
1
 62
7
  6
CONTINUOUS
 10
172.290925
 20
123.834553
 11
171.790925
 21
124.527353
  0
LINE
  8
1
 62
7
  6
CONTINUOUS
 10
30.509836
 20
127.863953
 11
30.509846
 21
161.805153
  0
LINE
  8
1
 62
7
  6
CONTINUOUS
 10
68.480346
 20
123.834553
 11
34.539276
 21
123.834553
  0
LINE
  8
1
 62
7
  6
CONTINUOUS
 10
72.509846
 20
127.863953
 11
72.509846
 21
161.805153
  0
LINE
  8
1
 62
7
  6
CONTINUOUS
 10
68.480446
 20
165.834553
 11
34.539296
 21
165.834553
  0
LINE
  8
1
 62
7
  6
CONTINUOUS
 10
72.509846
 20
134.834553
 11
66.509852
 21
134.834553
  0
LINE
  8
1
 62
7
  6
CONTINUOUS
 10
61.509846
 20
123.834553
 11
61.509846
 21
129.834566
  0
LINE
  8
1
 62
7
  6
CONTINUOUS
 10
41.509836
 20
123.834553
 11
41.509836
 21
129.834553
  0
LINE
  8
1
 62
7
  6
CONTINUOUS
 10
30.509836
 20
134.834553
 11
36.509842
 21
134.834553
  0
LINE
  8
1
 62
7
  6
CONTINUOUS
 10
30.509846
 20
154.834553
 11
36.509852
 21
154.834553
  0
LINE
  8
1
 62
7
  6
CONTINUOUS
 10
41.509846
 20
165.834553
 11
41.509846
 21
159.834553
  0
LINE
  8
1
 62
7
  6
CONTINUOUS
 10
61.509846
 20
165.834553
 11
61.509846
 21
159.834566
  0
LINE
  8
1
 62
7
  6
CONTINUOUS
 10
72.509846
 20
154.834553
 11
66.509852
 21
154.834553
  0
LINE
  8
1
 62
7
  6
CONTINUOUS
 10
182.240938
 20
166.834553
 11
199.649838
 21
166.834553
  0
LINE
  8
1
 62
7
  6
CONTINUOUS
 10
172.290925
 20
165.834553
 11
171.790925
 21
165.141753
  0
LINE
  8
2
 62
134
  6
CONTINUOUS
 10
64.509846
 20
129.334553
 11
69.509846
 21
129.334553
  0
LINE
  8
2
 62
134
  6
CONTINUOUS
 10
67.009846
 20
131.834553
 11
67.009846
 21
126.834553
  0
LINE
  8
2
 62
134
  6
CONTINUOUS
 10
36.009836
 20
131.834553
 11
36.009836
 21
126.834553
  0
LINE
  8
2
 62
134
  6
CONTINUOUS
 10
38.509846
 20
129.334553
 11
33.509846
 21
129.334553
  0
LINE
  8
2
 62
134
  6
CONTINUOUS
 10
38.509846
 20
160.334553
 11
33.509846
 21
160.334553
  0
LINE
  8
2
 62
134
  6
CONTINUOUS
 10
36.009856
 20
157.834553
 11
36.009856
 21
162.834553
  0
LINE
  8
2
 62
134
  6
CONTINUOUS
 10
67.009846
 20
157.834553
 11
67.009846
 21
162.834553
  0
LINE
  8
2
 62
134
  6
CONTINUOUS
 10
64.509846
 20
160.334553
 11
69.509846
 21
160.334553
  0
LINE
  8
2
 62
134
  6
CONTINUOUS
 10
24.588366
 20
144.834553
 11
78.009346
 21
144.834553
  0
LINE
  8
2
 62
134
  6
CONTINUOUS
 10
51.509846
 20
117.276809
 11
51.509846
 21
169.834553
  0
LINE
  8
1
 62
7
  6
CONTINUOUS
 10
169.790890
 20
147.334553
 11
147.790925
 21
147.334553
  0
LINE
  8
1
 62
7
  6
CONTINUOUS
 10
147.790925
 20
147.334553
 11
147.790925
 21
142.334553
  0
LINE
  8
1
 62
7
  6
CONTINUOUS
 10
147.790925
 20
142.334553
 11
169.790868
 21
142.334553
  0
LINE
  8
1
 62
7
  6
CONTINUOUS
 10
43.509846
 20
123.834553
 11
43.509846
 21
118.984553
  0
LINE
  8
1
 62
7
  6
CONTINUOUS
 10
59.509846
 20
123.834553
 11
59.509846
 21
118.984553
  0
LINE
  8
1
 62
7
  6
CONTINUOUS
 10
43.509846
 20
119.984553
 11
40.951555
 21
119.984553
  0
LINE
  8
1
 62
7
  6
CONTINUOUS
 10
43.509846
 20
118.984553
 11
59.509846
 21
118.984553
  0
LINE
  8
1
 62
7
  6
CONTINUOUS
 10
46.509846
 20
123.224553
 11
56.509846
 21
123.224553
  0
LINE
  8
1
 62
7
  6
CONTINUOUS
 10
56.509846
 20
123.224553
 11
56.509846
 21
118.984553
  0
LINE
  8
1
 62
7
  6
CONTINUOUS
 10
46.509846
 20
123.224553
 11
46.509846
 21
118.984553
  0
LINE
  8
1
 62
7
  6
CONTINUOUS
 10
58.009846
 20
123.834553
 11
58.009846
 21
120.984553
  0
LINE
  8
1
 62
7
  6
CONTINUOUS
 10
58.009846
 20
120.984553
 11
58.809846
 21
120.984553
  0
LINE
  8
1
 62
7
  6
CONTINUOUS
 10
58.809846
 20
120.984553
 11
58.809846
 21
123.834553
  0
LINE
  8
1
 62
7
  6
CONTINUOUS
 10
44.209846
 20
123.834553
 11
44.209846
 21
120.984553
  0
LINE
  8
1
 62
7
  6
CONTINUOUS
 10
44.209846
 20
120.984553
 11
45.009846
 21
120.984553
  0
LINE
  8
1
 62
7
  6
CONTINUOUS
 10
45.009846
 20
120.984553
 11
45.009846
 21
123.834553
  0
LINE
  8
2
 62
134
  6
CONTINUOUS
 10
216.794046
 20
144.834553
 11
135.559738
 21
144.834553
  0
ARC
  8
1
 62
7
  6
CONTINUOUS
 10
51.509846
 20
144.834553
 40
27.000000
 50
-66.980288
 51
-38.433206
  0
ARC
  8
1
 62
7
  6
CONTINUOUS
 10
51.509846
 20
144.834553
 40
27.000000
 50
-141.566794
 51
-113.019712
  0
ARC
  8
1
 62
7
  6
CONTINUOUS
 10
210.490943
 20
120.984538
 40
0.999985
 50
-90.000802
 51
0.000000
  0
ARC
  8
1
 62
7
  6
CONTINUOUS
 10
210.490943
 20
164.834553
 40
1.000000
 50
0.000000
 51
90.000000
  0
ARC
  8
1
 62
7
  6
CONTINUOUS
 10
51.509846
 20
144.834553
 40
26.999961
 50
-51.057662
 51
-38.942503
  0
ARC
  8
1
 62
7
  6
CONTINUOUS
 10
66.509846
 20
129.834553
 40
5.000000
 50
89.999931
 51
179.999851
  0
ARC
  8
1
 62
7
  6
CONTINUOUS
 10
51.509846
 20
144.834553
 40
27.000031
 50
-141.057511
 51
-128.942453
  0
ARC
  8
1
 62
7
  6
CONTINUOUS
 10
36.509836
 20
129.834553
 40
5.000000
 50
0.000000
 51
89.999931
  0
ARC
  8
1
 62
7
  6
CONTINUOUS
 10
51.509846
 20
144.834553
 40
26.999992
 50
128.942420
 51
141.057497
  0
ARC
  8
1
 62
7
  6
CONTINUOUS
 10
36.509846
 20
159.834553
 40
5.000000
 50
-89.999931
 51
-0.000000
  0
ARC
  8
1
 62
7
  6
CONTINUOUS
 10
51.509846
 20
144.834553
 40
27.000023
 50
38.942503
 51
51.057497
  0
ARC
  8
1
 62
7
  6
CONTINUOUS
 10
66.509846
 20
159.834553
 40
5.000000
 50
179.999851
 51
-89.999931
  0
CIRCLE
  8
1
 62
7
  6
CONTINUOUS
 10
51.509846
 20
144.834553
 40
4.500000
  0
CIRCLE
  8
1
 62
7
  6
CONTINUOUS
 10
51.509846
 20
144.834553
 40
11.000000
  0
CIRCLE
  8
1
 62
7
  6
CONTINUOUS
 10
67.009846
 20
129.334553
 40
1.500000
  0
CIRCLE
  8
1
 62
7
  6
CONTINUOUS
 10
36.009836
 20
129.334553
 40
1.500000
  0
CIRCLE
  8
1
 62
7
  6
CONTINUOUS
 10
36.009846
 20
160.334553
 40
1.500000
  0
CIRCLE
  8
1
 62
7
  6
CONTINUOUS
 10
67.009846
 20
160.334553
 40
1.500000
  0
CIRCLE
  8
4
 62
54
  6
CONTINUOUS
 10
67.009846
 20
129.334553
 40
1.000000
  0
CIRCLE
  8
4
 62
54
  6
CONTINUOUS
 10
36.009836
 20
129.334553
 40
1.000010
  0
CIRCLE
  8
4
 62
54
  6
CONTINUOUS
 10
67.009846
 20
160.334553
 40
1.000000
  0
CIRCLE
  8
4
 62
54
  6
CONTINUOUS
 10
36.009846
 20
160.334553
 40
1.000010
  0
CIRCLE
  8
1
 62
7
  6
CONTINUOUS
 10
51.509846
 20
144.834553
 40
2.500000
  0
LINE
  8
1
 62
7
  6
CONTINUOUS
 10
97.236959
 20
44.078331
 11
90.144905
 21
53.068211
  0
LINE
  8
1
 62
7
  6
CONTINUOUS
 10
92.457623
 20
50.816807
 11
91.796112
 21
50.294947
  0
LINE
  8
1
 62
7
  6
CONTINUOUS
 10
91.796112
 20
50.294947
 11
90.144905
 21
53.068211
  0
LINE
  8
1
 62
7
  6
CONTINUOUS
 10
90.144905
 20
53.068211
 11
92.457623
 21
50.816807
  0
LINE
  8
1
 62
7
  6
CONTINUOUS
 10
112.289764
 20
186.824197
 11
152.400611
 21
186.824197
  0
LINE
  8
1
 62
7
  6
CONTINUOUS
 10
152.400611
 20
186.824197
 11
183.882962
 21
166.834553
  0
LINE
  8
1
 62
7
  6
CONTINUOUS
 10
180.955693
 20
168.194179
 11
181.407334
 21
168.905484
  0
LINE
  8
1
 62
7
  6
CONTINUOUS
 10
181.407334
 20
168.905484
 11
183.882962
 21
166.834553
  0
LINE
  8
1
 62
7
  6
CONTINUOUS
 10
183.882962
 20
166.834553
 11
180.955693
 21
168.194179
  0
LINE
  8
1
 62
7
  6
CONTINUOUS
 10
31.048018
 20
203.038745
 11
97.590366
 21
203.038745
  0
LINE
  8
1
 62
7
  6
CONTINUOUS
 10
97.590366
 20
203.038745
 11
67.990358
 21
161.469717
  0
LINE
  8
1
 62
7
  6
CONTINUOUS
 10
69.503316
 20
164.320759
 11
70.189667
 21
163.832030
  0
LINE
  8
1
 62
7
  6
CONTINUOUS
 10
70.189667
 20
163.832030
 11
67.990358
 21
161.469717
  0
LINE
  8
1
 62
7
  6
CONTINUOUS
 10
67.990358
 20
161.469717
 11
69.503316
 21
164.320759
  0
TEXT
  8
1
 62
7
  6
CONTINUOUS
 10
102.610000
 20
50.563526
 40
3.000000
 41
0.630000
  1
ＨＯＵＳＩＮＧ：ＰＨＲー７（ＪＳＴ）
  7
KANJI
 50
0.000000
 51
0.000000
  0
TEXT
  8
1
 62
7
  6
CONTINUOUS
 10
102.610000
 20
45.313526
 40
3.000000
 41
0.630000
  1
ＣＯＮＴＡＣＴ：ＳＰＨー００２ＴーＰ０．５Ｓ（ＪＳＴ）
  7
KANJI
 50
0.000000
 51
0.000000
  0
TEXT
  8
1
 62
7
  6
CONTINUOUS
 10
199.275798
 20
173.366344
 40
2.500000
 41
0.720000
  1
DIRECTION
  7
KANJI
 50
90.000000
 51
0.000000
  0
TEXT
  8
1
 62
7
  6
CONTINUOUS
 10
203.025798
 20
173.366344
 40
2.500000
 41
0.720000
  1
OF LETTER
  7
KANJI
 50
90.000000
 51
0.000000
  0
TEXT
  8
1
 62
7
  6
CONTINUOUS
 10
202.400798
 20
169.302498
 40
5.000000
 41
0.900000
  1
(
  7
KANJI
 50
90.000000
 51
0.000000
  0
TEXT
  8
1
 62
7
  6
CONTINUOUS
 10
202.400798
 20
191.340511
 40
5.000000
 41
0.900000
  1
)
  7
KANJI
 50
90.000000
 51
0.000000
  0
TEXT
  8
1
 62
7
  6
CONTINUOUS
 10
117.099173
 20
187.976987
 40
3.200000
 41
0.900000
  1
ネームプレート
  7
KANJI
 50
0.000000
 51
0.000000
  0
TEXT
  8
1
 62
7
  6
CONTINUOUS
 10
114.444895
 20
181.908346
 40
3.000000
 41
0.720000
  1
(NAME PLATE)
  7
KANJI
 50
0.000000
 51
0.000000
  0
TEXT
  8
1
 62
7
  6
CONTINUOUS
 10
56.481609
 20
99.387199
 40
2.500000
 41
0.900000
  1
7
  7
KANJI
 50
0.000000
 51
0.000000
  0
TEXT
  8
1
 62
7
  6
CONTINUOUS
 10
48.478598
 20
99.387199
 40
2.500000
 41
0.900000
  1
3
  7
KANJI
 50
0.000000
 51
0.000000
  0
TEXT
  8
1
 62
7
  6
CONTINUOUS
 10
44.057257
 20
99.387199
 40
2.500000
 41
0.900000
  1
1
  7
KANJI
 50
0.000000
 51
0.000000
  0
TEXT
  8
1
 62
7
  6
CONTINUOUS
 10
23.684048
 20
99.387199
 40
3.000000
 41
0.720000
  1
PIN NO.
  7
KANJI
 50
0.000000
 51
0.000000
  0
TEXT
  8
1
 62
7
  6
CONTINUOUS
 10
93.399115
 20
52.513898
 40
2.500000
 41
0.900000
  1
7
  7
KANJI
 50
0.000000
 51
0.000000
  0
TEXT
  8
1
 62
7
  6
CONTINUOUS
 10
93.399115
 20
61.082273
 40
2.500000
 41
0.900000
  1
3
  7
KANJI
 50
0.000000
 51
0.000000
  0
TEXT
  8
1
 62
7
  6
CONTINUOUS
 10
93.149115
 20
65.015812
 40
2.500000
 41
0.900000
  1
1
  7
KANJI
 50
0.000000
 51
0.000000
  0
TEXT
  8
1
 62
7
  6
CONTINUOUS
 10
91.171530
 20
71.861301
 40
3.000000
 41
0.720000
  1
PIN NO.
  7
KANJI
 50
0.000000
 51
0.000000
  0
TEXT
  8
1
 62
7
  6
CONTINUOUS
 10
34.143218
 20
31.508594
 40
4.000000
 41
0.450000
  1
ＡＴＴＡＣＨＭＥＮＴ：ＣＯＮＮＥＣＴＯＲ　ＬＥＡＤ
  7
KANJI
 50
0.000000
 51
0.000000
  0
TEXT
  8
1
 62
7
  6
CONTINUOUS
 10
34.536980
 20
40.145098
 40
4.000000
 41
0.900000
  1
付属品：コネクターリード
  7
KANJI
 50
0.000000
 51
0.000000
  0
TEXT
  8
1
 62
7
  6
CONTINUOUS
 10
34.801568
 20
204.419136
 40
3.200000
 41
0.630000
  1
4-M3×0.5 深サ(DEPTH)　4.5MIN
  7
KANJI
 50
0.000000
 51
0.000000
  0
LINE
  8
1
 62
7
  6
CONTINUOUS
 10
25.376840
 20
81.888211
 11
85.294905
 21
81.888211
  0
LINE
  8
1
 62
7
  6
CONTINUOUS
 10
85.294905
 20
69.218211
 11
85.294905
 21
82.888211
  0
LINE
  8
1
 62
7
  6
CONTINUOUS
 10
25.376840
 20
67.578211
 11
25.376840
 21
82.888211
  0
LINE
  8
1
 62
7
  6
CONTINUOUS
 10
25.376840
 20
81.888211
 11
28.576840
 21
82.304211
  0
LINE
  8
1
 62
7
  6
CONTINUOUS
 10
28.576840
 20
82.304211
 11
28.576840
 21
81.472211
  0
LINE
  8
1
 62
7
  6
CONTINUOUS
 10
28.576840
 20
81.472211
 11
25.376840
 21
81.888211
  0
LINE
  8
1
 62
7
  6
CONTINUOUS
 10
85.294905
 20
81.888211
 11
82.094905
 21
81.472211
  0
LINE
  8
1
 62
7
  6
CONTINUOUS
 10
82.094905
 20
81.472211
 11
82.094905
 21
82.304211
  0
LINE
  8
1
 62
7
  6
CONTINUOUS
 10
82.094905
 20
82.304211
 11
85.294905
 21
81.888211
  0
TEXT
  8
1
 62
7
  6
CONTINUOUS
 10
47.182850
 20
84.688211
 40
3.200000
 41
0.900000
  1
300
  7
KANJI
 50
0.000000
 51
0.000000
  0
TEXT
  8
1
 62
7
  6
CONTINUOUS
 10
56.462850
 20
86.768211
 40
1.920000
 41
0.900000
  1
+40
  7
KANJI
 50
0.000000
 51
0.000000
  0
TEXT
  8
1
 62
7
  6
CONTINUOUS
 10
58.190850
 20
83.888211
 40
1.920000
 41
0.900000
  1
 0
  7
KANJI
 50
0.000000
 51
0.000000
  0
LINE
  8
1
 62
7
  6
CONTINUOUS
 10
18.976840
 20
73.888211
 11
25.376840
 21
73.888211
  0
LINE
  8
1
 62
7
  6
CONTINUOUS
 10
25.376840
 20
73.888211
 11
28.876840
 21
73.888211
  0
LINE
  8
1
 62
7
  6
CONTINUOUS
 10
28.876840
 20
73.888211
 11
40.601604
 21
73.888211
  0
LINE
  8
1
 62
7
  6
CONTINUOUS
 10
25.376840
 20
67.578211
 11
25.376840
 21
74.888211
  0
LINE
  8
1
 62
7
  6
CONTINUOUS
 10
28.876840
 20
67.888211
 11
28.876840
 21
74.888211
  0
LINE
  8
1
 62
7
  6
CONTINUOUS
 10
25.376840
 20
73.888211
 11
22.176840
 21
73.472211
  0
LINE
  8
1
 62
7
  6
CONTINUOUS
 10
22.176840
 20
73.472211
 11
22.176840
 21
74.304211
  0
LINE
  8
1
 62
7
  6
CONTINUOUS
 10
22.176840
 20
74.304211
 11
25.376840
 21
73.888211
  0
LINE
  8
1
 62
7
  6
CONTINUOUS
 10
28.876840
 20
73.888211
 11
32.076840
 21
74.304211
  0
LINE
  8
1
 62
7
  6
CONTINUOUS
 10
32.076840
 20
74.304211
 11
32.076840
 21
73.472211
  0
LINE
  8
1
 62
7
  6
CONTINUOUS
 10
32.076840
 20
73.472211
 11
28.876840
 21
73.888211
  0
TEXT
  8
1
 62
7
  6
CONTINUOUS
 10
32.681604
 20
75.888211
 40
3.200000
 41
0.900000
  1
3.5
  7
KANJI
 50
0.000000
 51
0.000000
  0
TEXT
  8
1
 62
7
  6
CONTINUOUS
 10
30.601604
 20
75.888211
 40
3.200000
 41
0.900000
  1
(
  7
KANJI
 50
0.000000
 51
0.000000
  0
TEXT
  8
1
 62
7
  6
CONTINUOUS
 10
40.121604
 20
75.888211
 40
3.200000
 41
0.900000
  1
)
  7
KANJI
 50
0.000000
 51
0.000000
  0
LINE
  8
128
 62
7
  6
CONTINUOUS
 10
36.009856
 20
179.834553
 11
67.009846
 21
179.834553
  0
LINE
  8
128
 62
7
  6
CONTINUOUS
 10
36.009856
 20
162.834553
 11
36.009856
 21
180.834553
  0
LINE
  8
128
 62
7
  6
CONTINUOUS
 10
67.009846
 20
162.834553
 11
67.009846
 21
180.834553
  0
LINE
  8
128
 62
7
  6
CONTINUOUS
 10
36.009856
 20
179.834553
 11
39.209856
 21
180.250553
  0
LINE
  8
128
 62
7
  6
CONTINUOUS
 10
39.209856
 20
180.250553
 11
39.209856
 21
179.418553
  0
LINE
  8
128
 62
7
  6
CONTINUOUS
 10
39.209856
 20
179.418553
 11
36.009856
 21
179.834553
  0
LINE
  8
128
 62
7
  6
CONTINUOUS
 10
67.009846
 20
179.834553
 11
63.809846
 21
179.418553
  0
LINE
  8
128
 62
7
  6
CONTINUOUS
 10
63.809846
 20
179.418553
 11
63.809846
 21
180.250553
  0
LINE
  8
128
 62
7
  6
CONTINUOUS
 10
63.809846
 20
180.250553
 11
67.009846
 21
179.834553
  0
TEXT
  8
128
 62
7
  6
CONTINUOUS
 10
45.401851
 20
181.434553
 40
3.200000
 41
0.900000
  1
31
  7
KANJI
 50
0.000000
 51
0.000000
  0
TEXT
  8
128
 62
7
  6
CONTINUOUS
 10
50.841851
 20
181.914553
 40
2.240000
 41
0.900000
  1
±0.2
  7
KANJI
 50
0.000000
 51
0.000000
  0
LINE
  8
128
 62
7
  6
CONTINUOUS
 10
30.509846
 20
189.834553
 11
72.509846
 21
189.834553
  0
LINE
  8
128
 62
7
  6
CONTINUOUS
 10
30.509846
 20
162.805153
 11
30.509846
 21
190.834553
  0
LINE
  8
128
 62
7
  6
CONTINUOUS
 10
72.509846
 20
162.805153
 11
72.509846
 21
190.834553
  0
LINE
  8
128
 62
7
  6
CONTINUOUS
 10
30.509846
 20
189.834553
 11
33.709846
 21
190.250553
  0
LINE
  8
128
 62
7
  6
CONTINUOUS
 10
33.709846
 20
190.250553
 11
33.709846
 21
189.418553
  0
LINE
  8
128
 62
7
  6
CONTINUOUS
 10
33.709846
 20
189.418553
 11
30.509846
 21
189.834553
  0
LINE
  8
128
 62
7
  6
CONTINUOUS
 10
72.509846
 20
189.834553
 11
69.309846
 21
189.418553
  0
LINE
  8
128
 62
7
  6
CONTINUOUS
 10
69.309846
 20
189.418553
 11
69.309846
 21
190.250553
  0
LINE
  8
128
 62
7
  6
CONTINUOUS
 10
69.309846
 20
190.250553
 11
72.509846
 21
189.834553
  0
TEXT
  8
128
 62
7
  6
CONTINUOUS
 10
49.109846
 20
191.434553
 40
3.200000
 41
0.900000
  1
42
  7
KANJI
 50
0.000000
 51
0.000000
  0
TEXT
  8
128
 62
7
  6
CONTINUOUS
 10
47.029846
 20
191.434553
 40
3.200000
 41
0.900000
  1
(
  7
KANJI
 50
0.000000
 51
0.000000
  0
TEXT
  8
128
 62
7
  6
CONTINUOUS
 10
55.509846
 20
191.434553
 40
3.200000
 41
0.900000
  1
)
  7
KANJI
 50
0.000000
 51
0.000000
  0
LINE
  8
128
 62
7
  6
CONTINUOUS
 10
133.075275
 20
135.934553
 11
133.075275
 21
142.334553
  0
LINE
  8
128
 62
7
  6
CONTINUOUS
 10
133.075275
 20
142.334553
 11
133.075275
 21
147.334553
  0
LINE
  8
128
 62
7
  6
CONTINUOUS
 10
133.075275
 20
147.334553
 11
133.075275
 21
172.798553
  0
LINE
  8
128
 62
7
  6
CONTINUOUS
 10
146.790925
 20
142.334553
 11
132.075275
 21
142.334553
  0
LINE
  8
128
 62
7
  6
CONTINUOUS
 10
146.790925
 20
147.334553
 11
132.075275
 21
147.334553
  0
LINE
  8
128
 62
7
  6
CONTINUOUS
 10
133.075275
 20
147.334553
 11
132.659275
 21
150.534553
  0
LINE
  8
128
 62
7
  6
CONTINUOUS
 10
132.659275
 20
150.534553
 11
133.491275
 21
150.534553
  0
LINE
  8
128
 62
7
  6
CONTINUOUS
 10
133.491275
 20
150.534553
 11
133.075275
 21
147.334553
  0
LINE
  8
128
 62
7
  6
CONTINUOUS
 10
133.075275
 20
142.334553
 11
133.491275
 21
139.134553
  0
LINE
  8
128
 62
7
  6
CONTINUOUS
 10
133.491275
 20
139.134553
 11
132.659275
 21
139.134553
  0
LINE
  8
128
 62
7
  6
CONTINUOUS
 10
132.659275
 20
139.134553
 11
133.075275
 21
142.334553
  0
TEXT
  8
128
 62
7
  6
CONTINUOUS
 10
130.275275
 20
160.710553
 40
3.200000
 41
0.900000
  1
5
  7
KANJI
 50
90.000000
 51
0.000000
  0
TEXT
  8
128
 62
7
  6
CONTINUOUS
 10
128.115275
 20
166.022553
 40
2.240000
 41
0.900000
  1
0
  7
KANJI
 50
90.000000
 51
0.000000
  0
TEXT
  8
128
 62
7
  6
CONTINUOUS
 10
131.475275
 20
164.230553
 40
2.240000
 41
0.900000
  1
-0.011
  7
KANJI
 50
90.000000
 51
0.000000
  0
TEXT
  8
128
 62
7
  6
CONTINUOUS
 10
130.275275
 20
156.870553
 40
3.200000
 41
0.900000
  1
φ
  7
KANJI
 50
90.000000
 51
0.000000
  0
LINE
  8
128
 62
7
  6
CONTINUOUS
 10
115.835279
 20
133.834553
 11
115.835279
 21
155.834553
  0
LINE
  8
128
 62
7
  6
CONTINUOUS
 10
168.790829
 20
133.834553
 11
114.835279
 21
133.834553
  0
LINE
  8
128
 62
7
  6
CONTINUOUS
 10
168.790929
 20
155.834553
 11
114.835279
 21
155.834553
  0
LINE
  8
128
 62
7
  6
CONTINUOUS
 10
115.835279
 20
155.834553
 11
116.251279
 21
152.634553
  0
LINE
  8
128
 62
7
  6
CONTINUOUS
 10
116.251279
 20
152.634553
 11
115.419279
 21
152.634553
  0
LINE
  8
128
 62
7
  6
CONTINUOUS
 10
115.419279
 20
152.634553
 11
115.835279
 21
155.834553
  0
LINE
  8
128
 62
7
  6
CONTINUOUS
 10
115.835279
 20
133.834553
 11
115.419279
 21
137.034553
  0
LINE
  8
128
 62
7
  6
CONTINUOUS
 10
115.419279
 20
137.034553
 11
116.251279
 21
137.034553
  0
LINE
  8
128
 62
7
  6
CONTINUOUS
 10
116.251279
 20
137.034553
 11
115.835279
 21
133.834553
  0
TEXT
  8
128
 62
7
  6
CONTINUOUS
 10
113.035279
 20
139.606553
 40
3.200000
 41
0.900000
  1
22
  7
KANJI
 50
90.000000
 51
0.000000
  0
TEXT
  8
128
 62
7
  6
CONTINUOUS
 10
110.875279
 20
147.798553
 40
2.240000
 41
0.900000
  1
0
  7
KANJI
 50
90.000000
 51
0.000000
  0
TEXT
  8
128
 62
7
  6
CONTINUOUS
 10
114.235279
 20
146.006553
 40
2.240000
 41
0.900000
  1
-0.05
  7
KANJI
 50
90.000000
 51
0.000000
  0
TEXT
  8
128
 62
7
  6
CONTINUOUS
 10
113.035279
 20
135.766553
 40
3.200000
 41
0.900000
  1
φ
  7
KANJI
 50
90.000000
 51
0.000000
  0
LINE
  8
128
 62
7
  6
CONTINUOUS
 10
178.190925
 20
190.834553
 11
171.790925
 21
190.834553
  0
LINE
  8
128
 62
7
  6
CONTINUOUS
 10
169.790929
 20
190.834553
 11
171.790925
 21
190.834553
  0
LINE
  8
128
 62
7
  6
CONTINUOUS
 10
169.790929
 20
190.834553
 11
156.105584
 21
190.834553
  0
LINE
  8
128
 62
7
  6
CONTINUOUS
 10
169.790929
 20
156.834553
 11
169.790929
 21
191.834553
  0
LINE
  8
128
 62
7
  6
CONTINUOUS
 10
171.790925
 20
166.141753
 11
171.790925
 21
191.834553
  0
LINE
  8
128
 62
7
  6
CONTINUOUS
 10
169.790929
 20
190.834553
 11
166.590929
 21
190.418553
  0
LINE
  8
128
 62
7
  6
CONTINUOUS
 10
166.590929
 20
190.418553
 11
166.590929
 21
191.250553
  0
LINE
  8
128
 62
7
  6
CONTINUOUS
 10
166.590929
 20
191.250553
 11
169.790929
 21
190.834553
  0
LINE
  8
128
 62
7
  6
CONTINUOUS
 10
171.790925
 20
190.834553
 11
174.990925
 21
191.250553
  0
LINE
  8
128
 62
7
  6
CONTINUOUS
 10
174.990925
 20
191.250553
 11
174.990925
 21
190.418553
  0
LINE
  8
128
 62
7
  6
CONTINUOUS
 10
174.990925
 20
190.418553
 11
171.790925
 21
190.834553
  0
TEXT
  8
128
 62
7
  6
CONTINUOUS
 10
156.105584
 20
192.434553
 40
3.200000
 41
0.900000
  1
2
  7
KANJI
 50
0.000000
 51
0.000000
  0
TEXT
  8
128
 62
7
  6
CONTINUOUS
 10
159.625584
 20
192.914553
 40
2.240000
 41
0.900000
  1
±0.2
  7
KANJI
 50
0.000000
 51
0.000000
  0
LINE
  8
128
 62
7
  6
CONTINUOUS
 10
147.790925
 20
200.834553
 11
171.790925
 21
200.834553
  0
LINE
  8
128
 62
7
  6
CONTINUOUS
 10
147.790925
 20
148.334553
 11
147.790925
 21
201.834553
  0
LINE
  8
128
 62
7
  6
CONTINUOUS
 10
171.790925
 20
166.141753
 11
171.790925
 21
201.834553
  0
LINE
  8
128
 62
7
  6
CONTINUOUS
 10
147.790925
 20
200.834553
 11
150.990925
 21
201.250553
  0
LINE
  8
128
 62
7
  6
CONTINUOUS
 10
150.990925
 20
201.250553
 11
150.990925
 21
200.418553
  0
LINE
  8
128
 62
7
  6
CONTINUOUS
 10
150.990925
 20
200.418553
 11
147.790925
 21
200.834553
  0
LINE
  8
128
 62
7
  6
CONTINUOUS
 10
171.790925
 20
200.834553
 11
168.590925
 21
200.418553
  0
LINE
  8
128
 62
7
  6
CONTINUOUS
 10
168.590925
 20
200.418553
 11
168.590925
 21
201.250553
  0
LINE
  8
128
 62
7
  6
CONTINUOUS
 10
168.590925
 20
201.250553
 11
171.790925
 21
200.834553
  0
TEXT
  8
128
 62
7
  6
CONTINUOUS
 10
153.386961
 20
202.434553
 40
3.200000
 41
0.900000
  1
24
  7
KANJI
 50
0.000000
 51
0.000000
  0
TEXT
  8
128
 62
7
  6
CONTINUOUS
 10
159.786961
 20
202.914553
 40
2.240000
 41
0.900000
  1
±0.5
  7
KANJI
 50
0.000000
 51
0.000000
  0
LINE
  8
128
 62
7
  6
CONTINUOUS
 10
171.790925
 20
200.834553
 11
211.490943
 21
200.834553
  0
LINE
  8
128
 62
7
  6
CONTINUOUS
 10
171.790925
 20
166.141753
 11
171.790925
 21
201.834553
  0
LINE
  8
128
 62
7
  6
CONTINUOUS
 10
211.490943
 20
165.834553
 11
211.490943
 21
201.834553
  0
LINE
  8
128
 62
7
  6
CONTINUOUS
 10
171.790925
 20
200.834553
 11
174.990925
 21
201.250553
  0
LINE
  8
128
 62
7
  6
CONTINUOUS
 10
174.990925
 20
201.250553
 11
174.990925
 21
200.418553
  0
LINE
  8
128
 62
7
  6
CONTINUOUS
 10
174.990925
 20
200.418553
 11
171.790925
 21
200.834553
  0
LINE
  8
128
 62
7
  6
CONTINUOUS
 10
211.490943
 20
200.834553
 11
208.290943
 21
200.418553
  0
LINE
  8
128
 62
7
  6
CONTINUOUS
 10
208.290943
 20
200.418553
 11
208.290943
 21
201.250553
  0
LINE
  8
128
 62
7
  6
CONTINUOUS
 10
208.290943
 20
201.250553
 11
211.490943
 21
200.834553
  0
TEXT
  8
128
 62
7
  6
CONTINUOUS
 10
184.512946
 20
202.434553
 40
3.200000
 41
0.900000
  1
40
  7
KANJI
 50
0.000000
 51
0.000000
  0
TEXT
  8
128
 62
7
  6
CONTINUOUS
 10
190.912946
 20
202.434553
 40
3.200000
 41
0.900000
  1
MAX
  7
KANJI
 50
0.000000
 51
0.000000
  0
LINE
  8
1
 62
7
  6
CONTINUOUS
 10
188.508059
 20
168.196270
 11
188.508059
 21
194.196270
  0
LINE
  8
1
 62
7
  6
CONTINUOUS
 10
188.508059
 20
194.196270
 11
194.508059
 21
194.196270
  0
LINE
  8
1
 62
7
  6
CONTINUOUS
 10
194.508059
 20
194.196270
 11
194.508059
 21
168.196270
  0
LINE
  8
1
 62
7
  6
CONTINUOUS
 10
194.508059
 20
168.196270
 11
188.508059
 21
168.196270
  0
LINE
  8
1
 62
7
  6
CONTINUOUS
 10
188.508059
 20
174.196270
 11
194.508059
 21
174.196270
  0
LINE
  8
1
 62
7
  6
CONTINUOUS
 10
194.008059
 20
171.196270
 11
189.008059
 21
171.196270
  0
LINE
  8
1
 62
7
  6
CONTINUOUS
 10
189.008059
 20
171.196270
 11
191.508059
 21
169.696270
  0
LINE
  8
1
 62
7
  6
CONTINUOUS
 10
191.508059
 20
169.696270
 11
191.508059
 21
172.196270
  0
TEXT
  8
1
 62
7
  6
CONTINUOUS
 10
193.508059
 20
175.243015
 40
4.000000
 41
0.900000
  1
文字ノ向キ
  7
KANJI
 50
90.000000
 51
0.000000
  0
LINE
  8
1
 62
7
  6
CONTINUOUS
 10
97.303881
 20
116.384553
 11
97.303881
 21
103.498511
  0
LINE
  8
1
 62
7
  6
CONTINUOUS
 10
97.303881
 20
116.384553
 11
97.303881
 21
123.834553
  0
LINE
  8
1
 62
7
  6
CONTINUOUS
 10
97.303881
 20
130.234553
 11
97.303881
 21
123.834553
  0
LINE
  8
1
 62
7
  6
CONTINUOUS
 10
60.509846
 20
123.834553
 11
99.303881
 21
123.834553
  0
LINE
  8
1
 62
7
  6
CONTINUOUS
 10
60.409846
 20
116.384553
 11
99.303881
 21
116.384553
  0
LINE
  8
1
 62
7
  6
CONTINUOUS
 10
97.303881
 20
116.384553
 11
97.719881
 21
113.184553
  0
LINE
  8
1
 62
7
  6
CONTINUOUS
 10
97.719881
 20
113.184553
 11
96.887881
 21
113.184553
  0
LINE
  8
1
 62
7
  6
CONTINUOUS
 10
96.887881
 20
113.184553
 11
97.303881
 21
116.384553
  0
LINE
  8
1
 62
7
  6
CONTINUOUS
 10
97.303881
 20
123.834553
 11
96.887881
 21
127.034553
  0
LINE
  8
1
 62
7
  6
CONTINUOUS
 10
96.887881
 20
127.034553
 11
97.719881
 21
127.034553
  0
LINE
  8
1
 62
7
  6
CONTINUOUS
 10
97.719881
 20
127.034553
 11
97.303881
 21
123.834553
  0
TEXT
  8
1
 62
7
  6
CONTINUOUS
 10
95.303881
 20
105.578511
 40
3.200000
 41
0.900000
  1
7.5
  7
KANJI
 50
90.000000
 51
0.000000
  0
TEXT
  8
1
 62
7
  6
CONTINUOUS
 10
95.303881
 20
103.498511
 40
3.200000
 41
0.900000
  1
(
  7
KANJI
 50
90.000000
 51
0.000000
  0
TEXT
  8
1
 62
7
  6
CONTINUOUS
 10
95.303881
 20
113.018511
 40
3.200000
 41
0.900000
  1
)
  7
KANJI
 50
90.000000
 51
0.000000
  0
LINE
  8
1
 62
7
  6
CONTINUOUS
 10
87.563372
 20
129.334553
 11
87.563372
 21
160.334553
  0
LINE
  8
1
 62
7
  6
CONTINUOUS
 10
70.509846
 20
160.334553
 11
89.563372
 21
160.334553
  0
LINE
  8
1
 62
7
  6
CONTINUOUS
 10
70.509846
 20
129.334553
 11
89.563372
 21
129.334553
  0
LINE
  8
1
 62
7
  6
CONTINUOUS
 10
87.563372
 20
129.334553
 11
87.147372
 21
132.534553
  0
LINE
  8
1
 62
7
  6
CONTINUOUS
 10
87.147372
 20
132.534553
 11
87.979372
 21
132.534553
  0
LINE
  8
1
 62
7
  6
CONTINUOUS
 10
87.979372
 20
132.534553
 11
87.563372
 21
129.334553
  0
LINE
  8
1
 62
7
  6
CONTINUOUS
 10
87.563372
 20
160.334553
 11
87.979372
 21
157.134553
  0
LINE
  8
1
 62
7
  6
CONTINUOUS
 10
87.979372
 20
157.134553
 11
87.147372
 21
157.134553
  0
LINE
  8
1
 62
7
  6
CONTINUOUS
 10
87.147372
 20
157.134553
 11
87.563372
 21
160.334553
  0
TEXT
  8
1
 62
7
  6
CONTINUOUS
 10
85.563372
 20
138.685206
 40
3.200000
 41
0.900000
  1
31
  7
KANJI
 50
90.000000
 51
0.000000
  0
TEXT
  8
1
 62
7
  6
CONTINUOUS
 10
84.923372
 20
144.125206
 40
1.920000
 41
0.900000
  1
±0.2
  7
KANJI
 50
90.000000
 51
0.000000
  0
LINE
  8
1
 62
7
  6
CONTINUOUS
 10
97.303881
 20
123.834553
 11
97.303881
 21
165.834553
  0
LINE
  8
1
 62
7
  6
CONTINUOUS
 10
69.480446
 20
165.834553
 11
99.303881
 21
165.834553
  0
LINE
  8
1
 62
7
  6
CONTINUOUS
 10
69.480346
 20
123.834553
 11
99.303881
 21
123.834553
  0
LINE
  8
1
 62
7
  6
CONTINUOUS
 10
97.303881
 20
123.834553
 11
96.887881
 21
127.034553
  0
LINE
  8
1
 62
7
  6
CONTINUOUS
 10
96.887881
 20
127.034553
 11
97.719881
 21
127.034553
  0
LINE
  8
1
 62
7
  6
CONTINUOUS
 10
97.719881
 20
127.034553
 11
97.303881
 21
123.834553
  0
LINE
  8
1
 62
7
  6
CONTINUOUS
 10
97.303881
 20
165.834553
 11
97.719881
 21
162.634553
  0
LINE
  8
1
 62
7
  6
CONTINUOUS
 10
97.719881
 20
162.634553
 11
96.887881
 21
162.634553
  0
LINE
  8
1
 62
7
  6
CONTINUOUS
 10
96.887881
 20
162.634553
 11
97.303881
 21
165.834553
  0
TEXT
  8
1
 62
7
  6
CONTINUOUS
 10
95.303881
 20
142.195691
 40
3.200000
 41
0.900000
  1
42
  7
KANJI
 50
90.000000
 51
0.000000
  0
TEXT
  8
1
 62
7
  6
CONTINUOUS
 10
95.303881
 20
140.115691
 40
3.200000
 41
0.900000
  1
(
  7
KANJI
 50
90.000000
 51
0.000000
  0
TEXT
  8
1
 62
7
  6
CONTINUOUS
 10
95.303881
 20
148.595691
 40
3.200000
 41
0.900000
  1
)
  7
KANJI
 50
90.000000
 51
0.000000
  0
ENDSEC
  0
EOF
