  0
SECTION
  2
HEADER
  9
$ACADVER
  1
AC1009
  9
$INSBASE
 10
0
 20
0
  9
$EXTMIN
 10
-136.1602913698867
 20
-291.8111770705101
  9
$EXTMAX
 10
46.77931887064741
 20
-139.2915754795784
  9
$LIMMIN
 10
-136.1602913698867
 20
-291.8111770705101
  9
$LIMMAX
 10
46.77931887064741
 20
-139.2915754795784
  9
$VIEWCTR
 10
10
 20
10
  9
$VIEWSIZE
 40
10
  9
$SNAPMODE
 70
0
  9
$SNAPUNIT
 10
1
 20
1
  9
$SNAPBASE
 10
0
 20
0
  9
$SNAPANG
 50
0
  9
$SNAPSTYLE
 70
0
  9
$SNAPISOPAIR
 70
0
  9
$GRIDMODE
 70
0
  9
$GRIDUNIT
 10
0
 20
0
  9
$ORTHOMODE
 70
0
  9
$REGENMODE
 70
1
  9
$FILLMODE
 70
1
  9
$QTEXTMODE
 70
0
  9
$DRAGMODE
 70
2
  9
$LTSCALE
 40
1
  9
$OSMODE
 70
0
  9
$ATTMODE
 70
1
  9
$TEXTSIZE
 40
3.5
  9
$TRACEWID
 40
0.5
  9
$TEXTSTYLE
  7
STANDARD
  9
$CLAYER
  8
0
  9
$CELTYPE
  6
BYLAYER
  9
$CECOLOR
 62
256
  9
$DIMSCALE
 40
1
  9
$DIMASZ
 40
0.18
  9
$DIMEXO
 40
0.0625
  9
$DIMDLI
 40
0.38
  9
$DIMRND
 40
0
  9
$DIMDLE
 40
0
  9
$DIMEXE
 40
0.18
  9
$DIMTP
 40
0
  9
$DIMTM
 40
0
  9
$DIMTXT
 40
0.18
  9
$DIMCEN
 40
0.09
  9
$DIMTSZ
 40
0
  9
$DIMTOL
 70
0
  9
$DIMLIM
 70
0
  9
$DIMTIH
 70
1
  9
$DIMTOH
 70
1
  9
$DIMSE1
 70
0
  9
$DIMSE2
 70
0
  9
$DIMTAD
 70
0
  9
$DIMZIN
 70
0
  9
$DIMBLK
  1

  9
$DIMASO
 70
1
  9
$DIMSHO
 70
1
  9
$DIMPOST
  1

  9
$DIMAPOST
  1

  9
$DIMALT
 70
0
  9
$DIMALTD
 70
2
  9
$DIMALTF
 40
25.4
  9
$DIMLFAC
 40
1
  9
$DIMTOFL
 70
0
  9
$DIMTVP
 40
0
  9
$DIMTIX
 70
0
  9
$DIMSOXD
 70
0
  9
$DIMSAH
 70
0
  9
$DIMBLK1
  1

  9
$DIMBLK2
  1

  9
$DIMSTYLE
  2
*UNNAMED
  9
$DIMCLRD
 70
0
  9
$DIMCLRE
 70
0
  9
$DIMCLRT
 70
0
  9
$DIMTFAC
 40
1
  9
$DIMGAP
 40
0.09
  9
$LUNITS
 70
2
  9
$LUPREC
 70
4
  9
$AXISMODE
 70
0
  9
$AXISUNIT
 10
0
 20
0
  9
$SKETCHINC
 40
0.1
  9
$FILLETRAD
 40
2
  9
$AUNITS
 70
0
  9
$AUPREC
 70
0
  9
$MENU
  1
ACAD
  9
$ELEVATION
 40
0
  9
$THICKNESS
 40
0
  9
$VIEWDIR
 10
0
 20
0
 30
1
  9
$LIMCHECK
 70
0
  9
$BLIPMODE
 70
1
  9
$CHAMFERA
 40
0
  9
$CHAMFERB
 40
0
  9
$FASTZOOM
 70
1
  9
$SKPOLY
 70
0
  9
$ANGBASE
 50
0
  9
$ANGDIR
 70
0
  9
$PDMODE
 70
0
  9
$PDSIZE
 40
0
  9
$PLINEWID
 40
0
  9
$COORDS
 70
2
  0
ENDSEC
  0
SECTION
  2
TABLES
  0
TABLE
  2
DIMSTYLE
 70
0
  0
ENDTAB
  0
TABLE
  2
LTYPE
 70
9
  0
LTYPE
  2
CONTINUOUS
 70
64
  3
Solid line
 72
65
 73
0
 40
0
  0
LTYPE
  2
BORDER
 70
64
  3
__ __ . __ __ .
 72
65
 73
6
 40
8.424850471603543
 49
2.40710013474387
 49
-1.203550067371935
 49
2.40710013474387
 49
-1.203550067371935
 49
0
 49
-1.203550067371935
  0
LTYPE
  2
CENTER
 70
64
  3
____ _ ____ _
 72
65
 73
4
 40
9.628400538975479
 49
6.017750336859674
 49
-1.203550067371935
 49
1.203550067371935
 49
-1.203550067371935
  0
LTYPE
  2
DASHDOT
 70
64
  3
__ . __ . __ .
 72
65
 73
4
 40
4.814200269487739
 49
2.40710013474387
 49
-1.203550067371935
 49
0
 49
-1.203550067371935
  0
LTYPE
  2
DASHED
 70
64
  3
__ __ __ __ __
 72
65
 73
2
 40
3.610650202115805
 49
2.40710013474387
 49
-1.203550067371935
  0
LTYPE
  2
DIVIDE
 70
64
  3
__ . . __ . . 
 72
65
 73
6
 40
6.017750336859674
 49
2.40710013474387
 49
-1.203550067371935
 49
0
 49
-1.203550067371935
 49
0
 49
-1.203550067371935
  0
LTYPE
  2
DOT
 70
64
  3
..............
 72
65
 73
4
 40
2.40710013474387
 49
0
 49
-1.203550067371935
 49
0
 49
-1.203550067371935
  0
LTYPE
  2
HIDDEN
 70
64
  3
_ _ _ _ _ _ _
 72
65
 73
2
 40
1.805325101057902
 49
1.203550067371935
 49
-0.6017750336859674
  0
LTYPE
  2
PHANTOM
 70
64
  3
_____ _ _ _____ _ _ 
 72
65
 73
6
 40
12.03550067371935
 49
6.017750336859674
 49
-1.203550067371935
 49
1.203550067371935
 49
-1.203550067371935
 49
1.203550067371935
 49
-1.203550067371935
  0
ENDTAB
  0
TABLE
  2
LAYER
 70
3
  0
LAYER
  2
1
 70
0
 62
7
  6
CONTINUOUS
  0
LAYER
  2
0
 70
0
 62
7
  6
CONTINUOUS
  0
ENDTAB
  0
TABLE
  2
STYLE
 70
4
  0
STYLE
  2
STANDARD
 70
0
 40
0
 41
1
 50
0
 71
0
 42
3.5
  3
txt
  4

  0
STYLE
  2
SIMPLEX
 70
0
 40
0
 41
1
 50
0
 71
0
 42
3.5
  3
simplex
  4

  0
STYLE
  2
COMPLEX
 70
0
 40
0
 41
1
 50
0
 71
0
 42
3.5
  3
complex
  4

  0
STYLE
  2
ITALIC
 70
0
 40
0
 41
1
 50
0
 71
0
 42
3.5
  3
italic
  4

  0
ENDTAB
  0
TABLE
  2
VIEW
 70
0
  0
ENDTAB
  0
ENDSEC
  0
SECTION
  2
BLOCKS
  0
ENDSEC
  0
SECTION
  2
ENTITIES
  0
LINE
  8
1
 62
1
 10
-129.9602913698866
 20
-202.8910705383466
 30
0
 11
-129.9602913698866
 21
-214.4910705383465
 31
0
  0
LINE
  8
1
 62
1
 10
-135.7602913698867
 20
-208.6910705383467
 30
0
 11
-124.1602913698866
 21
-208.6910705383467
 31
0
  0
LINE
  8
1
 62
3
 10
-130.0789851882066
 20
-209.3330233747445
 30
0
 11
-130.6900245593591
 21
-209.944062745897
 31
0
  0
LINE
  8
1
 62
3
 10
-129.8415975515668
 20
-209.3330233747445
 30
0
 11
-129.2305581804143
 21
-209.944062745897
 31
0
  0
LINE
  8
1
 62
3
 10
-130.6022442062846
 20
-208.5723767200267
 30
0
 11
-131.2132835774372
 21
-207.961337348874
 31
0
  0
LINE
  8
1
 62
3
 10
-130.6022442062846
 20
-208.8097643566662
 30
0
 11
-131.2132835774372
 21
-209.420803727819
 31
0
  0
LINE
  8
1
 62
3
 10
-129.8354626017469
 20
-208.0429827521287
 30
0
 11
-129.8415975515668
 21
-208.0491177019485
 31
0
  0
LINE
  8
1
 62
3
 10
-129.2305581804143
 20
-207.438078330796
 30
0
 11
-129.8354626017469
 21
-208.0429827521287
 31
0
  0
LINE
  8
1
 62
3
 10
-130.0789851882066
 20
-208.0491177019485
 30
0
 11
-130.6900245593591
 21
-207.438078330796
 31
0
  0
LINE
  8
1
 62
3
 10
-129.3183385334888
 20
-208.8097643566662
 30
0
 11
-128.7072991623362
 21
-209.420803727819
 31
0
  0
LINE
  8
1
 62
3
 10
-129.3183385334888
 20
-208.5723767200267
 30
0
 11
-128.7072991623362
 21
-207.961337348874
 31
0
  0
LINE
  8
1
 62
1
 10
-80.36029136988654
 20
-202.8910705383466
 30
0
 11
-80.36029136988654
 21
-214.4910705383465
 31
0
  0
LINE
  8
1
 62
1
 10
-86.16029136988661
 20
-208.6910705383467
 30
0
 11
-74.56029136988647
 21
-208.6910705383467
 31
0
  0
LINE
  8
1
 62
3
 10
-79.71833853348866
 20
-208.5723767200267
 30
0
 11
-79.10729916233603
 21
-207.961337348874
 31
0
  0
LINE
  8
1
 62
3
 10
-79.71833853348866
 20
-208.8097643566662
 30
0
 11
-79.10729916233603
 21
-209.420803727819
 31
0
  0
LINE
  8
1
 62
3
 10
-80.47898518820639
 20
-208.0491177019485
 30
0
 11
-81.09002455935897
 21
-207.438078330796
 31
0
  0
LINE
  8
1
 62
3
 10
-79.63055818041406
 20
-207.438078330796
 30
0
 11
-80.23546260174672
 21
-208.0429827521287
 31
0
  0
LINE
  8
1
 62
3
 10
-80.23546260174672
 20
-208.0429827521287
 30
0
 11
-80.24159755156663
 21
-208.0491177019485
 31
0
  0
LINE
  8
1
 62
3
 10
-81.00224420628442
 20
-208.8097643566662
 30
0
 11
-81.61328357743705
 21
-209.420803727819
 31
0
  0
LINE
  8
1
 62
3
 10
-81.00224420628442
 20
-208.5723767200267
 30
0
 11
-81.61328357743705
 21
-207.961337348874
 31
0
  0
LINE
  8
1
 62
3
 10
-80.24159755156663
 20
-209.3330233747445
 30
0
 11
-79.630558180414
 21
-209.944062745897
 31
0
  0
LINE
  8
1
 62
3
 10
-80.47898518820639
 20
-209.3330233747445
 30
0
 11
-81.09002455935897
 21
-209.944062745897
 31
0
  0
LINE
  8
1
 62
1
 10
-80.36029136988654
 20
-172.0910705383463
 30
0
 11
-80.36029136988654
 21
-183.6910705383466
 31
0
  0
LINE
  8
1
 62
1
 10
-74.56029136988647
 20
-177.8910705383464
 30
0
 11
-86.16029136988661
 21
-177.8910705383464
 31
0
  0
LINE
  8
1
 62
3
 10
-81.09002455935897
 20
-176.6380783307959
 30
0
 11
-80.47898518820639
 21
-177.2491177019486
 31
0
  0
LINE
  8
1
 62
3
 10
-79.630558180414
 20
-176.6380783307959
 30
0
 11
-80.24159755156663
 21
-177.2491177019486
 31
0
  0
LINE
  8
1
 62
3
 10
-81.61328357743705
 20
-178.6208037278189
 30
0
 11
-81.00224420628442
 21
-178.0097643566664
 31
0
  0
LINE
  8
1
 62
3
 10
-81.61328357743705
 20
-177.1613373488741
 30
0
 11
-81.00224420628442
 21
-177.7723767200267
 31
0
  0
LINE
  8
1
 62
3
 10
-80.24159755156663
 20
-178.5330233747444
 30
0
 11
-80.23546260174672
 21
-178.5391583245642
 31
0
  0
LINE
  8
1
 62
3
 10
-80.23546260174672
 20
-178.5391583245642
 30
0
 11
-79.63055818041406
 21
-179.1440627458971
 31
0
  0
LINE
  8
1
 62
3
 10
-81.09002455935897
 20
-179.1440627458971
 30
0
 11
-80.47898518820639
 21
-178.5330233747444
 31
0
  0
LINE
  8
1
 62
3
 10
-79.10729916233603
 20
-177.1613373488741
 30
0
 11
-79.71833853348866
 21
-177.7723767200267
 31
0
  0
LINE
  8
1
 62
3
 10
-79.10729916233603
 20
-178.6208037278189
 30
0
 11
-79.71833853348866
 21
-178.0097643566664
 31
0
  0
LINE
  8
1
 62
1
 10
-124.1602913698866
 20
-177.8910705383464
 30
0
 11
-135.7602913698867
 21
-177.8910705383464
 31
0
  0
LINE
  8
1
 62
1
 10
-129.9602913698866
 20
-172.0910705383463
 30
0
 11
-129.9602913698866
 21
-183.6910705383466
 31
0
  0
LINE
  8
1
 62
3
 10
-128.7072991623362
 20
-178.6208037278189
 30
0
 11
-129.3183385334888
 21
-178.0097643566664
 31
0
  0
LINE
  8
1
 62
3
 10
-128.7072991623362
 20
-177.1613373488741
 30
0
 11
-129.3183385334888
 21
-177.7723767200267
 31
0
  0
LINE
  8
1
 62
3
 10
-130.6900245593591
 20
-179.1440627458971
 30
0
 11
-130.0789851882066
 21
-178.5330233747444
 31
0
  0
LINE
  8
1
 62
3
 10
-129.8354626017469
 20
-178.5391583245642
 30
0
 11
-129.2305581804143
 21
-179.1440627458971
 31
0
  0
LINE
  8
1
 62
3
 10
-129.8415975515668
 20
-178.5330233747444
 30
0
 11
-129.8354626017469
 21
-178.5391583245642
 31
0
  0
LINE
  8
1
 62
3
 10
-131.2132835774372
 20
-177.1613373488741
 30
0
 11
-130.6022442062846
 21
-177.7723767200267
 31
0
  0
LINE
  8
1
 62
3
 10
-131.2132835774372
 20
-178.6208037278189
 30
0
 11
-130.6022442062846
 21
-178.0097643566664
 31
0
  0
LINE
  8
1
 62
3
 10
-129.2305581804143
 20
-176.6380783307959
 30
0
 11
-129.8415975515668
 21
-177.2491177019486
 31
0
  0
LINE
  8
1
 62
3
 10
-130.6900245593591
 20
-176.6380783307959
 30
0
 11
-130.0789851882066
 21
-177.2491177019486
 31
0
  0
LINE
  8
1
 62
3
 10
-92.91029136988671
 20
-224.0910705383466
 30
0
 11
-92.91029136988671
 21
-226.5910705383466
 31
0
  0
LINE
  8
1
 62
3
 10
-94.41029136988671
 20
-224.0910705383466
 30
0
 11
-92.91029136988671
 21
-224.0910705383466
 31
0
  0
LINE
  8
1
 62
3
 10
-115.9102913698867
 20
-226.5910705383466
 30
0
 11
-117.4102913698867
 21
-226.5910705383466
 31
0
  0
LINE
  8
1
 62
3
 10
-117.4102913698867
 20
-226.5910705383466
 30
0
 11
-117.6602913698867
 21
-226.5910705383465
 31
0
  0
LINE
  8
1
 62
3
 10
-117.4102913698867
 20
-224.0910705383466
 30
0
 11
-117.4102913698867
 21
-226.5910705383466
 31
0
  0
LINE
  8
1
 62
3
 10
-115.9102913698867
 20
-224.0910705383466
 30
0
 11
-117.4102913698867
 21
-224.0910705383466
 31
0
  0
LINE
  8
1
 62
3
 10
-115.9102913698867
 20
-227.2910705383466
 30
0
 11
-115.9102913698867
 21
-224.0910705383466
 31
0
  0
LINE
  8
1
 62
3
 10
-94.41029136988671
 20
-227.2910705383466
 30
0
 11
-115.9102913698867
 21
-227.2910705383466
 31
0
  0
LINE
  8
1
 62
3
 10
-94.41029136988671
 20
-224.0910705383466
 30
0
 11
-94.41029136988671
 21
-227.2910705383466
 31
0
  0
LINE
  8
1
 62
3
 10
-91.06029136988771
 20
-221.4910705383467
 30
0
 11
-86.59029136988654
 21
-221.4910705383467
 31
0
  0
LINE
  8
1
 62
3
 10
-119.2602913698867
 20
-221.4910705383467
 30
0
 11
-123.7302913698869
 21
-221.4910705383465
 31
0
  0
LINE
  8
1
 62
3
 10
-86.59029136988643
 20
-221.2910705383466
 30
0
 11
-86.59029136988654
 21
-223.2910705383487
 31
0
  0
LINE
  8
1
 62
3
 10
-123.7302913698869
 20
-223.2910705383475
 30
0
 11
-123.7302913698869
 21
-221.2910705383466
 31
0
  0
LINE
  8
1
 62
3
 10
-123.7302913698869
 20
-223.2910705383475
 30
0
 11
-123.7302913698869
 21
-221.2910705383466
 31
0
  0
LINE
  8
1
 62
3
 10
-86.59029136988643
 20
-221.2910705383466
 30
0
 11
-86.59029136988654
 21
-223.2910705383487
 31
0
  0
LINE
  8
1
 62
3
 10
-119.2602913698868
 20
-226.5910705383465
 30
0
 11
-117.6602913698867
 21
-226.5910705383465
 31
0
  0
LINE
  8
1
 62
3
 10
-91.06029136988818
 20
-226.5910705383465
 30
0
 11
-92.66029136988666
 21
-226.5910705383465
 31
0
  0
LINE
  8
1
 62
3
 10
-119.2602913698868
 20
-226.5910705383465
 30
0
 11
-119.2602913698868
 21
-221.291070538345
 31
0
  0
LINE
  8
1
 62
3
 10
-91.06029136988818
 20
-226.5910705383465
 30
0
 11
-91.06029136988691
 21
-221.2910705383466
 31
0
  0
LINE
  8
1
 62
3
 10
-89.59029136988632
 20
-226.2910705383475
 30
0
 11
-91.06029136988805
 21
-226.2910705383475
 31
0
  0
LINE
  8
1
 62
3
 10
-119.2602913698868
 20
-226.2910705383478
 30
0
 11
-120.7302913698871
 21
-226.2910705383478
 31
0
  0
LINE
  8
1
 62
3
 10
-92.66029136988666
 20
-226.5910705383465
 30
0
 11
-94.41029136988671
 21
-226.5910705383466
 31
0
  0
LINE
  8
1
 62
3
 10
-119.2602913698868
 20
-226.2910705383478
 30
0
 11
-120.7302913698871
 21
-226.2910705383478
 31
0
  0
LINE
  8
1
 62
3
 10
-89.59029136988632
 20
-226.2910705383475
 30
0
 11
-91.06029136988805
 21
-226.2910705383475
 31
0
  0
LINE
  8
1
 62
3
 10
-91.06029136988818
 20
-226.5910705383465
 30
0
 11
-91.06029136988691
 21
-221.2910705383466
 31
0
  0
LINE
  8
1
 62
3
 10
-119.2602913698868
 20
-226.5910705383465
 30
0
 11
-119.2602913698868
 21
-221.291070538345
 31
0
  0
LINE
  8
1
 62
3
 10
-91.06029136988818
 20
-226.5910705383465
 30
0
 11
-92.66029136988666
 21
-226.5910705383465
 31
0
  0
LINE
  8
1
 62
3
 10
-119.2602913698868
 20
-226.5910705383465
 30
0
 11
-117.6602913698867
 21
-226.5910705383465
 31
0
  0
LINE
  8
1
 62
1
 10
-1.220681129352855
 20
-216.8610705383468
 30
0
 11
9.779318870647145
 21
-216.8610705383468
 31
0
  0
LINE
  8
1
 62
1
 10
-1.220681129352855
 20
-169.7210705383463
 30
0
 11
9.779318870647145
 21
-169.7210705383463
 31
0
  0
LINE
  8
1
 62
2
 10
12.77931887064715
 20
-174.7210705383463
 30
0
 11
12.77931887064715
 21
-177.4531213459152
 31
0
  0
LINE
  8
1
 62
2
 10
14.77931887064715
 20
-174.7210705383463
 30
0
 11
14.77931887064715
 21
-180.917222961053
 31
0
  0
LINE
  8
1
 62
2
 10
16.77931887064715
 20
-174.7210705383463
 30
0
 11
16.77931887064715
 21
-184.3813245761907
 31
0
  0
LINE
  8
1
 62
2
 10
18.77931887064715
 20
-174.7210705383463
 30
0
 11
18.77931887064715
 21
-187.8454261913285
 31
0
  0
LINE
  8
1
 62
2
 10
26.77931887064745
 20
-198.7367148853646
 30
0
 11
26.77931887064745
 21
-211.8610705383468
 31
0
  0
LINE
  8
1
 62
2
 10
28.77931887064745
 20
-202.2008165005024
 30
0
 11
28.77931887064745
 21
-211.8610705383468
 31
0
  0
LINE
  8
1
 62
2
 10
30.77931887064745
 20
-205.6649181156401
 30
0
 11
30.77931887064745
 21
-211.8610705383468
 31
0
  0
LINE
  8
1
 62
2
 10
32.77931887064745
 20
-209.1290197307779
 30
0
 11
32.77931887064745
 21
-211.8610705383468
 31
0
  0
LINE
  8
1
 62
2
 10
19.77931887064715
 20
-174.7210705383463
 30
0
 11
19.77931887064715
 21
-189.5774769988974
 31
0
  0
LINE
  8
1
 62
2
 10
17.77931887064715
 20
-174.7210705383463
 30
0
 11
17.77931887064715
 21
-186.1133753837596
 31
0
  0
LINE
  8
1
 62
2
 10
15.77931887064715
 20
-174.7210705383463
 30
0
 11
15.77931887064715
 21
-182.6492737686218
 31
0
  0
LINE
  8
1
 62
2
 10
13.77931887064715
 20
-174.7210705383463
 30
0
 11
13.77931887064715
 21
-179.1851721534841
 31
0
  0
LINE
  8
1
 62
2
 10
25.77931887064745
 20
-211.8610705383468
 30
0
 11
25.77931887064745
 21
-197.0046640777958
 31
0
  0
LINE
  8
1
 62
2
 10
27.77931887064745
 20
-211.8610705383468
 30
0
 11
27.77931887064745
 21
-200.4687656929335
 31
0
  0
LINE
  8
1
 62
2
 10
29.77931887064745
 20
-211.8610705383468
 30
0
 11
29.77931887064745
 21
-203.9328673080713
 31
0
  0
LINE
  8
1
 62
2
 10
31.77931887064745
 20
-211.8610705383468
 30
0
 11
31.77931887064745
 21
-207.396968923209
 31
0
  0
LINE
  8
1
 62
1
 10
-136.1602913698867
 20
-193.2910705383466
 30
0
 11
-74.16029136988666
 21
-193.2910705383466
 31
0
  0
LINE
  8
1
 62
1
 10
-105.1602913698867
 20
-162.2910705383466
 30
0
 11
-105.1602913698867
 21
-229.7910705383468
 31
0
  0
LINE
  8
1
 62
1
 10
46.77931887064741
 20
-193.2910705383466
 30
0
 11
-21.82068112935266
 21
-193.2910705383466
 31
0
  0
LINE
  8
1
 62
3
 10
1.779318870647145
 20
-221.2910705383469
 30
0
 11
11.77931887064715
 21
-221.2910705383469
 31
0
  0
LINE
  8
1
 62
3
 10
1.779318870647145
 20
-165.2910705383466
 30
0
 11
11.77931887064715
 21
-165.2910705383465
 31
0
  0
LINE
  8
1
 62
1
 10
-134.2302913698868
 20
-169.7210705383464
 30
0
 11
-123.2302913698869
 21
-169.7210705383464
 31
0
  0
LINE
  8
1
 62
1
 10
-128.7302913698867
 20
-175.2210705383464
 30
0
 11
-128.7302913698867
 21
-164.2210705383464
 31
0
  0
LINE
  8
1
 62
1
 10
-128.7302913698867
 20
-222.3610705383468
 30
0
 11
-128.7302913698869
 21
-211.3610705383471
 31
0
  0
LINE
  8
1
 62
1
 10
-134.2302913698869
 20
-216.8610705383471
 30
0
 11
-123.2302913698869
 21
-216.8610705383471
 31
0
  0
LINE
  8
1
 62
1
 10
-87.09029136988667
 20
-169.7210705383464
 30
0
 11
-76.09029136988667
 21
-169.7210705383464
 31
0
  0
LINE
  8
1
 62
1
 10
-81.59029136988661
 20
-175.2210705383464
 30
0
 11
-81.59029136988667
 21
-164.2210705383464
 31
0
  0
LINE
  8
1
 62
3
 10
11.77931887064715
 20
-165.2910705383465
 30
0
 11
33.77931887064745
 21
-165.2910705383468
 31
0
  0
LINE
  8
1
 62
3
 10
33.77931887064745
 20
-221.2910705383469
 30
0
 11
11.77931887064715
 21
-221.2910705383469
 31
0
  0
LINE
  8
1
 62
3
 10
-129.1602913698867
 20
-165.2910705383466
 30
0
 11
-81.16029136988666
 21
-165.2910705383466
 31
0
  0
LINE
  8
1
 62
3
 10
-77.16029136988666
 20
-169.2910705383466
 30
0
 11
-77.16029136988655
 21
-172.8910705383466
 31
0
  0
LINE
  8
1
 62
3
 10
-81.16029136988666
 20
-221.2910705383466
 30
0
 11
-129.1602913698867
 21
-221.2910705383466
 31
0
  0
LINE
  8
1
 62
3
 10
-133.1602913698869
 20
-217.291070538347
 30
0
 11
-133.1602913698867
 21
-169.2910705383466
 31
0
  0
LINE
  8
1
 62
1
 10
-81.59029136988661
 20
-222.361070538347
 30
0
 11
-81.59029136988661
 21
-211.3610705383471
 31
0
  0
LINE
  8
1
 62
1
 10
-87.09029136988667
 20
-216.8610705383471
 30
0
 11
-76.09029136988667
 21
-216.861070538347
 31
0
  0
LINE
  8
1
 62
3
 10
-80.36029136988591
 20
-173.8910705383472
 30
0
 11
-78.16029136988587
 21
-173.8910705383472
 31
0
  0
LINE
  8
1
 62
3
 10
-80.36029136988591
 20
-181.8910705383472
 30
0
 11
-78.16029136988587
 21
-181.8910705383472
 31
0
  0
LINE
  8
1
 62
3
 10
-77.16029136988587
 20
-182.8910705383472
 30
0
 11
-77.16029136988632
 21
-217.2910705383468
 31
0
  0
LINE
  8
1
 62
3
 10
-77.16029136988655
 20
-172.8910705383466
 30
0
 11
-77.16029136988655
 21
-173.8910705383464
 31
0
  0
LINE
  8
1
 62
3
 10
-77.16029136988655
 20
-173.8910705383464
 30
0
 11
-77.16029136988655
 21
-181.8910705383464
 31
0
  0
LINE
  8
1
 62
3
 10
-77.16029136988655
 20
-181.8910705383464
 30
0
 11
-77.16029136988587
 21
-182.8910705383472
 31
0
  0
LINE
  8
1
 62
3
 10
-132.1602913698873
 20
-173.8910705383472
 30
0
 11
-129.960291369887
 21
-173.8910705383472
 31
0
  0
LINE
  8
1
 62
3
 10
-132.1602913698873
 20
-181.8910705383472
 30
0
 11
-129.960291369887
 21
-181.8910705383472
 31
0
  0
LINE
  8
1
 62
3
 10
-133.1602913698867
 20
-173.8910705383465
 30
0
 11
-133.1602913698867
 21
-172.8910705383466
 31
0
  0
LINE
  8
1
 62
3
 10
-133.1602913698867
 20
-181.8910705383464
 30
0
 11
-133.1602913698867
 21
-173.8910705383465
 31
0
  0
LINE
  8
1
 62
3
 10
-133.1602913698867
 20
-182.8910705383466
 30
0
 11
-133.1602913698867
 21
-181.8910705383464
 31
0
  0
LINE
  8
1
 62
3
 10
-78.16029136988587
 20
-212.6910705383474
 30
0
 11
-80.36029136988591
 21
-212.6910705383474
 31
0
  0
LINE
  8
1
 62
3
 10
-78.16029136988587
 20
-204.6910705383474
 30
0
 11
-80.36029136988591
 21
-204.6910705383474
 31
0
  0
LINE
  8
1
 62
3
 10
-77.16029136988655
 20
-212.6910705383468
 30
0
 11
-77.16029136988655
 21
-213.691070538347
 31
0
  0
LINE
  8
1
 62
3
 10
-77.16029136988655
 20
-204.691070538347
 30
0
 11
-77.16029136988655
 21
-212.6910705383468
 31
0
  0
LINE
  8
1
 62
3
 10
-77.16029136988655
 20
-203.691070538347
 30
0
 11
-77.16029136988655
 21
-204.691070538347
 31
0
  0
LINE
  8
1
 62
3
 10
-129.960291369887
 20
-212.6910705383474
 30
0
 11
-132.1602913698867
 21
-212.6910705383469
 31
0
  0
LINE
  8
1
 62
3
 10
-129.960291369887
 20
-204.6910705383474
 30
0
 11
-132.1602913698873
 21
-204.6910705383474
 31
0
  0
LINE
  8
1
 62
3
 10
-133.1602913698867
 20
-213.691070538347
 30
0
 11
-133.1602913698867
 21
-212.6910705383468
 31
0
  0
LINE
  8
1
 62
3
 10
-133.1602913698867
 20
-212.6910705383468
 30
0
 11
-133.1602913698867
 21
-204.691070538347
 31
0
  0
LINE
  8
1
 62
3
 10
-133.1602913698867
 20
-204.691070538347
 30
0
 11
-133.1602913698867
 21
-203.691070538347
 31
0
  0
LINE
  8
1
 62
3
 10
0.1793188706471796
 20
-196.4660705383465
 30
0
 11
-18.32068112935266
 21
-196.4660705383466
 31
0
  0
LINE
  8
1
 62
3
 10
-18.32068112935266
 20
-190.1160705383467
 30
0
 11
0.1793188706471796
 21
-190.1160705383466
 31
0
  0
LINE
  8
1
 62
3
 10
-18.82068112935266
 20
-190.6160705383467
 30
0
 11
-18.82068112935259
 21
-195.9660705383467
 31
0
  0
LINE
  8
1
 62
3
 10
-18.82068112935259
 20
-195.9660705383467
 30
0
 11
-18.32068112935266
 21
-196.4660705383466
 31
0
  0
LINE
  8
1
 62
3
 10
-18.32068112935266
 20
-190.1160705383467
 30
0
 11
-18.32068112935266
 21
-196.4660705383466
 31
0
  0
LINE
  8
1
 62
3
 10
-18.82068112935266
 20
-190.6160705383467
 30
0
 11
-18.32068112935266
 21
-190.1160705383467
 31
0
  0
LINE
  8
1
 62
3
 10
0.1793188706471227
 20
-178.7910705383466
 30
0
 11
0.1793188706471227
 21
-188.2410705383466
 31
0
  0
LINE
  8
1
 62
3
 10
0.1793188706471227
 20
-175.7910705383466
 30
0
 11
0.1793188706471227
 21
-178.7910705383466
 31
0
  0
LINE
  8
1
 62
3
 10
0.1793188706473359
 20
-174.3410705383466
 30
0
 11
0.1793188706471227
 21
-175.7910705383466
 31
0
  0
LINE
  8
1
 62
3
 10
0.1793188706471227
 20
-188.2410705383466
 30
0
 11
0.1793188706471796
 21
-193.2910705383465
 31
0
  0
LINE
  8
1
 62
3
 10
1.779318870647145
 20
-165.2910705383466
 30
0
 11
1.779318870647259
 21
-174.2410705383466
 31
0
  0
LINE
  8
1
 62
3
 10
1.779318870647259
 20
-174.2410705383466
 30
0
 11
0.3526522039805116
 21
-174.2410705383467
 31
0
  0
LINE
  8
1
 62
3
 10
0.3526522039805116
 20
-174.2410705383467
 30
0
 11
0.1793188706473359
 21
-174.3410705383466
 31
0
  0
LINE
  8
1
 62
3
 10
11.77931887064715
 20
-165.2910705383465
 30
0
 11
11.77931887064715
 21
-193.2910705383466
 31
0
  0
LINE
  8
1
 62
3
 10
0.1793188706471227
 20
-198.3410705383465
 30
0
 11
0.1793188706471227
 21
-207.7910705383465
 31
0
  0
LINE
  8
1
 62
3
 10
0.1793188706471227
 20
-207.7910705383465
 30
0
 11
0.1793188706471227
 21
-210.7910705383466
 31
0
  0
LINE
  8
1
 62
3
 10
0.1793188706471227
 20
-210.7910705383466
 30
0
 11
0.1793188706471227
 21
-212.2410705383466
 31
0
  0
LINE
  8
1
 62
3
 10
1.779318870647145
 20
-212.3410705383465
 30
0
 11
1.779318870647145
 21
-221.2910705383469
 31
0
  0
LINE
  8
1
 62
3
 10
0.3526522039805116
 20
-212.3410705383466
 30
0
 11
1.779318870647145
 21
-212.3410705383465
 31
0
  0
LINE
  8
1
 62
3
 10
0.1793188706471227
 20
-212.2410705383466
 30
0
 11
0.3526522039805116
 21
-212.3410705383466
 31
0
  0
LINE
  8
1
 62
3
 10
11.77931887064715
 20
-193.2910705383466
 30
0
 11
11.77931887064715
 21
-221.2910705383469
 31
0
  0
LINE
  8
1
 62
3
 10
0.1793188706471796
 20
-193.2910705383465
 30
0
 11
0.1793188706471227
 21
-198.3410705383465
 31
0
  0
LINE
  8
1
 62
3
 10
33.77931887064745
 20
-165.2910705383468
 30
0
 11
33.77931887064745
 21
-226.2910705383478
 31
0
  0
LINE
  8
1
 62
3
 10
43.77931887064745
 20
-225.7910705383479
 30
0
 11
43.27931887064745
 21
-226.2910705383478
 31
0
  0
LINE
  8
1
 62
3
 10
43.27931887064745
 20
-226.2910705383478
 30
0
 11
33.77931887064745
 21
-226.2910705383478
 31
0
  0
LINE
  8
1
 62
3
 10
43.27931887064745
 20
-165.2910705383467
 30
0
 11
33.77931887064745
 21
-165.2910705383468
 31
0
  0
LINE
  8
1
 62
3
 10
43.77931887064745
 20
-210.7910705383466
 30
0
 11
43.77931887064745
 21
-207.7910705383465
 31
0
  0
LINE
  8
1
 62
3
 10
43.77931887064745
 20
-178.7910705383464
 30
0
 11
43.77931887064745
 21
-175.7910705383465
 31
0
  0
LINE
  8
1
 62
3
 10
43.77931887064745
 20
-175.7910705383465
 30
0
 11
43.77931887064745
 21
-165.7910705383466
 31
0
  0
LINE
  8
1
 62
3
 10
43.77931887064745
 20
-178.7910705383464
 30
0
 11
43.77931887064745
 21
-188.1410705383466
 31
0
  0
LINE
  8
1
 62
3
 10
43.77931887064745
 20
-205.4689282827043
 30
0
 11
43.77931887064745
 21
-207.7910705383465
 31
0
  0
LINE
  8
1
 62
3
 10
43.77931887064745
 20
-198.4410705383465
 30
0
 11
43.77931887064745
 21
-205.4689282827043
 31
0
  0
LINE
  8
1
 62
3
 10
43.77931887064745
 20
-225.7910705383479
 30
0
 11
43.77931887064745
 21
-213.8380330690635
 31
0
  0
LINE
  8
1
 62
3
 10
43.77931887064745
 20
-188.1410705383466
 30
0
 11
43.77931887064745
 21
-198.4410705383465
 31
0
  0
LINE
  8
1
 62
3
 10
43.77931887064745
 20
-213.8380330690635
 30
0
 11
43.77931887064745
 21
-210.7910705383466
 31
0
  0
LINE
  8
1
 62
3
 10
43.27931887064745
 20
-165.2910705383467
 30
0
 11
43.77931887064745
 21
-165.7910705383466
 31
0
  0
LINE
  8
1
 62
3
 10
1.779318870647259
 20
-174.2410705383466
 30
0
 11
1.779318870647145
 21
-212.3410705383465
 31
0
  0
LINE
  8
1
 62
3
 10
6.779318870647259
 20
-165.2910705383466
 30
0
 11
6.779318870647259
 21
-174.7210705383463
 31
0
  0
LINE
  8
1
 62
3
 10
6.779318870647259
 20
-174.7210705383463
 30
0
 11
43.77931887064744
 21
-174.7210705383463
 31
0
  0
LINE
  8
1
 62
3
 10
43.77931887064726
 20
-211.8610705383468
 30
0
 11
6.779318870647259
 21
-211.8610705383468
 31
0
  0
LINE
  8
1
 62
3
 10
6.779318870647259
 20
-211.8610705383468
 30
0
 11
6.779318870647216
 21
-221.2910705383468
 31
0
  0
LINE
  8
1
 62
3
 10
-92.54945419480936
 20
-268.3611770705101
 30
0
 11
-87.54945419480936
 21
-268.3611770705101
 31
0
  0
LINE
  8
1
 62
3
 10
-92.54945419480936
 20
-291.2611770705101
 30
0
 11
-92.54945419480936
 21
-268.3611770705101
 31
0
  0
LINE
  8
1
 62
3
 10
-87.54945419480936
 20
-291.2611770705101
 30
0
 11
-92.54945419480936
 21
-291.2611770705101
 31
0
  0
LINE
  8
1
 62
3
 10
-86.74945419480936
 20
-291.8111770705101
 30
0
 11
-86.74945419480936
 21
-267.8111770705101
 31
0
  0
LINE
  8
1
 62
3
 10
-87.54945419480936
 20
-291.5111770705101
 30
0
 11
-87.54945419480936
 21
-291.2611770705101
 31
0
  0
LINE
  8
1
 62
3
 10
-86.74945419480936
 20
-291.8111770705101
 30
0
 11
-87.24945419480936
 21
-291.8111770705101
 31
0
  0
LINE
  8
1
 62
3
 10
-87.54945419480936
 20
-268.3611770705101
 30
0
 11
-87.54945419480936
 21
-268.1111770705101
 31
0
  0
LINE
  8
1
 62
3
 10
-87.24945419480936
 20
-267.8111770705101
 30
0
 11
-86.74945419480936
 21
-267.8111770705101
 31
0
  0
LINE
  8
1
 62
3
 10
-91.24945419480936
 20
-288.3111770705101
 30
0
 11
-89.84945419480935
 21
-288.3111770705101
 31
0
  0
LINE
  8
1
 62
3
 10
-91.24945419480936
 20
-289.3111770705101
 30
0
 11
-91.24945419480936
 21
-288.3111770705101
 31
0
  0
LINE
  8
1
 62
3
 10
-89.84945419480935
 20
-289.3111770705101
 30
0
 11
-91.24945419480936
 21
-289.3111770705101
 31
0
  0
LINE
  8
1
 62
3
 10
-89.84945419480935
 20
-288.3111770705101
 30
0
 11
-89.84945419480935
 21
-289.3111770705101
 31
0
  0
LINE
  8
1
 62
3
 10
-90.14945419480935
 20
-289.3111770705101
 30
0
 11
-90.14945419480935
 21
-288.3111770705101
 31
0
  0
LINE
  8
1
 62
3
 10
-89.84945419480935
 20
-271.3111770705101
 30
0
 11
-91.24945419480936
 21
-271.3111770705101
 31
0
  0
LINE
  8
1
 62
3
 10
-91.24945419480936
 20
-271.3111770705101
 30
0
 11
-91.24945419480936
 21
-270.3111770705101
 31
0
  0
LINE
  8
1
 62
3
 10
-91.24945419480936
 20
-270.3111770705101
 30
0
 11
-89.84945419480935
 21
-270.3111770705101
 31
0
  0
LINE
  8
1
 62
3
 10
-89.84945419480935
 20
-270.3111770705101
 30
0
 11
-89.84945419480935
 21
-271.3111770705101
 31
0
  0
LINE
  8
1
 62
3
 10
-90.14945419480935
 20
-271.3111770705101
 30
0
 11
-90.14945419480935
 21
-270.3111770705101
 31
0
  0
LINE
  8
1
 62
3
 10
-90.24945419480936
 20
-289.3111770705101
 30
0
 11
-90.24945419480936
 21
-288.3111770705101
 31
0
  0
LINE
  8
1
 62
3
 10
-90.24945419480936
 20
-271.3111770705101
 30
0
 11
-90.24945419480936
 21
-270.3111770705101
 31
0
  0
LINE
  8
1
 62
2
 10
-18.62888379588308
 20
-277.1111770705101
 30
0
 11
-8.628883795883056
 21
-277.1111770705102
 31
0
  0
LINE
  8
1
 62
2
 10
-18.62888379588308
 20
-277.41117707051
 30
0
 11
-8.628883795883056
 21
-277.41117707051
 31
0
  0
LINE
  8
1
 62
2
 10
-18.62888379588306
 20
-277.7111770705101
 30
0
 11
-8.628883795883056
 21
-277.71117707051
 31
0
  0
LINE
  8
1
 62
2
 10
-18.62888379588308
 20
-278.7111770705102
 30
0
 11
-8.628883795883056
 21
-278.71117707051
 31
0
  0
LINE
  8
1
 62
2
 10
-18.62888379588308
 20
-279.0111770705099
 30
0
 11
-8.628883795883056
 21
-279.0111770705102
 31
0
  0
LINE
  8
1
 62
2
 10
-18.62888379588306
 20
-279.3111770705099
 30
0
 11
-8.628883795883056
 21
-279.3111770705099
 31
0
  0
LINE
  8
1
 62
2
 10
-18.62888379588308
 20
-280.3111770705101
 30
0
 11
-8.628883795883056
 21
-280.3111770705101
 31
0
  0
LINE
  8
1
 62
2
 10
-18.62888379588308
 20
-280.6111770705101
 30
0
 11
-8.628883795883056
 21
-280.6111770705101
 31
0
  0
LINE
  8
1
 62
2
 10
-18.62888379588308
 20
-280.91117707051
 30
0
 11
-8.628883795883056
 21
-280.91117707051
 31
0
  0
LINE
  8
1
 62
2
 10
-18.62888379588308
 20
-281.91117707051
 30
0
 11
-8.628883795883056
 21
-281.91117707051
 31
0
  0
LINE
  8
1
 62
2
 10
-18.62888379588308
 20
-282.21117707051
 30
0
 11
-8.628883795883056
 21
-282.21117707051
 31
0
  0
LINE
  8
1
 62
2
 10
-18.62888379588308
 20
-282.5111770705099
 30
0
 11
-8.628883795883056
 21
-282.5111770705099
 31
0
  0
LINE
  8
1
 62
3
 10
-18.62888379588306
 20
-283.0111770705102
 30
0
 11
-18.62888379588306
 21
-276.6111770705102
 31
0
  0
LINE
  8
1
 62
3
 10
-69.06061997683295
 20
-276.6111770705101
 30
0
 11
-64.06061997683295
 21
-276.6111770705102
 31
0
  0
LINE
  8
1
 62
3
 10
-69.06061997683295
 20
-278.2111770705101
 30
0
 11
-64.06061997683295
 21
-278.2111770705101
 31
0
  0
LINE
  8
1
 62
3
 10
-69.06061997683295
 20
-279.8111770705101
 30
0
 11
-64.06061997683295
 21
-279.8111770705101
 31
0
  0
LINE
  8
1
 62
3
 10
-69.06061997683295
 20
-281.41117707051
 30
0
 11
-64.06061997683295
 21
-281.41117707051
 31
0
  0
LINE
  8
1
 62
3
 10
-69.06061997683295
 20
-283.0111770705102
 30
0
 11
-64.06061997683295
 21
-283.0111770705102
 31
0
  0
LINE
  8
1
 62
3
 10
-81.74945419480936
 20
-281.0111770705101
 30
0
 11
-69.06061997683295
 21
-279.8111770705101
 31
0
  0
LINE
  8
1
 62
3
 10
-81.74945419480936
 20
-282.61117707051
 30
0
 11
-69.06061997683295
 21
-281.41117707051
 31
0
  0
LINE
  8
1
 62
3
 10
-81.74945419480936
 20
-285.0111770705101
 30
0
 11
-69.06061997683295
 21
-281.41117707051
 31
0
  0
LINE
  8
1
 62
3
 10
-81.74945419480936
 20
-286.61117707051
 30
0
 11
-69.06061997683295
 21
-283.0111770705102
 31
0
  0
LINE
  8
1
 62
3
 10
-86.74945419480936
 20
-281.0111770705101
 30
0
 11
-81.74945419480936
 21
-281.0111770705101
 31
0
  0
LINE
  8
1
 62
3
 10
-86.74945419480936
 20
-282.61117707051
 30
0
 11
-81.74945419480936
 21
-282.61117707051
 31
0
  0
LINE
  8
1
 62
3
 10
-86.74945419480936
 20
-285.0111770705101
 30
0
 11
-81.74945419480936
 21
-285.0111770705101
 31
0
  0
LINE
  8
1
 62
3
 10
-86.74945419480936
 20
-286.61117707051
 30
0
 11
-81.74945419480936
 21
-286.61117707051
 31
0
  0
LINE
  8
1
 62
3
 10
-62.55539215125415
 20
-276.6111770705102
 30
0
 11
-18.62888379588306
 21
-276.6111770705102
 31
0
  0
LINE
  8
1
 62
3
 10
-62.55539215125415
 20
-278.2111770705101
 30
0
 11
-18.62888379588308
 21
-278.2111770705101
 31
0
  0
LINE
  8
1
 62
3
 10
-62.55539215125415
 20
-279.8111770705101
 30
0
 11
-18.62888379588308
 21
-279.8111770705101
 31
0
  0
LINE
  8
1
 62
3
 10
-62.55539215125415
 20
-281.41117707051
 30
0
 11
-18.62888379588306
 21
-281.41117707051
 31
0
  0
LINE
  8
1
 62
3
 10
-62.55539215125415
 20
-283.0111770705102
 30
0
 11
-18.62888379588306
 21
-283.0111770705102
 31
0
  0
LINE
  8
1
 62
3
 10
-81.74945419480936
 20
-278.61117707051
 30
0
 11
-86.74945419480936
 21
-278.61117707051
 31
0
  0
LINE
  8
1
 62
3
 10
-69.06061997683295
 20
-279.8111770705101
 30
0
 11
-81.74945419480936
 21
-278.61117707051
 31
0
  0
LINE
  8
1
 62
3
 10
-69.06061997683295
 20
-278.2111770705101
 30
0
 11
-81.74945419480936
 21
-277.0111770705101
 31
0
  0
LINE
  8
1
 62
3
 10
-81.74945419480936
 20
-277.0111770705101
 30
0
 11
-86.74945419480936
 21
-277.0111770705101
 31
0
  0
LINE
  8
1
 62
3
 10
-81.74945419480936
 20
-274.61117707051
 30
0
 11
-86.74945419480936
 21
-274.61117707051
 31
0
  0
LINE
  8
1
 62
3
 10
-69.06061997683295
 20
-278.2111770705101
 30
0
 11
-81.74945419480936
 21
-274.61117707051
 31
0
  0
LINE
  8
1
 62
3
 10
-69.06061997683295
 20
-276.6111770705101
 30
0
 11
-81.74945419480936
 21
-273.0111770705101
 31
0
  0
LINE
  8
1
 62
3
 10
-81.74945419480936
 20
-273.0111770705101
 30
0
 11
-86.74945419480936
 21
-273.0111770705101
 31
0
  0
ARC
  8
1
 62
3
 10
-129.9602913698865
 20
-208.6910705383467
 30
0
 40
1.449999999999676
 50
300.2161982852456
 51
329.7838017147514
  0
ARC
  8
1
 62
3
 10
-129.9602913698865
 20
-208.6910705383467
 30
0
 40
0.634999999999778
 50
262.5415509436721
 51
277.4584490562924
  0
ARC
  8
1
 62
3
 10
-129.9602913698865
 20
-208.6910705383467
 30
0
 40
1.450000000000062
 50
210.2161982852407
 51
239.7838017147408
  0
ARC
  8
1
 62
3
 10
-129.9602913698865
 20
-208.6910705383467
 30
0
 40
0.6350000000001762
 50
172.5415509436742
 51
187.4584490562801
  0
ARC
  8
1
 62
3
 10
-129.9602913698865
 20
-208.6910705383467
 30
0
 40
1.45000000000022
 50
120.2161982852513
 51
149.7838017147448
  0
ARC
  8
1
 62
3
 10
-129.9602913698865
 20
-208.6910705383467
 30
0
 40
0.6350000000001491
 50
82.54155094371266
 51
97.45844905632293
  0
ARC
  8
1
 62
3
 10
-129.9602913698865
 20
-208.6910705383467
 30
0
 40
1.449999999999933
 50
30.21619828526314
 51
59.78380171476226
  0
ARC
  8
1
 62
3
 10
-129.9602913698865
 20
-208.6910705383467
 30
0
 40
0.6349999999996308
 50
352.5415509437143
 51
7.458449056331464
  0
ARC
  8
1
 62
3
 10
-80.3602913698866
 20
-208.6910705383467
 30
0
 40
0.6350000000000253
 50
352.541550943719
 51
7.458449056326803
  0
ARC
  8
1
 62
3
 10
-80.3602913698866
 20
-208.6910705383467
 30
0
 40
1.450000000000154
 50
30.21619828525805
 51
59.7838017147506
  0
ARC
  8
1
 62
3
 10
-80.3602913698866
 20
-208.6910705383467
 30
0
 40
0.6350000000001822
 50
82.5415509436898
 51
97.45844905630004
  0
ARC
  8
1
 62
3
 10
-80.3602913698866
 20
-208.6910705383467
 30
0
 40
1.450000000000105
 50
120.2161982852436
 51
149.7838017147397
  0
ARC
  8
1
 62
3
 10
-80.3602913698866
 20
-208.6910705383467
 30
0
 40
0.6349999999999789
 50
172.5415509436719
 51
187.458449056283
  0
ARC
  8
1
 62
3
 10
-80.3602913698866
 20
-208.6910705383467
 30
0
 40
1.449999999999841
 50
210.2161982852458
 51
239.7838017147485
  0
ARC
  8
1
 62
3
 10
-80.3602913698866
 20
-208.6910705383467
 30
0
 40
0.6349999999997448
 50
262.541550943695
 51
277.4584490563152
  0
ARC
  8
1
 62
3
 10
-80.3602913698866
 20
-208.6910705383467
 30
0
 40
1.449999999999876
 50
300.2161982852593
 51
329.7838017147566
  0
ARC
  8
1
 62
3
 10
-80.3602913698866
 20
-177.8910705383467
 30
0
 40
1.450000000000097
 50
30.21619828525417
 51
59.78380171475036
  0
ARC
  8
1
 62
3
 10
-80.3602913698866
 20
-177.8910705383467
 30
0
 40
0.6350000000000695
 50
82.54155094368845
 51
97.45844905630004
  0
ARC
  8
1
 62
3
 10
-80.3602913698866
 20
-177.8910705383467
 30
0
 40
1.450000000000179
 50
120.2161982852419
 51
149.7838017147436
  0
ARC
  8
1
 62
3
 10
-80.3602913698866
 20
-177.8910705383467
 30
0
 40
0.634999999999919
 50
172.5415509436737
 51
187.4584490562824
  0
ARC
  8
1
 62
3
 10
-80.3602913698866
 20
-177.8910705383467
 30
0
 40
1.449999999999798
 50
210.2161982852429
 51
239.7838017147502
  0
ARC
  8
1
 62
3
 10
-80.3602913698866
 20
-177.8910705383467
 30
0
 40
0.6349999999996603
 50
262.541550943694
 51
277.4584490563162
  0
ARC
  8
1
 62
3
 10
-80.3602913698866
 20
-177.8910705383467
 30
0
 40
1.449999999999921
 50
300.2161982852556
 51
329.7838017147594
  0
ARC
  8
1
 62
3
 10
-80.3602913698866
 20
-177.8910705383467
 30
0
 40
0.6350000000000253
 50
352.541550943719
 51
7.458449056324262
  0
ARC
  8
1
 62
3
 10
-129.9602913698865
 20
-177.8910705383467
 30
0
 40
0.6349999999996308
 50
352.5415509437143
 51
7.458449056328921
  0
ARC
  8
1
 62
3
 10
-129.9602913698865
 20
-177.8910705383467
 30
0
 40
1.449999999999749
 50
300.216198285244
 51
329.7838017147543
  0
ARC
  8
1
 62
3
 10
-129.9602913698865
 20
-177.8910705383467
 30
0
 40
0.6349999999996934
 50
262.5415509436711
 51
277.4584490562933
  0
ARC
  8
1
 62
3
 10
-129.9602913698865
 20
-177.8910705383467
 30
0
 40
1.450000000000019
 50
210.2161982852377
 51
239.7838017147424
  0
ARC
  8
1
 62
3
 10
-129.9602913698865
 20
-177.8910705383467
 30
0
 40
0.6350000000001725
 50
172.5415509436767
 51
187.4584490562801
  0
ARC
  8
1
 62
3
 10
-129.9602913698865
 20
-177.8910705383467
 30
0
 40
1.450000000000293
 50
120.2161982852497
 51
149.7838017147487
  0
ARC
  8
1
 62
3
 10
-129.9602913698865
 20
-177.8910705383467
 30
0
 40
0.6350000000000363
 50
82.54155094371134
 51
97.45844905632293
  0
ARC
  8
1
 62
3
 10
-129.9602913698865
 20
-177.8910705383467
 30
0
 40
1.449999999999876
 50
30.21619828525926
 51
59.78380171476395
  0
ARC
  8
1
 62
3
 10
-80.3602913698866
 20
-177.8910705383467
 30
0
 40
3.999999999999488
 50
89.99999999999024
 51
270.0000000000098
  0
ARC
  8
1
 62
3
 10
-129.9602913698865
 20
-177.8910705383467
 30
0
 40
4.000000000000512
 50
270
 51
90
  0
ARC
  8
1
 62
3
 10
-80.3602913698866
 20
-208.6910705383467
 30
0
 40
3.999999999999318
 50
89.99999999999024
 51
270.0000000000098
  0
ARC
  8
1
 62
3
 10
-129.9602913698865
 20
-208.6910705383467
 30
0
 40
4.000000000000682
 50
270
 51
90
  0
ARC
  8
1
 62
3
 10
-80.3602913698866
 20
-208.6910705383467
 30
0
 40
3.999999999999318
 50
89.99999999999024
 51
270.0000000000098
  0
ARC
  8
1
 62
3
 10
-80.3602913698866
 20
-177.8910705383467
 30
0
 40
3.999999999999488
 50
89.99999999999024
 51
270.0000000000098
  0
CIRCLE
  8
1
 62
3
 10
-129.9602913698865
 20
-208.6910705383467
 30
0
 40
2.799999999999912
  0
CIRCLE
  8
1
 62
3
 10
-80.3602913698866
 20
-208.6910705383467
 30
0
 40
2.800000000000068
  0
CIRCLE
  8
1
 62
3
 10
-80.3602913698866
 20
-177.8910705383467
 30
0
 40
2.800000000000068
  0
CIRCLE
  8
1
 62
3
 10
-129.9602913698865
 20
-177.8910705383467
 30
0
 40
2.799999999999912
  0
CIRCLE
  8
1
 62
3
 10
-81.59029136988667
 20
-169.7210705383464
 30
0
 40
2.25
  0
CIRCLE
  8
1
 62
3
 10
-105.1602913698867
 20
-193.2910705383466
 30
0
 40
14.50000000000016
  0
CIRCLE
  8
1
 62
3
 10
-105.1602913698867
 20
-193.2910705383466
 30
0
 40
17.5000000000001
  0
CIRCLE
  8
1
 62
3
 10
-105.1602913698867
 20
-193.2910705383466
 30
0
 40
19.05000000000011
  0
CIRCLE
  8
1
 62
3
 10
-80.3602913698866
 20
-177.8910705383467
 30
0
 40
3
  0
CIRCLE
  8
1
 62
3
 10
-129.9602913698865
 20
-177.8910705383467
 30
0
 40
3.000000000000284
  0
CIRCLE
  8
1
 62
3
 10
-80.3602913698866
 20
-208.6910705383467
 30
0
 40
3
  0
CIRCLE
  8
1
 62
3
 10
-129.9602913698865
 20
-208.6910705383467
 30
0
 40
3.000000000000199
  0
CIRCLE
  8
1
 62
3
 10
-105.1602913698867
 20
-193.2910705383466
 30
0
 40
4.75
  0
CIRCLE
  8
1
 62
3
 10
-105.1602913698867
 20
-193.2910705383466
 30
0
 40
3.174999999999798
  0
CIRCLE
  8
1
 62
3
 10
-81.59029136988639
 20
-216.861070538347
 30
0
 40
2.250000000000227
  0
CIRCLE
  8
1
 62
3
 10
-128.7302913698871
 20
-216.861070538347
 30
0
 40
2.249999999999801
  0
CIRCLE
  8
1
 62
3
 10
-128.7302913698869
 20
-169.7210705383464
 30
0
 40
2.25
  0
POLYLINE
  8
1
 62
2
 66
1
  0
VERTEX
  8
1
 10
-63.0329196269707
 20
-274.8641678296921
 30
0
 42
-0.05061855401422485
  0
VERTEX
  8
1
 10
-62.64546494923354
 20
-276.0892833234843
 30
0
 42
-0.0382543040857582
  0
VERTEX
  8
1
 10
-62.48658961864593
 20
-277.3443712661966
 30
0
 42
-0.02340513595688102
  0
VERTEX
  8
1
 10
-62.48331130583382
 20
-278.6205393892121
 30
0
 42
-0.008841615439898969
  0
VERTEX
  8
1
 10
-62.56264768142319
 20
-279.908895423914
 30
0
 42
0.005155631310657794
  0
VERTEX
  8
1
 10
-62.65161641604004
 20
-281.2005471016856
 30
0
 42
0.01931067259207439
  0
VERTEX
  8
1
 10
-62.67723518031031
 20
-282.48660215391
 30
0
 42
0.03398594834980929
  0
VERTEX
  8
1
 10
-62.56652164486005
 20
-283.7581683119705
 30
0
 42
0.04776217521944143
  0
VERTEX
  8
1
 10
-62.24649348031515
 20
-285.0063533072501
 30
0
  0
SEQEND
  8
1
  0
POLYLINE
  8
1
 62
2
 66
1
  0
VERTEX
  8
1
 10
-64.5381474525495
 20
-274.8641678296921
 30
0
 42
-0.05061855401423037
  0
VERTEX
  8
1
 10
-64.15069277481236
 20
-276.0892833234843
 30
0
 42
-0.0382543040857582
  0
VERTEX
  8
1
 10
-63.99181744422474
 20
-277.3443712661966
 30
0
 42
-0.02340513595687546
  0
VERTEX
  8
1
 10
-63.98853913141263
 20
-278.6205393892121
 30
0
 42
-0.008841615439904483
  0
VERTEX
  8
1
 10
-64.06787550700199
 20
-279.908895423914
 30
0
 42
0.005155631310646852
  0
VERTEX
  8
1
 10
-64.15684424161884
 20
-281.2005471016856
 30
0
 42
0.01931067259206888
  0
VERTEX
  8
1
 10
-64.18246300588912
 20
-282.48660215391
 30
0
 42
0.03398594834979268
  0
VERTEX
  8
1
 10
-64.07174947043886
 20
-283.7581683119705
 30
0
 42
0.04776217521941959
  0
VERTEX
  8
1
 10
-63.75172130589395
 20
-285.0063533072501
 30
0
  0
SEQEND
  8
1
  0
ARC
  8
1
 62
3
 10
-130.0483438943552
 20
-209.3636646685959
 30
0
 40
0.04333333333346094
 50
82.54155094365193
 51
134.9999999999734
  0
ARC
  8
1
 62
3
 10
-129.8722388454182
 20
-209.3636646685959
 30
0
 40
0.04333333333331332
 50
45
 51
97.45844905634807
  0
ARC
  8
1
 62
3
 10
-130.632885500136
 20
-208.603018013878
 30
0
 40
0.04333333333337271
 50
352.5415509436746
 51
44.99999999989371
  0
ARC
  8
1
 62
3
 10
-130.632885500136
 20
-208.7791230628149
 30
0
 40
0.04333333333323293
 50
315.0000000001063
 51
7.458449056325448
  0
ARC
  8
1
 62
3
 10
-129.8722388454182
 20
-208.0184764080971
 30
0
 40
0.04333333333346094
 50
262.5415509436519
 51
315
  0
ARC
  8
1
 62
3
 10
-130.0483438943552
 20
-208.0184764080971
 30
0
 40
0.04333333333329322
 50
225.0000000000266
 51
277.4584490563481
  0
ARC
  8
1
 62
3
 10
-129.2876972396373
 20
-208.7791230628149
 30
0
 40
0.0433333333335418
 50
172.5415509437038
 51
224.999999999814
  0
ARC
  8
1
 62
3
 10
-129.2876972396373
 20
-208.603018013878
 30
0
 40
0.04333333333329322
 50
135.000000000186
 51
187.4584490562962
  0
ARC
  8
1
 62
3
 10
-79.68769723963723
 20
-208.603018013878
 30
0
 40
0.04333333333325302
 50
135.0000000001329
 51
187.4584490563352
  0
ARC
  8
1
 62
3
 10
-79.68769723963723
 20
-208.7791230628149
 30
0
 40
0.04333333333331635
 50
172.5415509436648
 51
224.9999999998671
  0
ARC
  8
1
 62
3
 10
-80.44834389435496
 20
-208.0184764080971
 30
0
 40
0.04333333333333342
 50
224.9999999999734
 51
277.4584490562363
  0
ARC
  8
1
 62
3
 10
-80.27223884541806
 20
-208.0184764080971
 30
0
 40
0.04333333333345725
 50
262.5415509436892
 51
315.0000000000266
  0
ARC
  8
1
 62
3
 10
-81.03288550013585
 20
-208.7791230628149
 30
0
 40
0.04333333333325302
 50
315.0000000001328
 51
7.458449056325448
  0
ARC
  8
1
 62
3
 10
-81.03288550013585
 20
-208.603018013878
 30
0
 40
0.04333333333331635
 50
352.5415509436648
 51
44.99999999986714
  0
ARC
  8
1
 62
3
 10
-80.27223884541806
 20
-209.3636646685959
 30
0
 40
0.04333333333333342
 50
44.99999999997343
 51
97.45844905631081
  0
ARC
  8
1
 62
3
 10
-80.44834389435496
 20
-209.3636646685959
 30
0
 40
0.04333333333344987
 50
82.54155094376371
 51
135.0000000000266
  0
ARC
  8
1
 62
3
 10
-80.44834389435496
 20
-177.2184764080972
 30
0
 40
0.04333333333333342
 50
224.9999999999734
 51
277.4584490562558
  0
ARC
  8
1
 62
3
 10
-80.27223884541806
 20
-177.2184764080972
 30
0
 40
0.04333333333345725
 50
262.5415509436892
 51
315.0000000000266
  0
ARC
  8
1
 62
3
 10
-81.03288550013585
 20
-177.9791230628149
 30
0
 40
0.04333333333341381
 50
314.9999999999203
 51
7.458449056335204
  0
ARC
  8
1
 62
3
 10
-81.03288550013585
 20
-177.803018013878
 30
0
 40
0.0433333333333764
 50
352.5415509436373
 51
44.99999999986714
  0
ARC
  8
1
 62
3
 10
-80.27223884541806
 20
-178.5636646685958
 30
0
 40
0.04333333333333342
 50
44.99999999997343
 51
97.45844905631081
  0
ARC
  8
1
 62
3
 10
-80.44834389435496
 20
-178.5636646685958
 30
0
 40
0.04333333333344987
 50
82.54155094376371
 51
135.0000000000266
  0
ARC
  8
1
 62
3
 10
-79.68769723963723
 20
-177.803018013878
 30
0
 40
0.04333333333325302
 50
135.0000000001329
 51
187.4584490563725
  0
ARC
  8
1
 62
3
 10
-79.68769723963723
 20
-177.9791230628149
 30
0
 40
0.04333333333331635
 50
172.5415509436648
 51
225.0000000000797
  0
ARC
  8
1
 62
3
 10
-129.2876972396373
 20
-177.9791230628149
 30
0
 40
0.0433333333335418
 50
172.5415509437038
 51
225.0000000000266
  0
ARC
  8
1
 62
3
 10
-129.2876972396373
 20
-177.803018013878
 30
0
 40
0.04333333333329322
 50
135.000000000186
 51
187.4584490563335
  0
ARC
  8
1
 62
3
 10
-130.0483438943552
 20
-178.5636646685958
 30
0
 40
0.04333333333346094
 50
82.54155094365193
 51
134.9999999999734
  0
ARC
  8
1
 62
3
 10
-129.8722388454182
 20
-178.5636646685958
 30
0
 40
0.04333333333331332
 50
45
 51
97.45844905634807
  0
ARC
  8
1
 62
3
 10
-130.632885500136
 20
-177.803018013878
 30
0
 40
0.0433333333333764
 50
352.5415509436373
 51
44.99999999989371
  0
ARC
  8
1
 62
3
 10
-130.632885500136
 20
-177.9791230628149
 30
0
 40
0.0433333333333937
 50
314.9999999998937
 51
7.458449056325448
  0
ARC
  8
1
 62
3
 10
-129.8722388454182
 20
-177.2184764080972
 30
0
 40
0.04333333333346094
 50
262.5415509436519
 51
315
  0
ARC
  8
1
 62
3
 10
-130.0483438943552
 20
-177.2184764080972
 30
0
 40
0.04333333333329322
 50
225.0000000000266
 51
277.4584490563676
  0
ARC
  8
1
 62
3
 10
-122.278660976452
 20
-219.8900975268147
 30
0
 40
1.999999999999508
 50
224.466049469764
 51
237.2358313640275
  0
ARC
  8
1
 62
3
 10
-88.04192176332101
 20
-219.8900975268147
 30
0
 40
1.999999999999164
 50
302.7641686359674
 51
315.533950530228
  0
ARC
  8
1
 62
3
 10
-89.59029136988643
 20
-223.2910705383475
 30
0
 40
3
 50
270
 51
359.9999999999772
  0
ARC
  8
1
 62
3
 10
-120.7302913698869
 20
-223.2910705383475
 30
0
 40
3
 50
180
 51
270
  0
ARC
  8
1
 62
3
 10
-120.7302913698869
 20
-223.2910705383475
 30
0
 40
3
 50
180
 51
270
  0
ARC
  8
1
 62
3
 10
-89.59029136988643
 20
-223.2910705383475
 30
0
 40
3
 50
270
 51
359.9999999999772
  0
ARC
  8
1
 62
3
 10
-81.16029136988632
 20
-169.2910705383461
 30
0
 40
3.999999999999659
 50
0
 51
90
  0
ARC
  8
1
 62
3
 10
-129.160291369887
 20
-169.2910705383464
 30
0
 40
3.999999999999801
 50
90
 51
180
  0
ARC
  8
1
 62
3
 10
-129.1602913698869
 20
-217.291070538347
 30
0
 40
4
 50
180
 51
270
  0
ARC
  8
1
 62
3
 10
-81.1602913698861
 20
-217.2910705383468
 30
0
 40
3.999999999999801
 50
269.9999999999919
 51
0
  0
ARC
  8
1
 62
3
 10
-78.16029136988655
 20
-172.8910705383466
 30
0
 40
1.000000000000597
 50
270.0000000000391
 51
0
  0
ARC
  8
1
 62
3
 10
-78.16029136988655
 20
-182.8910705383466
 30
0
 40
1.000000000000682
 50
0
 51
89.99999999996092
  0
ARC
  8
1
 62
3
 10
-132.1602913698869
 20
-172.8910705383466
 30
0
 40
0.9999999999998011
 50
180
 51
270
  0
ARC
  8
1
 62
3
 10
-132.1602913698869
 20
-182.8910705383466
 30
0
 40
0.9999999999994031
 50
90
 51
180
  0
ARC
  8
1
 62
3
 10
-78.16029136988587
 20
-213.6910705383474
 30
0
 40
0.9999999999993179
 50
0
 51
90
  0
ARC
  8
1
 62
3
 10
-78.16029136988655
 20
-203.691070538347
 30
0
 40
1.000000000000398
 50
270.0000000000391
 51
0
  0
ARC
  8
1
 62
3
 10
-132.1602913698869
 20
-213.691070538347
 30
0
 40
1.000000000000085
 50
90
 51
180
  0
ARC
  8
1
 62
3
 10
-132.1602913698869
 20
-203.691070538347
 30
0
 40
0.9999999999998011
 50
180
 51
270
  0
ARC
  8
1
 62
3
 10
-87.24945419480936
 20
-291.5111770705101
 30
0
 40
0.2999999999999972
 50
180
 51
270
  0
ARC
  8
1
 62
3
 10
-87.24945419480936
 20
-268.1111770705101
 30
0
 40
0.3000000000000114
 50
90
 51
180
  0
TEXT
  8
1
 62
2
 10
-68.77266611243667
 20
-143.3540754795784
 30
0
 40
5
  1
KH56JM2-951
 41
0.9
  0
ENDSEC
  0
EOF
