  0
SECTION
  2
HEADER
  9
$ACADVER
  1
AC1003
  9
$INSBASE
 10
0.000000
 20
0.000000
  9
$EXTMIN
 10
0.000000
 20
0.000000
  9
$EXTMAX
 10
420.000000
 20
297.000000
  9
$LIMMIN
 10
0.000000
 20
0.000000
  9
$LIMMAX
 10
420.000000
 20
297.000000
  9
$VIEWCTR
 10
210.000000
 20
148.500000
  9
$VIEWSIZE
 40
297.000000
  9
$PEXTMIN
 10
0.000000
 20
0.000000
 30
0.000000
  9
$PEXTMAX
 10
420.000000
 20
297.000000
 30
0.000000
  9
$SNAPMODE
 70
     0
  9
$SNAPUNIT
 10
1.000000
 20
1.000000
  9
$SNAPBASE
 10
0.000000
 20
0.000000
  9
$SNAPANG
 50
0.000000
  9
$SNAPISOPAIR
 70
     0
  9
$SNAPSTYLE
 70
     0
  9
$GRIDMODE
 70
     0
  9
$GRIDUNIT
 10
0.000000
 20
0.000000
  9
$ORTHOMODE
 70
     0
  9
$REGENMODE
 70
     1
  9
$FILLMODE
 70
     1
  9
$QTEXTMODE
 70
     0
  9
$DRAGMODE
 70
     2
  9
$LTSCALE
 40
0.250000
  9
$OSMODE
 70
     0
  9
$ATTMODE
 70
     1
  9
$TEXTSIZE
 40
0.200000
  9
$TRACEWID
 40
0.050000
  9
$TEXTSTYLE
  7
STANDARD
  9
$CLAYER
  8
0
  9
$CELTYPE
  6
BYLAYER
  9
$CECOLOR
 62
   256
  9
$DIMSCALE
 40
1.000000
  9
$DIMASZ
 40
1.000000
  9
$DIMEXO
 40
0.000000
  9
$DIMDLI
 40
0.500000
  9
$DIMRND
 40
0.000000
  9
$DIMDLE
 40
0.000000
  9
$DIMEXE
 40
0.000000
  9
$DIMTP
 40
0.000000
  9
$DIMTM
 40
0.000000
  9
$DIMTXT
 40
0.180000
  9
$DIMCEN
 40
0.000000
  9
$DIMTSZ
 40
0.000000
  9
$DIMTOL
 70
     0
  9
$DIMLIM
 70
     0
  9
$DIMTIH
 70
     1
  9
$DIMTOH
 70
     1
  9
$DIMSE1
 70
     0
  9
$DIMSE2
 70
     0
  9
$DIMTAD
 70
     0
  9
$DIMZIN
 70
     0
  9
$DIMBLK
  1

  9
$DIMASO
 70
     0
  9
$DIMSHO
 70
     0
  9
$DIMPOST
  1

  9
$DIMAPOST
  1

  9
$DIMALT
 70
     0
  9
$DIMALTD
 70
     0
  9
$DIMALTF
 40
25.400000
  9
$DIMLFAC
 40
1.000000
  9
$DIMTOFL
 70
     0
  9
$DIMTVP
 40
0.000000
  9
$DIMTIX
 70
     0
  9
$DIMSOXD
 70
     0
  9
$DIMSAH
 70
     0
  9
$DIMBLKL
  1

  9
$DIMBLKR
  1

  9
$LUNITS
 70
     2
  9
$LUPREC
 70
     2
  9
$AXISMODE
 70
     0
  9
$AXISUNIT
 10
1.000000
 20
1.000000
  9
$SKETCHINC
 40
0.000000
  9
$FILLETRAD
 40
0.000000
  9
$AUNITS
 70
     1
  9
$AUPREC
 70
     2
  9
$MENU
  1
ACAD
  9
$ELEVATION
 40
0.000000
  9
$THICKNESS
 40
0.000000
  9
$VIEWDIR
 10
0.000000
 20
0.000000
 30
1.000000
  9
$LIMCHECK
 70
     1
  9
$BLIPMODE
 70
     1
  9
$CHAMFERA
 40
0.000000
  9
$CHAMFERB
 40
0.000000
  9
$FASTZOOM
 70
     1
  9
$SKPOLY
 70
     0
  9
$TDCREATE
 40
0.000000
  9
$TDUPDATE
 40
0.000000
  9
$TDINDWG
 40
0.000000
  9
$TDUSRTIMER
 40
0.000000
  9
$USRTIMER
 70
     1
  9
$ANGBASE
 50
0.000000
  9
$ANGDIR
 70
     0
  9
$PDMODE
 70
     0
  9
$PDSIZE
 40
0.000000
  9
$PLINEWID
 40
0.000000
  9
$COORDS
 70
     2
  9
$USERI1
 70
     0
  9
$USERI2
 70
     0
  9
$USERI3
 70
     0
  9
$USERI4
 70
     0
  9
$USERI5
 70
     0
  9
$USERR1
 40
0.000000
  9
$USERR2
 40
0.000000
  9
$USERR3
 40
0.000000
  9
$USERR4
 40
0.000000
  9
$USERR5
 40
0.000000
  0
ENDSEC
  0
SECTION
  2
TABLES
  0
TABLE
  2
LTYPE
 70
     5
  0
LTYPE
  2
CONTINUOUS
 70
    64
  3
Solid line
 72
    65
 73
     0
 40
0.0
  0
LTYPE
  2
HIDDEN
 70
    64
  3
------------------------
 72
    65
 73
     2
 40
12.6
 49
8.4
 49
-4.2
  0
LTYPE
  2
DOT
 70
    64
  3
････････････････････････
 72
    65
 73
     2
 40
8.0
 49
6.0
 49
-2.0
  0
LTYPE
  2
DASHDOT
 70
    64
  3
--･--･--･--･--･--･--･--
 72
    65
 73
     4
 40
50.5
 49
30.0
 49
-9.0
 49
2.5
 49
-9.0
  0
LTYPE
  2
DIVIDE
 70
    64
  3
--･･--･･--･･--･･--･･--
 72
    65
 73
     6
 40
58.0
 49
30.0
 49
-9.0
 49
2.5
 49
-5.0
 49
2.5
 49
-9.0
  0
ENDTAB
  0
TABLE
  2
LAYER
 70
4
  0
LAYER
  2
1
 70
64
 62
7
  6
CONTINUOUS
  0
LAYER
  2
2
 70
64
 62
134
  6
CONTINUOUS
  0
LAYER
  2
4
 70
64
 62
54
  6
CONTINUOUS
  0
LAYER
  2
128
 70
64
 62
7
  6
CONTINUOUS
  0
ENDTAB
  0
TABLE
  2
STYLE
 70
     2
  0
STYLE
  2
STANDARD
 70
    64
 40
0.0
 41
1.0
 50
0.0
 71
     0
 42
0.2
  3
TXT
  4

  0
STYLE
  2
KANJI
 70
    64
 40
0.0
 41
1.0
 50
0.0
 71
     0
 42
0.2
  3
TXT
  4
BIGFONT
  0
ENDTAB
  0
TABLE
  2
VIEW
 70
     0
  0
ENDTAB
  0
ENDSEC
  0
SECTION
  2
BLOCKS
  0
ENDSEC
  0
SECTION
  2
ENTITIES
  0
LINE
  8
1
 62
7
  6
DIVIDE
 10
-30.000000
 20
297.000000
 11
-30.073306
 21
297.000000
  0
LINE
  8
1
 62
7
  6
DIVIDE
 10
-30.000000
 20
297.000000
 11
-30.073306
 21
297.000000
  0
LINE
  8
1
 62
7
  6
CONTINUOUS
 10
34.872268
 20
80.109863
 11
34.872268
 21
63.209863
  0
LINE
  8
1
 62
7
  6
CONTINUOUS
 10
100.107341
 20
78.884863
 11
103.607341
 21
78.884863
  0
LINE
  8
1
 62
7
  6
CONTINUOUS
 10
100.107341
 20
79.159863
 11
103.607341
 21
79.159863
  0
LINE
  8
1
 62
7
  6
CONTINUOUS
 10
100.107341
 20
79.434863
 11
103.607341
 21
79.434863
  0
LINE
  8
1
 62
7
  6
CONTINUOUS
 10
100.107341
 20
78.609863
 11
100.107341
 21
79.709863
  0
LINE
  8
1
 62
7
  6
CONTINUOUS
 10
100.107341
 20
75.884863
 11
103.607341
 21
75.884863
  0
LINE
  8
1
 62
7
  6
CONTINUOUS
 10
100.107341
 20
76.159863
 11
103.607341
 21
76.159863
  0
LINE
  8
1
 62
7
  6
CONTINUOUS
 10
100.107341
 20
76.434863
 11
103.607341
 21
76.434863
  0
LINE
  8
1
 62
7
  6
CONTINUOUS
 10
100.107341
 20
75.609863
 11
100.107341
 21
76.709863
  0
LINE
  8
1
 62
7
  6
CONTINUOUS
 10
100.107341
 20
72.884863
 11
103.607341
 21
72.884863
  0
LINE
  8
1
 62
7
  6
CONTINUOUS
 10
100.107341
 20
73.159863
 11
103.607341
 21
73.159863
  0
LINE
  8
1
 62
7
  6
CONTINUOUS
 10
100.107341
 20
73.434863
 11
103.607341
 21
73.434863
  0
LINE
  8
1
 62
7
  6
CONTINUOUS
 10
100.107341
 20
72.609863
 11
100.107341
 21
73.709863
  0
LINE
  8
1
 62
7
  6
CONTINUOUS
 10
100.107341
 20
69.884863
 11
103.607341
 21
69.884863
  0
LINE
  8
1
 62
7
  6
CONTINUOUS
 10
100.107341
 20
70.159863
 11
103.607341
 21
70.159863
  0
LINE
  8
1
 62
7
  6
CONTINUOUS
 10
100.107341
 20
70.434863
 11
103.607341
 21
70.434863
  0
LINE
  8
1
 62
7
  6
CONTINUOUS
 10
100.107341
 20
69.609863
 11
100.107341
 21
70.709863
  0
LINE
  8
1
 62
7
  6
CONTINUOUS
 10
69.722268
 20
79.709863
 11
100.107341
 21
79.709863
  0
LINE
  8
1
 62
7
  6
CONTINUOUS
 10
69.722268
 20
78.609863
 11
100.107341
 21
78.609863
  0
LINE
  8
1
 62
7
  6
CONTINUOUS
 10
69.722268
 20
76.709863
 11
100.107341
 21
76.709863
  0
LINE
  8
1
 62
7
  6
CONTINUOUS
 10
69.722268
 20
75.609863
 11
100.107341
 21
75.609863
  0
LINE
  8
1
 62
7
  6
CONTINUOUS
 10
69.722268
 20
73.709863
 11
100.107341
 21
73.709863
  0
LINE
  8
1
 62
7
  6
CONTINUOUS
 10
69.722268
 20
72.609863
 11
100.107341
 21
72.609863
  0
LINE
  8
1
 62
7
  6
CONTINUOUS
 10
69.722268
 20
69.609863
 11
100.107341
 21
69.609863
  0
LINE
  8
1
 62
7
  6
CONTINUOUS
 10
69.722268
 20
70.709863
 11
100.107341
 21
70.709863
  0
LINE
  8
1
 62
7
  6
CONTINUOUS
 10
39.372268
 20
75.609863
 11
68.722268
 21
75.609863
  0
LINE
  8
1
 62
7
  6
CONTINUOUS
 10
39.372268
 20
76.709863
 11
68.722268
 21
76.709863
  0
LINE
  8
1
 62
7
  6
CONTINUOUS
 10
39.372268
 20
72.609863
 11
68.722268
 21
72.609863
  0
LINE
  8
1
 62
7
  6
CONTINUOUS
 10
39.372268
 20
73.709863
 11
68.722268
 21
73.709863
  0
LINE
  8
1
 62
7
  6
CONTINUOUS
 10
39.372268
 20
69.609863
 11
68.722268
 21
69.609863
  0
LINE
  8
1
 62
7
  6
CONTINUOUS
 10
39.372268
 20
70.709863
 11
68.722268
 21
70.709863
  0
LINE
  8
1
 62
7
  6
CONTINUOUS
 10
39.372268
 20
67.709863
 11
68.722268
 21
67.709863
  0
LINE
  8
1
 62
7
  6
CONTINUOUS
 10
39.372268
 20
66.609863
 11
68.722268
 21
66.609863
  0
LINE
  8
1
 62
7
  6
CONTINUOUS
 10
38.383593
 20
79.159863
 11
38.383593
 21
64.159863
  0
LINE
  8
1
 62
7
  6
CONTINUOUS
 10
39.072268
 20
62.709863
 11
38.772268
 21
62.709863
  0
LINE
  8
1
 62
7
  6
CONTINUOUS
 10
38.772268
 20
62.709863
 11
38.383593
 21
63.209863
  0
LINE
  8
1
 62
7
  6
CONTINUOUS
 10
38.383593
 20
63.209863
 11
36.123174
 21
63.209863
  0
LINE
  8
1
 62
7
  6
CONTINUOUS
 10
38.772268
 20
62.709863
 11
36.123174
 21
62.709863
  0
LINE
  8
1
 62
7
  6
CONTINUOUS
 10
36.123174
 20
62.709863
 11
36.123174
 21
63.209863
  0
LINE
  8
1
 62
7
  6
CONTINUOUS
 10
36.123174
 20
80.609863
 11
38.772268
 21
80.609863
  0
LINE
  8
1
 62
7
  6
CONTINUOUS
 10
36.123174
 20
80.109863
 11
36.123174
 21
80.609863
  0
LINE
  8
1
 62
7
  6
CONTINUOUS
 10
38.772268
 20
80.609863
 11
39.072268
 21
80.609863
  0
LINE
  8
1
 62
7
  6
CONTINUOUS
 10
38.383593
 20
80.109863
 11
38.772268
 21
80.609863
  0
LINE
  8
1
 62
7
  6
CONTINUOUS
 10
38.383593
 20
64.159863
 11
39.072268
 21
64.159863
  0
LINE
  8
1
 62
7
  6
CONTINUOUS
 10
39.072268
 20
79.159863
 11
38.383593
 21
79.159863
  0
LINE
  8
1
 62
7
  6
CONTINUOUS
 10
36.123174
 20
80.109863
 11
38.383593
 21
80.109863
  0
LINE
  8
1
 62
7
  6
CONTINUOUS
 10
36.123174
 20
63.209863
 11
34.572268
 21
63.209863
  0
LINE
  8
1
 62
7
  6
CONTINUOUS
 10
34.572268
 20
63.209863
 11
34.572268
 21
80.109863
  0
LINE
  8
1
 62
7
  6
CONTINUOUS
 10
34.572268
 20
80.109863
 11
36.123174
 21
80.109863
  0
LINE
  8
1
 62
7
  6
CONTINUOUS
 10
39.072268
 20
62.709863
 11
39.072268
 21
80.609863
  0
LINE
  8
1
 62
7
  6
CONTINUOUS
 10
39.072268
 20
78.209863
 11
39.372268
 21
78.209863
  0
LINE
  8
1
 62
7
  6
CONTINUOUS
 10
39.372268
 20
78.209863
 11
39.372268
 21
78.609863
  0
LINE
  8
1
 62
7
  6
CONTINUOUS
 10
39.372268
 20
78.609863
 11
39.072268
 21
78.609863
  0
LINE
  8
1
 62
7
  6
CONTINUOUS
 10
39.072268
 20
76.709863
 11
39.372268
 21
76.709863
  0
LINE
  8
1
 62
7
  6
CONTINUOUS
 10
39.372268
 20
76.709863
 11
39.372268
 21
77.109863
  0
LINE
  8
1
 62
7
  6
CONTINUOUS
 10
39.372268
 20
77.109863
 11
39.072268
 21
77.109863
  0
LINE
  8
1
 62
7
  6
CONTINUOUS
 10
39.072268
 20
75.209863
 11
39.372268
 21
75.209863
  0
LINE
  8
1
 62
7
  6
CONTINUOUS
 10
39.372268
 20
75.209863
 11
39.372268
 21
75.609863
  0
LINE
  8
1
 62
7
  6
CONTINUOUS
 10
39.372268
 20
75.609863
 11
39.072268
 21
75.609863
  0
LINE
  8
1
 62
7
  6
CONTINUOUS
 10
39.072268
 20
73.709863
 11
39.372268
 21
73.709863
  0
LINE
  8
1
 62
7
  6
CONTINUOUS
 10
39.372268
 20
73.709863
 11
39.372268
 21
74.109863
  0
LINE
  8
1
 62
7
  6
CONTINUOUS
 10
39.372268
 20
74.109863
 11
39.072268
 21
74.109863
  0
LINE
  8
1
 62
7
  6
CONTINUOUS
 10
39.072268
 20
72.209863
 11
39.372268
 21
72.209863
  0
LINE
  8
1
 62
7
  6
CONTINUOUS
 10
39.372268
 20
72.209863
 11
39.372268
 21
72.609863
  0
LINE
  8
1
 62
7
  6
CONTINUOUS
 10
39.372268
 20
72.609863
 11
39.072268
 21
72.609863
  0
LINE
  8
1
 62
7
  6
CONTINUOUS
 10
39.072268
 20
70.709863
 11
39.372268
 21
70.709863
  0
LINE
  8
1
 62
7
  6
CONTINUOUS
 10
39.372268
 20
70.709863
 11
39.372268
 21
71.109863
  0
LINE
  8
1
 62
7
  6
CONTINUOUS
 10
39.372268
 20
71.109863
 11
39.072268
 21
71.109863
  0
LINE
  8
1
 62
7
  6
CONTINUOUS
 10
39.072268
 20
69.209863
 11
39.372268
 21
69.209863
  0
LINE
  8
1
 62
7
  6
CONTINUOUS
 10
39.372268
 20
69.209863
 11
39.372268
 21
69.609863
  0
LINE
  8
1
 62
7
  6
CONTINUOUS
 10
39.372268
 20
69.609863
 11
39.072268
 21
69.609863
  0
LINE
  8
1
 62
7
  6
CONTINUOUS
 10
39.072268
 20
67.709863
 11
39.372268
 21
67.709863
  0
LINE
  8
1
 62
7
  6
CONTINUOUS
 10
39.372268
 20
67.709863
 11
39.372268
 21
68.109863
  0
LINE
  8
1
 62
7
  6
CONTINUOUS
 10
39.372268
 20
68.109863
 11
39.072268
 21
68.109863
  0
LINE
  8
1
 62
7
  6
CONTINUOUS
 10
39.072268
 20
66.209863
 11
39.372268
 21
66.209863
  0
LINE
  8
1
 62
7
  6
CONTINUOUS
 10
39.372268
 20
66.209863
 11
39.372268
 21
66.609863
  0
LINE
  8
1
 62
7
  6
CONTINUOUS
 10
39.372268
 20
66.609863
 11
39.072268
 21
66.609863
  0
LINE
  8
1
 62
7
  6
CONTINUOUS
 10
39.072268
 20
64.709863
 11
39.372268
 21
64.709863
  0
LINE
  8
1
 62
7
  6
CONTINUOUS
 10
39.372268
 20
64.709863
 11
39.372268
 21
65.109863
  0
LINE
  8
1
 62
7
  6
CONTINUOUS
 10
39.372268
 20
65.109863
 11
39.072268
 21
65.109863
  0
LINE
  8
1
 62
7
  6
CONTINUOUS
 10
39.372268
 20
63.609863
 11
39.372268
 21
62.709863
  0
LINE
  8
1
 62
7
  6
CONTINUOUS
 10
39.372268
 20
62.709863
 11
39.072268
 21
62.709863
  0
LINE
  8
1
 62
7
  6
CONTINUOUS
 10
39.072268
 20
80.609863
 11
39.372268
 21
80.609863
  0
LINE
  8
1
 62
7
  6
CONTINUOUS
 10
39.372268
 20
80.609863
 11
39.372268
 21
79.709863
  0
LINE
  8
1
 62
7
  6
CONTINUOUS
 10
39.372268
 20
63.609863
 11
39.072268
 21
63.609863
  0
LINE
  8
1
 62
7
  6
CONTINUOUS
 10
39.372268
 20
79.709863
 11
39.072268
 21
79.709863
  0
LINE
  8
1
 62
7
  6
CONTINUOUS
 10
69.722268
 20
62.077856
 11
69.722268
 21
81.269863
  0
LINE
  8
1
 62
7
  6
CONTINUOUS
 10
68.722268
 20
62.077856
 11
68.722268
 21
81.269863
  0
LINE
  8
1
 62
7
  6
CONTINUOUS
 10
100.107341
 20
66.884863
 11
103.607341
 21
66.884863
  0
LINE
  8
1
 62
7
  6
CONTINUOUS
 10
100.107341
 20
67.159863
 11
103.607341
 21
67.159863
  0
LINE
  8
1
 62
7
  6
CONTINUOUS
 10
100.107341
 20
67.434863
 11
103.607341
 21
67.434863
  0
LINE
  8
1
 62
7
  6
CONTINUOUS
 10
100.107341
 20
66.609863
 11
100.107341
 21
67.709863
  0
LINE
  8
1
 62
7
  6
CONTINUOUS
 10
69.722268
 20
66.609863
 11
100.107341
 21
66.609863
  0
LINE
  8
1
 62
7
  6
CONTINUOUS
 10
69.722268
 20
67.709863
 11
100.107341
 21
67.709863
  0
LINE
  8
1
 62
7
  6
CONTINUOUS
 10
100.107341
 20
63.884863
 11
103.607341
 21
63.884863
  0
LINE
  8
1
 62
7
  6
CONTINUOUS
 10
100.107341
 20
64.159863
 11
103.607341
 21
64.159863
  0
LINE
  8
1
 62
7
  6
CONTINUOUS
 10
100.107341
 20
64.434863
 11
103.607341
 21
64.434863
  0
LINE
  8
1
 62
7
  6
CONTINUOUS
 10
100.107341
 20
63.609863
 11
100.107341
 21
64.709863
  0
LINE
  8
1
 62
7
  6
CONTINUOUS
 10
69.722268
 20
63.609863
 11
100.107341
 21
63.609863
  0
LINE
  8
1
 62
7
  6
CONTINUOUS
 10
69.722268
 20
64.709863
 11
100.107341
 21
64.709863
  0
LINE
  8
1
 62
7
  6
CONTINUOUS
 10
39.372268
 20
63.609863
 11
68.722268
 21
63.609863
  0
LINE
  8
1
 62
7
  6
CONTINUOUS
 10
39.372268
 20
64.709863
 11
68.722268
 21
64.709863
  0
LINE
  8
1
 62
7
  6
CONTINUOUS
 10
39.372268
 20
79.709863
 11
68.722268
 21
79.709863
  0
LINE
  8
1
 62
7
  6
CONTINUOUS
 10
39.372268
 20
78.609863
 11
68.722268
 21
78.609863
  0
LINE
  8
1
 62
7
  6
HIDDEN
 10
78.740717
 20
128.175238
 11
78.740717
 21
129.275238
  0
LINE
  8
1
 62
7
  6
HIDDEN
 10
96.740717
 20
128.175238
 11
78.740717
 21
128.175238
  0
LINE
  8
1
 62
7
  6
HIDDEN
 10
96.740717
 20
129.275238
 11
96.740717
 21
128.175238
  0
LINE
  8
1
 62
7
  6
HIDDEN
 10
83.740717
 20
128.175238
 11
83.740717
 21
119.275238
  0
LINE
  8
1
 62
7
  6
HIDDEN
 10
82.740717
 20
128.175238
 11
82.740717
 21
119.275238
  0
LINE
  8
1
 62
7
  6
HIDDEN
 10
91.740717
 20
128.175238
 11
91.740717
 21
119.275238
  0
LINE
  8
1
 62
7
  6
HIDDEN
 10
92.740717
 20
128.175238
 11
92.740717
 21
119.275238
  0
LINE
  8
1
 62
7
  6
CONTINUOUS
 10
96.840717
 20
129.275238
 11
98.240717
 21
129.275238
  0
LINE
  8
1
 62
7
  6
CONTINUOUS
 10
76.157475
 20
173.445941
 11
98.160812
 21
173.445941
  0
LINE
  8
1
 62
7
  6
HIDDEN
 10
88.740717
 20
128.175238
 11
88.740717
 21
119.275238
  0
LINE
  8
1
 62
7
  6
HIDDEN
 10
86.740717
 20
128.175238
 11
86.740717
 21
119.275238
  0
LINE
  8
1
 62
7
  6
CONTINUOUS
 10
68.240717
 20
170.450038
 11
68.240717
 21
133.100338
  0
LINE
  8
1
 62
7
  6
CONTINUOUS
 10
107.240717
 20
170.450038
 11
107.240717
 21
133.100338
  0
LINE
  8
1
 62
7
  6
CONTINUOUS
 10
69.065867
 20
132.275238
 11
106.415517
 21
132.275238
  0
LINE
  8
1
 62
7
  6
CONTINUOUS
 10
69.065867
 20
171.275238
 11
106.415517
 21
171.275238
  0
LINE
  8
2
 62
134
  6
CONTINUOUS
 10
87.740717
 20
176.275238
 11
87.740717
 21
126.075238
  0
LINE
  8
2
 62
134
  6
CONTINUOUS
 10
63.240717
 20
151.775238
 11
112.240717
 21
151.775238
  0
LINE
  8
2
 62
134
  6
CONTINUOUS
 10
74.740717
 20
136.275238
 11
69.740717
 21
136.275238
  0
LINE
  8
2
 62
134
  6
CONTINUOUS
 10
72.240717
 20
138.775238
 11
72.240717
 21
133.775238
  0
LINE
  8
2
 62
134
  6
CONTINUOUS
 10
100.740717
 20
136.275238
 11
105.740717
 21
136.275238
  0
LINE
  8
2
 62
134
  6
CONTINUOUS
 10
103.240717
 20
138.775238
 11
103.240717
 21
133.775238
  0
LINE
  8
2
 62
134
  6
CONTINUOUS
 10
74.740717
 20
167.275238
 11
69.740717
 21
167.275238
  0
LINE
  8
2
 62
134
  6
CONTINUOUS
 10
72.240717
 20
164.775238
 11
72.240717
 21
169.775238
  0
LINE
  8
2
 62
134
  6
CONTINUOUS
 10
100.740717
 20
167.275238
 11
105.740717
 21
167.275238
  0
LINE
  8
2
 62
134
  6
CONTINUOUS
 10
103.240717
 20
164.775238
 11
103.240717
 21
169.775238
  0
LINE
  8
1
 62
7
  6
HIDDEN
 10
85.740717
 20
128.175238
 11
85.740717
 21
119.275238
  0
LINE
  8
1
 62
7
  6
HIDDEN
 10
89.740717
 20
128.175238
 11
89.740717
 21
119.275238
  0
LINE
  8
1
 62
7
  6
CONTINUOUS
 10
76.941272
 20
129.775238
 11
76.624484
 21
129.775238
  0
LINE
  8
1
 62
7
  6
CONTINUOUS
 10
75.018651
 20
131.728196
 11
75.732953
 21
130.322279
  0
LINE
  8
1
 62
7
  6
CONTINUOUS
 10
77.040717
 20
131.275238
 11
77.240717
 21
131.275238
  0
LINE
  8
1
 62
7
  6
CONTINUOUS
 10
77.040717
 20
132.275238
 11
77.040717
 21
129.775238
  0
LINE
  8
1
 62
7
  6
CONTINUOUS
 10
78.740717
 20
129.275238
 11
78.740717
 21
132.275238
  0
LINE
  8
1
 62
7
  6
CONTINUOUS
 10
78.640717
 20
132.275238
 11
78.640717
 21
129.275238
  0
LINE
  8
1
 62
7
  6
CONTINUOUS
 10
78.640717
 20
129.275238
 11
77.240717
 21
129.275238
  0
LINE
  8
1
 62
7
  6
CONTINUOUS
 10
77.240717
 20
129.275238
 11
77.240717
 21
132.275238
  0
LINE
  8
1
 62
7
  6
CONTINUOUS
 10
77.240717
 20
129.775238
 11
76.624484
 21
129.775238
  0
LINE
  8
1
 62
7
  6
CONTINUOUS
 10
96.740717
 20
129.275238
 11
78.740717
 21
129.275238
  0
LINE
  8
1
 62
7
  6
CONTINUOUS
 10
98.856949
 20
129.775238
 11
98.240717
 21
129.775238
  0
LINE
  8
1
 62
7
  6
CONTINUOUS
 10
100.462782
 20
131.728196
 11
99.748480
 21
130.322279
  0
LINE
  8
1
 62
7
  6
CONTINUOUS
 10
98.440717
 20
131.275238
 11
98.240717
 21
131.275238
  0
LINE
  8
1
 62
7
  6
CONTINUOUS
 10
98.440717
 20
129.775238
 11
98.440717
 21
132.275238
  0
LINE
  8
1
 62
7
  6
CONTINUOUS
 10
96.740717
 20
132.275238
 11
96.740717
 21
129.275238
  0
LINE
  8
1
 62
7
  6
CONTINUOUS
 10
96.840717
 20
129.275238
 11
96.840717
 21
132.275238
  0
LINE
  8
1
 62
7
  6
CONTINUOUS
 10
98.240717
 20
132.275238
 11
98.240717
 21
129.275238
  0
LINE
  8
1
 62
7
  6
CONTINUOUS
 10
44.619561
 20
49.598361
 11
92.340705
 21
49.598361
  0
LINE
  8
1
 62
7
  6
HIDDEN
 10
94.740717
 20
128.313039
 11
94.740717
 21
119.413039
  0
LINE
  8
1
 62
7
  6
HIDDEN
 10
95.740717
 20
128.313039
 11
95.740717
 21
119.413039
  0
LINE
  8
1
 62
7
  6
HIDDEN
 10
79.740717
 20
128.175238
 11
79.740717
 21
119.275238
  0
LINE
  8
1
 62
7
  6
HIDDEN
 10
80.740717
 20
128.175238
 11
80.740717
 21
119.275238
  0
LINE
  8
1
 62
7
  6
CONTINUOUS
 10
184.618194
 20
132.275238
 11
184.618194
 21
135.975238
  0
LINE
  8
1
 62
7
  6
CONTINUOUS
 10
183.118194
 20
135.975238
 11
183.118194
 21
132.275238
  0
LINE
  8
1
 62
7
  6
CONTINUOUS
 10
184.618194
 20
171.275238
 11
184.618194
 21
167.575238
  0
LINE
  8
1
 62
7
  6
CONTINUOUS
 10
183.118194
 20
167.575238
 11
183.118194
 21
171.275238
  0
LINE
  8
1
 62
7
  6
CONTINUOUS
 10
190.336384
 20
136.275223
 11
198.088262
 21
136.275238
  0
LINE
  8
1
 62
7
  6
CONTINUOUS
 10
190.336384
 20
167.275238
 11
198.088262
 21
167.275238
  0
LINE
  8
1
 62
7
  6
CONTINUOUS
 10
158.831259
 20
149.275238
 11
172.618194
 21
149.275238
  0
LINE
  8
4
 62
54
  6
CONTINUOUS
 10
185.818194
 20
163.775238
 11
185.818194
 21
167.575238
  0
LINE
  8
4
 62
54
  6
CONTINUOUS
 10
185.018194
 20
163.775238
 11
185.018194
 21
167.575238
  0
LINE
  8
4
 62
54
  6
CONTINUOUS
 10
184.218194
 20
163.775238
 11
184.218194
 21
171.275238
  0
LINE
  8
4
 62
54
  6
CONTINUOUS
 10
183.418194
 20
163.775238
 11
183.418194
 21
171.275238
  0
LINE
  8
4
 62
54
  6
CONTINUOUS
 10
182.618194
 20
163.775238
 11
182.618194
 21
167.575238
  0
LINE
  8
4
 62
54
  6
CONTINUOUS
 10
181.818194
 20
163.775238
 11
181.818194
 21
164.600163
  0
LINE
  8
4
 62
54
  6
CONTINUOUS
 10
185.718194
 20
139.775238
 11
185.718194
 21
135.975238
  0
LINE
  8
4
 62
54
  6
CONTINUOUS
 10
181.718194
 20
139.775238
 11
181.718194
 21
135.975238
  0
LINE
  8
4
 62
54
  6
CONTINUOUS
 10
182.518194
 20
139.775238
 11
182.518194
 21
135.975238
  0
LINE
  8
4
 62
54
  6
CONTINUOUS
 10
183.318194
 20
139.775238
 11
183.318194
 21
132.275238
  0
LINE
  8
4
 62
54
  6
CONTINUOUS
 10
184.918194
 20
139.775238
 11
184.918194
 21
135.975238
  0
LINE
  8
4
 62
54
  6
CONTINUOUS
 10
184.118194
 20
139.775238
 11
184.118194
 21
132.275238
  0
LINE
  8
2
 62
134
  6
CONTINUOUS
 10
152.588394
 20
151.775238
 11
199.259023
 21
151.775238
  0
LINE
  8
4
 62
54
  6
CONTINUOUS
 10
181.018194
 20
165.425338
 11
181.018194
 21
167.575238
  0
LINE
  8
4
 62
54
  6
CONTINUOUS
 10
186.518194
 20
138.125138
 11
186.518194
 21
135.975238
  0
LINE
  8
1
 62
7
  6
CONTINUOUS
 10
195.018194
 20
170.275238
 11
195.018194
 21
130.775238
  0
LINE
  8
1
 62
7
  6
CONTINUOUS
 10
186.618194
 20
135.975238
 11
180.618194
 21
135.975238
  0
LINE
  8
1
 62
7
  6
CONTINUOUS
 10
192.818194
 20
133.525238
 11
192.818194
 21
139.025238
  0
LINE
  8
1
 62
7
  6
CONTINUOUS
 10
192.818194
 20
164.525238
 11
192.818194
 21
170.025238
  0
LINE
  8
1
 62
7
  6
CONTINUOUS
 10
192.818194
 20
170.025238
 11
193.557295
 21
170.025237
  0
LINE
  8
1
 62
7
  6
CONTINUOUS
 10
192.818194
 20
164.525238
 11
193.557295
 21
164.525238
  0
LINE
  8
1
 62
7
  6
CONTINUOUS
 10
186.618194
 20
167.575238
 11
184.618194
 21
167.575238
  0
LINE
  8
1
 62
7
  6
CONTINUOUS
 10
186.618194
 20
167.575238
 11
186.618194
 21
135.975238
  0
LINE
  8
1
 62
7
  6
CONTINUOUS
 10
174.618194
 20
162.275238
 11
174.618194
 21
140.275238
  0
LINE
  8
1
 62
7
  6
CONTINUOUS
 10
191.818195
 20
132.275238
 11
174.618194
 21
132.275238
  0
LINE
  8
1
 62
7
  6
CONTINUOUS
 10
174.618194
 20
132.275238
 11
174.618194
 21
140.275238
  0
LINE
  8
1
 62
7
  6
CONTINUOUS
 10
174.618194
 20
171.275238
 11
174.618194
 21
162.275238
  0
LINE
  8
1
 62
7
  6
CONTINUOUS
 10
194.018194
 20
171.275238
 11
174.618194
 21
171.275238
  0
LINE
  8
1
 62
7
  6
CONTINUOUS
 10
172.618194
 20
162.775238
 11
172.618194
 21
140.775238
  0
LINE
  8
1
 62
7
  6
CONTINUOUS
 10
172.618194
 20
162.775238
 11
174.618194
 21
162.775238
  0
LINE
  8
1
 62
7
  6
CONTINUOUS
 10
172.618194
 20
140.775238
 11
174.618194
 21
140.775238
  0
LINE
  8
1
 62
7
  6
CONTINUOUS
 10
181.618194
 20
167.575238
 11
180.618194
 21
167.575238
  0
LINE
  8
1
 62
7
  6
CONTINUOUS
 10
192.818194
 20
170.275238
 11
192.818194
 21
164.652541
  0
LINE
  8
1
 62
7
  6
CONTINUOUS
 10
193.318194
 20
163.786538
 11
194.518189
 21
163.093666
  0
LINE
  8
1
 62
7
  6
CONTINUOUS
 10
192.818194
 20
133.275238
 11
192.818184
 21
138.897941
  0
LINE
  8
1
 62
7
  6
CONTINUOUS
 10
193.318194
 20
139.763938
 11
194.518180
 21
140.456826
  0
LINE
  8
1
 62
7
  6
CONTINUOUS
 10
192.818194
 20
164.525238
 11
192.818194
 21
170.025238
  0
LINE
  8
1
 62
7
  6
CONTINUOUS
 10
192.818194
 20
133.525238
 11
192.818194
 21
139.025238
  0
LINE
  8
1
 62
7
  6
CONTINUOUS
 10
180.618194
 20
135.975238
 11
180.618194
 21
167.575238
  0
LINE
  8
1
 62
7
  6
CONTINUOUS
 10
172.618194
 20
154.275238
 11
158.831259
 21
154.275238
  0
LINE
  8
1
 62
7
  6
CONTINUOUS
 10
181.618194
 20
167.575238
 11
184.618194
 21
167.575238
  0
LINE
  8
1
 62
7
  6
CONTINUOUS
 10
181.818194
 20
164.600163
 11
181.818194
 21
163.775238
  0
LINE
  8
1
 62
7
  6
CONTINUOUS
 10
183.418194
 20
167.575238
 11
183.418194
 21
160.655495
  0
LINE
  8
1
 62
7
  6
CONTINUOUS
 10
185.018194
 20
167.575238
 11
185.018194
 21
157.295573
  0
LINE
  8
1
 62
7
  6
CONTINUOUS
 10
182.518194
 20
135.975238
 11
182.518194
 21
147.837835
  0
LINE
  8
1
 62
7
  6
CONTINUOUS
 10
184.118194
 20
135.975238
 11
184.118194
 21
143.950269
  0
LINE
  8
1
 62
7
  6
CONTINUOUS
 10
183.318194
 20
135.975238
 11
183.318194
 21
139.775238
  0
LINE
  8
4
 62
54
  6
CONTINUOUS
 10
181.818194
 20
164.600163
 11
181.818194
 21
167.575238
  0
LINE
  8
1
 62
7
  6
CONTINUOUS
 10
181.718194
 20
149.781617
 11
181.718194
 21
138.029457
  0
LINE
  8
1
 62
7
  6
CONTINUOUS
 10
183.318194
 20
145.894052
 11
183.318194
 21
135.975238
  0
LINE
  8
1
 62
7
  6
CONTINUOUS
 10
184.918194
 20
142.006486
 11
184.918194
 21
135.975238
  0
LINE
  8
1
 62
7
  6
CONTINUOUS
 10
182.618194
 20
162.335455
 11
182.618194
 21
167.575238
  0
LINE
  8
1
 62
7
  6
CONTINUOUS
 10
184.218194
 20
158.975534
 11
184.218194
 21
167.575238
  0
LINE
  8
1
 62
7
  6
CONTINUOUS
 10
185.818194
 20
155.615612
 11
185.818194
 21
167.575238
  0
LINE
  8
1
 62
7
  6
CONTINUOUS
 10
158.118194
 20
154.062681
 11
158.118194
 21
149.487794
  0
LINE
  8
1
 62
7
  6
CONTINUOUS
 10
158.118194
 20
149.487794
 11
158.831259
 21
149.275238
  0
LINE
  8
1
 62
7
  6
CONTINUOUS
 10
192.818194
 20
139.025238
 11
193.557295
 21
139.025237
  0
LINE
  8
1
 62
7
  6
CONTINUOUS
 10
192.818194
 20
133.525238
 11
193.557295
 21
133.525238
  0
LINE
  8
1
 62
7
  6
CONTINUOUS
 10
158.831259
 20
149.275238
 11
158.831259
 21
154.275238
  0
LINE
  8
1
 62
7
  6
CONTINUOUS
 10
185.018194
 20
166.965017
 11
185.018194
 21
167.575238
  0
LINE
  8
1
 62
7
  6
CONTINUOUS
 10
186.618194
 20
132.275238
 11
186.618194
 21
129.275238
  0
LINE
  8
1
 62
7
  6
CONTINUOUS
 10
186.618194
 20
129.275238
 11
190.818194
 21
129.275238
  0
LINE
  8
1
 62
7
  6
CONTINUOUS
 10
190.818194
 20
129.275238
 11
190.818194
 21
129.775238
  0
LINE
  8
1
 62
7
  6
CONTINUOUS
 10
186.618194
 20
129.775238
 11
194.018194
 21
129.775238
  0
LINE
  8
1
 62
7
  6
CONTINUOUS
 10
158.831259
 20
154.275238
 11
158.118194
 21
154.062681
  0
LINE
  8
1
 62
7
  6
CONTINUOUS
 10
178.118194
 20
173.445941
 11
189.118194
 21
173.445941
  0
ARC
  8
1
 62
7
  6
CONTINUOUS
 10
87.740717
 20
151.775238
 40
27.000000
 50
133.761744
 51
136.238333
  0
ARC
  8
1
 62
7
  6
CONTINUOUS
 10
87.740717
 20
151.775238
 40
26.999966
 50
43.761667
 51
46.238333
  0
ARC
  8
1
 62
7
  6
CONTINUOUS
 10
87.740717
 20
151.775238
 40
26.999966
 50
-46.238333
 51
-43.761820
  0
ARC
  8
1
 62
7
  6
CONTINUOUS
 10
87.740717
 20
151.775238
 40
27.000035
 50
-136.238180
 51
-133.761744
  0
ARC
  8
1
 62
7
  6
CONTINUOUS
 10
187.818194
 20
167.275238
 40
6.999981
 50
-16.957866
 51
16.957749
  0
ARC
  8
1
 62
7
  6
CONTINUOUS
 10
193.557294
 20
169.025238
 40
0.999999
 50
16.957327
 51
89.999943
  0
ARC
  8
1
 62
7
  6
CONTINUOUS
 10
193.557294
 20
165.525238
 40
1.000000
 50
-89.999943
 51
-16.958144
  0
ARC
  8
1
 62
7
  6
CONTINUOUS
 10
194.018194
 20
170.275238
 40
1.000000
 50
0.000000
 51
90.000000
  0
ARC
  8
1
 62
7
  6
CONTINUOUS
 10
191.818194
 20
170.275238
 40
1.000000
 50
0.000000
 51
89.999943
  0
ARC
  8
1
 62
7
  6
CONTINUOUS
 10
193.818194
 20
164.652538
 40
1.000000
 50
179.999828
 51
-120.000728
  0
ARC
  8
1
 62
7
  6
CONTINUOUS
 10
194.018194
 20
162.227638
 40
1.000000
 50
0.000000
 51
60.000322
  0
ARC
  8
1
 62
7
  6
CONTINUOUS
 10
194.018194
 20
130.775238
 40
1.000000
 50
-90.000000
 51
0.000000
  0
ARC
  8
1
 62
7
  6
CONTINUOUS
 10
191.818194
 20
133.275238
 40
1.000000
 50
-89.999943
 51
0.000000
  0
ARC
  8
1
 62
7
  6
CONTINUOUS
 10
193.818194
 20
138.897938
 40
0.999978
 50
120.000728
 51
179.999828
  0
ARC
  8
1
 62
7
  6
CONTINUOUS
 10
194.018194
 20
141.322838
 40
0.999981
 50
-60.000311
 51
0.000000
  0
ARC
  8
1
 62
7
  6
CONTINUOUS
 10
193.557294
 20
134.525238
 40
1.000000
 50
-89.999943
 51
-16.958144
  0
ARC
  8
1
 62
7
  6
CONTINUOUS
 10
187.818194
 20
136.275238
 40
6.999981
 50
-16.957866
 51
16.957749
  0
ARC
  8
1
 62
7
  6
CONTINUOUS
 10
193.557294
 20
134.525238
 40
1.000000
 50
-89.999943
 51
-16.958144
  0
ARC
  8
1
 62
7
  6
CONTINUOUS
 10
193.557294
 20
138.025238
 40
0.999999
 50
16.957327
 51
89.999943
  0
ARC
  8
1
 62
7
  6
CONTINUOUS
 10
193.557294
 20
134.525238
 40
1.000000
 50
-89.999943
 51
-16.958144
  0
CIRCLE
  8
1
 62
7
  6
CONTINUOUS
 10
87.740717
 20
151.775238
 40
2.500000
  0
CIRCLE
  8
1
 62
7
  6
CONTINUOUS
 10
72.240717
 20
136.275238
 40
1.500000
  0
CIRCLE
  8
1
 62
7
  6
CONTINUOUS
 10
103.240717
 20
136.275238
 40
1.500000
  0
CIRCLE
  8
1
 62
7
  6
CONTINUOUS
 10
72.240717
 20
167.275238
 40
1.500000
  0
CIRCLE
  8
1
 62
7
  6
CONTINUOUS
 10
103.240717
 20
167.275238
 40
1.500000
  0
CIRCLE
  8
4
 62
54
  6
CONTINUOUS
 10
72.240717
 20
136.275238
 40
1.000000
  0
CIRCLE
  8
4
 62
54
  6
CONTINUOUS
 10
103.240717
 20
136.275238
 40
1.000000
  0
CIRCLE
  8
4
 62
54
  6
CONTINUOUS
 10
72.240717
 20
167.275238
 40
1.000000
  0
CIRCLE
  8
4
 62
54
  6
CONTINUOUS
 10
103.240717
 20
167.275238
 40
1.000000
  0
CIRCLE
  8
1
 62
7
  6
CONTINUOUS
 10
87.740717
 20
151.775238
 40
12.500000
  0
CIRCLE
  8
1
 62
7
  6
CONTINUOUS
 10
87.740717
 20
151.775238
 40
11.000000
  0
CIRCLE
  8
1
 62
7
  6
CONTINUOUS
 10
87.740717
 20
151.775238
 40
3.000000
  0
ARC
  8
1
 62
7
  6
CONTINUOUS
 10
74.127119
 20
131.275238
 40
1.000000
 50
26.933677
 51
90.000000
  0
ARC
  8
1
 62
7
  6
CONTINUOUS
 10
76.624484
 20
130.775238
 40
1.000000
 50
-153.066323
 51
-90.000000
  0
ARC
  8
1
 62
7
  6
CONTINUOUS
 10
78.040717
 20
132.275238
 40
1.000000
 50
180.000000
 51
-143.130102
  0
ARC
  8
1
 62
7
  6
CONTINUOUS
 10
101.354314
 20
131.275238
 40
1.000000
 50
90.000000
 51
153.066323
  0
ARC
  8
1
 62
7
  6
CONTINUOUS
 10
98.856949
 20
130.775238
 40
1.000000
 50
-90.000000
 51
-26.933677
  0
ARC
  8
1
 62
7
  6
CONTINUOUS
 10
97.440717
 20
132.275238
 40
1.000000
 50
-36.869898
 51
0.000000
  0
LINE
  8
1
 62
7
  6
CONTINUOUS
 10
228.355802
 20
191.275238
 11
201.792843
 21
191.275238
  0
LINE
  8
1
 62
7
  6
CONTINUOUS
 10
201.792843
 20
191.275238
 11
189.118194
 21
173.445941
  0
LINE
  8
1
 62
7
  6
CONTINUOUS
 10
190.628918
 20
176.298168
 11
191.315652
 21
175.809976
  0
LINE
  8
1
 62
7
  6
CONTINUOUS
 10
191.315652
 20
175.809976
 11
189.118194
 21
173.445941
  0
LINE
  8
1
 62
7
  6
CONTINUOUS
 10
189.118194
 20
173.445941
 11
190.628918
 21
176.298168
  0
TEXT
  8
1
 62
7
  6
CONTINUOUS
 10
129.014690
 20
113.530984
 40
4.000000
 41
0.540000
  1
有効深サ(ＤＥＰＴＨ）　２．５ＭＩＮ
  7
KANJI
 50
0.000975
 51
0.000000
  0
TEXT
  8
1
 62
7
  6
CONTINUOUS
 10
45.043121
 20
50.598361
 40
4.000000
 41
0.900000
  1
付属品：コネクターリード
  7
KANJI
 50
0.000000
 51
0.000000
  0
TEXT
  8
1
 62
7
  6
CONTINUOUS
 10
45.043121
 20
44.553899
 40
3.000000
 41
0.540000
  1
ATTACHMENT:CONNECTOR LEAD
  7
KANJI
 50
0.000000
 51
0.000000
  0
TEXT
  8
1
 62
7
  6
CONTINUOUS
 10
202.548845
 20
186.346750
 40
3.200000
 41
0.720000
  1
ＮＡＭＥ　ＰＬＡＴＥ
  7
KANJI
 50
0.000000
 51
0.000000
  0
TEXT
  8
1
 62
7
  6
CONTINUOUS
 10
201.946594
 20
192.407372
 40
5.000000
 41
0.720000
  1
ネ－ムプレ－ト
  7
KANJI
 50
0.000000
 51
0.000000
  0
LINE
  8
128
 62
7
  6
CONTINUOUS
 10
72.240717
 20
181.275238
 11
103.240717
 21
181.275238
  0
LINE
  8
128
 62
7
  6
CONTINUOUS
 10
103.240717
 20
170.775238
 11
103.240717
 21
182.275238
  0
LINE
  8
128
 62
7
  6
CONTINUOUS
 10
72.240717
 20
170.775238
 11
72.240717
 21
182.275238
  0
LINE
  8
128
 62
7
  6
CONTINUOUS
 10
72.240717
 20
181.275238
 11
75.440717
 21
181.691238
  0
LINE
  8
128
 62
7
  6
CONTINUOUS
 10
75.440717
 20
181.691238
 11
75.440717
 21
180.859238
  0
LINE
  8
128
 62
7
  6
CONTINUOUS
 10
75.440717
 20
180.859238
 11
72.240717
 21
181.275238
  0
LINE
  8
128
 62
7
  6
CONTINUOUS
 10
103.240717
 20
181.275238
 11
100.040717
 21
180.859238
  0
LINE
  8
128
 62
7
  6
CONTINUOUS
 10
100.040717
 20
180.859238
 11
100.040717
 21
181.691238
  0
LINE
  8
128
 62
7
  6
CONTINUOUS
 10
100.040717
 20
181.691238
 11
103.240717
 21
181.275238
  0
TEXT
  8
128
 62
7
  6
CONTINUOUS
 10
81.632717
 20
182.875238
 40
3.200000
 41
0.900000
  1
31
  7
KANJI
 50
0.000000
 51
0.000000
  0
TEXT
  8
128
 62
7
  6
CONTINUOUS
 10
87.072717
 20
183.355238
 40
2.240000
 41
0.900000
  1
±0.2
  7
KANJI
 50
0.000000
 51
0.000000
  0
LINE
  8
128
 62
7
  6
CONTINUOUS
 10
48.240717
 20
132.275238
 11
48.240717
 21
171.275238
  0
LINE
  8
128
 62
7
  6
CONTINUOUS
 10
68.065867
 20
171.275238
 11
47.240717
 21
171.275238
  0
LINE
  8
128
 62
7
  6
CONTINUOUS
 10
68.065867
 20
132.275238
 11
47.240717
 21
132.275238
  0
LINE
  8
128
 62
7
  6
CONTINUOUS
 10
48.240717
 20
171.275238
 11
48.656717
 21
168.075238
  0
LINE
  8
128
 62
7
  6
CONTINUOUS
 10
48.656717
 20
168.075238
 11
47.824717
 21
168.075238
  0
LINE
  8
128
 62
7
  6
CONTINUOUS
 10
47.824717
 20
168.075238
 11
48.240717
 21
171.275238
  0
LINE
  8
128
 62
7
  6
CONTINUOUS
 10
48.240717
 20
132.275238
 11
47.824717
 21
135.475238
  0
LINE
  8
128
 62
7
  6
CONTINUOUS
 10
47.824717
 20
135.475238
 11
48.656717
 21
135.475238
  0
LINE
  8
128
 62
7
  6
CONTINUOUS
 10
48.656717
 20
135.475238
 11
48.240717
 21
132.275238
  0
TEXT
  8
128
 62
7
  6
CONTINUOUS
 10
46.640717
 20
149.375238
 40
3.200000
 41
0.900000
  1
39
  7
KANJI
 50
90.000000
 51
0.000000
  0
TEXT
  8
128
 62
7
  6
CONTINUOUS
 10
46.640717
 20
147.295238
 40
3.200000
 41
0.900000
  1
(
  7
KANJI
 50
90.000000
 51
0.000000
  0
TEXT
  8
128
 62
7
  6
CONTINUOUS
 10
46.640717
 20
155.775238
 40
3.200000
 41
0.900000
  1
)
  7
KANJI
 50
90.000000
 51
0.000000
  0
LINE
  8
128
 62
7
  6
CONTINUOUS
 10
68.240717
 20
191.275238
 11
107.240717
 21
191.275238
  0
LINE
  8
128
 62
7
  6
CONTINUOUS
 10
107.240717
 20
171.450038
 11
107.240717
 21
192.275238
  0
LINE
  8
128
 62
7
  6
CONTINUOUS
 10
68.240717
 20
171.450038
 11
68.240717
 21
192.275238
  0
LINE
  8
128
 62
7
  6
CONTINUOUS
 10
68.240717
 20
191.275238
 11
71.440717
 21
191.691238
  0
LINE
  8
128
 62
7
  6
CONTINUOUS
 10
71.440717
 20
191.691238
 11
71.440717
 21
190.859238
  0
LINE
  8
128
 62
7
  6
CONTINUOUS
 10
71.440717
 20
190.859238
 11
68.240717
 21
191.275238
  0
LINE
  8
128
 62
7
  6
CONTINUOUS
 10
107.240717
 20
191.275238
 11
104.040717
 21
190.859238
  0
LINE
  8
128
 62
7
  6
CONTINUOUS
 10
104.040717
 20
190.859238
 11
104.040717
 21
191.691238
  0
LINE
  8
128
 62
7
  6
CONTINUOUS
 10
104.040717
 20
191.691238
 11
107.240717
 21
191.275238
  0
TEXT
  8
128
 62
7
  6
CONTINUOUS
 10
85.340717
 20
192.875238
 40
3.200000
 41
0.900000
  1
39
  7
KANJI
 50
0.000000
 51
0.000000
  0
TEXT
  8
128
 62
7
  6
CONTINUOUS
 10
83.260717
 20
192.875238
 40
3.200000
 41
0.900000
  1
(
  7
KANJI
 50
0.000000
 51
0.000000
  0
TEXT
  8
128
 62
7
  6
CONTINUOUS
 10
91.740717
 20
192.875238
 40
3.200000
 41
0.900000
  1
)
  7
KANJI
 50
0.000000
 51
0.000000
  0
LINE
  8
128
 62
7
  6
CONTINUOUS
 10
58.240717
 20
136.275238
 11
58.240717
 21
167.275238
  0
LINE
  8
128
 62
7
  6
CONTINUOUS
 10
68.740717
 20
167.275238
 11
57.240717
 21
167.275238
  0
LINE
  8
128
 62
7
  6
CONTINUOUS
 10
68.740717
 20
136.275238
 11
57.240717
 21
136.275238
  0
LINE
  8
128
 62
7
  6
CONTINUOUS
 10
58.240717
 20
167.275238
 11
58.656717
 21
164.075238
  0
LINE
  8
128
 62
7
  6
CONTINUOUS
 10
58.656717
 20
164.075238
 11
57.824717
 21
164.075238
  0
LINE
  8
128
 62
7
  6
CONTINUOUS
 10
57.824717
 20
164.075238
 11
58.240717
 21
167.275238
  0
LINE
  8
128
 62
7
  6
CONTINUOUS
 10
58.240717
 20
136.275238
 11
57.824717
 21
139.475238
  0
LINE
  8
128
 62
7
  6
CONTINUOUS
 10
57.824717
 20
139.475238
 11
58.656717
 21
139.475238
  0
LINE
  8
128
 62
7
  6
CONTINUOUS
 10
58.656717
 20
139.475238
 11
58.240717
 21
136.275238
  0
TEXT
  8
128
 62
7
  6
CONTINUOUS
 10
56.640717
 20
145.667238
 40
3.200000
 41
0.900000
  1
31
  7
KANJI
 50
90.000000
 51
0.000000
  0
TEXT
  8
128
 62
7
  6
CONTINUOUS
 10
56.160717
 20
151.107238
 40
2.240000
 41
0.900000
  1
±0.2
  7
KANJI
 50
90.000000
 51
0.000000
  0
LINE
  8
128
 62
7
  6
CONTINUOUS
 10
135.118194
 20
140.775238
 11
135.118194
 21
162.775238
  0
LINE
  8
128
 62
7
  6
CONTINUOUS
 10
171.618194
 20
162.775238
 11
134.118194
 21
162.775238
  0
LINE
  8
128
 62
7
  6
CONTINUOUS
 10
171.618194
 20
140.775238
 11
134.118194
 21
140.775238
  0
LINE
  8
128
 62
7
  6
CONTINUOUS
 10
135.118194
 20
162.775238
 11
135.534194
 21
159.575238
  0
LINE
  8
128
 62
7
  6
CONTINUOUS
 10
135.534194
 20
159.575238
 11
134.702194
 21
159.575238
  0
LINE
  8
128
 62
7
  6
CONTINUOUS
 10
134.702194
 20
159.575238
 11
135.118194
 21
162.775238
  0
LINE
  8
128
 62
7
  6
CONTINUOUS
 10
135.118194
 20
140.775238
 11
134.702194
 21
143.975238
  0
LINE
  8
128
 62
7
  6
CONTINUOUS
 10
134.702194
 20
143.975238
 11
135.534194
 21
143.975238
  0
LINE
  8
128
 62
7
  6
CONTINUOUS
 10
135.534194
 20
143.975238
 11
135.118194
 21
140.775238
  0
TEXT
  8
128
 62
7
  6
CONTINUOUS
 10
132.318194
 20
146.547238
 40
3.200000
 41
0.900000
  1
22
  7
KANJI
 50
90.000000
 51
0.000000
  0
TEXT
  8
128
 62
7
  6
CONTINUOUS
 10
130.158194
 20
154.739238
 40
2.240000
 41
0.900000
  1
0
  7
KANJI
 50
90.000000
 51
0.000000
  0
TEXT
  8
128
 62
7
  6
CONTINUOUS
 10
133.518194
 20
152.947238
 40
2.240000
 41
0.900000
  1
-0.05
  7
KANJI
 50
90.000000
 51
0.000000
  0
TEXT
  8
128
 62
7
  6
CONTINUOUS
 10
132.318194
 20
142.707238
 40
3.200000
 41
0.900000
  1
φ
  7
KANJI
 50
90.000000
 51
0.000000
  0
LINE
  8
128
 62
7
  6
CONTINUOUS
 10
172.618194
 20
191.275238
 11
160.793227
 21
191.275238
  0
LINE
  8
128
 62
7
  6
CONTINUOUS
 10
172.618194
 20
191.275238
 11
174.618194
 21
191.275238
  0
LINE
  8
128
 62
7
  6
CONTINUOUS
 10
181.018194
 20
191.275238
 11
174.618194
 21
191.275238
  0
LINE
  8
128
 62
7
  6
CONTINUOUS
 10
174.618194
 20
172.275238
 11
174.618194
 21
192.275238
  0
LINE
  8
128
 62
7
  6
CONTINUOUS
 10
172.618194
 20
163.775238
 11
172.618194
 21
192.275238
  0
LINE
  8
128
 62
7
  6
CONTINUOUS
 10
172.618194
 20
191.275238
 11
169.418194
 21
190.859238
  0
LINE
  8
128
 62
7
  6
CONTINUOUS
 10
169.418194
 20
190.859238
 11
169.418194
 21
191.691238
  0
LINE
  8
128
 62
7
  6
CONTINUOUS
 10
169.418194
 20
191.691238
 11
172.618194
 21
191.275238
  0
LINE
  8
128
 62
7
  6
CONTINUOUS
 10
174.618194
 20
191.275238
 11
177.818194
 21
191.691238
  0
LINE
  8
128
 62
7
  6
CONTINUOUS
 10
177.818194
 20
191.691238
 11
177.818194
 21
190.859238
  0
LINE
  8
128
 62
7
  6
CONTINUOUS
 10
177.818194
 20
190.859238
 11
174.618194
 21
191.275238
  0
TEXT
  8
128
 62
7
  6
CONTINUOUS
 10
160.793227
 20
192.875238
 40
3.200000
 41
0.900000
  1
2
  7
KANJI
 50
0.000000
 51
0.000000
  0
TEXT
  8
128
 62
7
  6
CONTINUOUS
 10
164.313227
 20
193.355238
 40
2.240000
 41
0.900000
  1
±0.2
  7
KANJI
 50
0.000000
 51
0.000000
  0
LINE
  8
128
 62
7
  6
CONTINUOUS
 10
174.618194
 20
201.275238
 11
195.018194
 21
201.275238
  0
LINE
  8
128
 62
7
  6
CONTINUOUS
 10
174.618194
 20
172.275238
 11
174.618194
 21
202.275238
  0
LINE
  8
128
 62
7
  6
CONTINUOUS
 10
195.018194
 20
171.275238
 11
195.018194
 21
202.275238
  0
LINE
  8
128
 62
7
  6
CONTINUOUS
 10
195.018194
 20
201.275238
 11
191.818194
 21
200.859238
  0
LINE
  8
128
 62
7
  6
CONTINUOUS
 10
191.818194
 20
200.859238
 11
191.818194
 21
201.691238
  0
LINE
  8
128
 62
7
  6
CONTINUOUS
 10
191.818194
 20
201.691238
 11
195.018194
 21
201.275238
  0
LINE
  8
128
 62
7
  6
CONTINUOUS
 10
174.618194
 20
201.275238
 11
177.818194
 21
201.691238
  0
LINE
  8
128
 62
7
  6
CONTINUOUS
 10
177.818194
 20
201.691238
 11
177.818194
 21
200.859238
  0
LINE
  8
128
 62
7
  6
CONTINUOUS
 10
177.818194
 20
200.859238
 11
174.618194
 21
201.275238
  0
TEXT
  8
128
 62
7
  6
CONTINUOUS
 10
180.255223
 20
202.875238
 40
3.200000
 41
0.900000
  1
20.8
  7
KANJI
 50
0.000000
 51
0.000000
  0
TEXT
  8
128
 62
7
  6
CONTINUOUS
 10
178.175223
 20
202.875238
 40
3.200000
 41
0.900000
  1
(
  7
KANJI
 50
0.000000
 51
0.000000
  0
TEXT
  8
128
 62
7
  6
CONTINUOUS
 10
190.575223
 20
202.875238
 40
3.200000
 41
0.900000
  1
)
  7
KANJI
 50
0.000000
 51
0.000000
  0
LINE
  8
1
 62
7
  6
CONTINUOUS
 10
39.372268
 20
99.709863
 11
103.607341
 21
99.709863
  0
LINE
  8
1
 62
7
  6
CONTINUOUS
 10
103.607341
 20
80.434863
 11
103.607341
 21
101.209863
  0
LINE
  8
1
 62
7
  6
CONTINUOUS
 10
39.372268
 20
81.609863
 11
39.372268
 21
101.209863
  0
LINE
  8
1
 62
7
  6
CONTINUOUS
 10
39.372268
 20
99.709863
 11
42.572268
 21
100.125863
  0
LINE
  8
1
 62
7
  6
CONTINUOUS
 10
42.572268
 20
100.125863
 11
42.572268
 21
99.293863
  0
LINE
  8
1
 62
7
  6
CONTINUOUS
 10
42.572268
 20
99.293863
 11
39.372268
 21
99.709863
  0
LINE
  8
1
 62
7
  6
CONTINUOUS
 10
103.607341
 20
99.709863
 11
100.407341
 21
99.293863
  0
LINE
  8
1
 62
7
  6
CONTINUOUS
 10
100.407341
 20
99.293863
 11
100.407341
 21
100.125863
  0
LINE
  8
1
 62
7
  6
CONTINUOUS
 10
100.407341
 20
100.125863
 11
103.607341
 21
99.709863
  0
TEXT
  8
1
 62
7
  6
CONTINUOUS
 10
63.719181
 20
102.509863
 40
3.200000
 41
0.900000
  1
200
  7
KANJI
 50
0.000000
 51
0.000000
  0
TEXT
  8
1
 62
7
  6
CONTINUOUS
 10
72.999181
 20
104.589863
 40
1.920000
 41
0.900000
  1
+40
  7
KANJI
 50
0.000000
 51
0.000000
  0
TEXT
  8
1
 62
7
  6
CONTINUOUS
 10
74.727181
 20
101.709863
 40
1.920000
 41
0.900000
  1
 0
  7
KANJI
 50
0.000000
 51
0.000000
  0
LINE
  8
1
 62
7
  6
CONTINUOUS
 10
100.107341
 20
89.709863
 11
88.685839
 21
89.709863
  0
LINE
  8
1
 62
7
  6
CONTINUOUS
 10
100.107341
 20
89.709863
 11
103.607341
 21
89.709863
  0
LINE
  8
1
 62
7
  6
CONTINUOUS
 10
110.007341
 20
89.709863
 11
103.607341
 21
89.709863
  0
LINE
  8
1
 62
7
  6
CONTINUOUS
 10
103.607341
 20
80.434863
 11
103.607341
 21
91.209863
  0
LINE
  8
1
 62
7
  6
CONTINUOUS
 10
100.107341
 20
80.709863
 11
100.107341
 21
91.209863
  0
LINE
  8
1
 62
7
  6
CONTINUOUS
 10
100.107341
 20
89.709863
 11
96.907341
 21
89.293863
  0
LINE
  8
1
 62
7
  6
CONTINUOUS
 10
96.907341
 20
89.293863
 11
96.907341
 21
90.125863
  0
LINE
  8
1
 62
7
  6
CONTINUOUS
 10
96.907341
 20
90.125863
 11
100.107341
 21
89.709863
  0
LINE
  8
1
 62
7
  6
CONTINUOUS
 10
103.607341
 20
89.709863
 11
106.807341
 21
90.125863
  0
LINE
  8
1
 62
7
  6
CONTINUOUS
 10
106.807341
 20
90.125863
 11
106.807341
 21
89.293863
  0
LINE
  8
1
 62
7
  6
CONTINUOUS
 10
106.807341
 20
89.293863
 11
103.607341
 21
89.709863
  0
TEXT
  8
1
 62
7
  6
CONTINUOUS
 10
90.765839
 20
91.709863
 40
3.200000
 41
0.900000
  1
3.5
  7
KANJI
 50
0.000000
 51
0.000000
  0
TEXT
  8
1
 62
7
  6
CONTINUOUS
 10
88.685839
 20
91.709863
 40
3.200000
 41
0.900000
  1
(
  7
KANJI
 50
0.000000
 51
0.000000
  0
TEXT
  8
1
 62
7
  6
CONTINUOUS
 10
98.205839
 20
91.709863
 40
3.200000
 41
0.900000
  1
)
  7
KANJI
 50
0.000000
 51
0.000000
  0
LINE
  8
1
 62
7
  6
CONTINUOUS
 10
117.240717
 20
122.875238
 11
117.240717
 21
129.275238
  0
LINE
  8
1
 62
7
  6
CONTINUOUS
 10
117.240717
 20
129.275238
 11
117.240717
 21
132.275238
  0
LINE
  8
1
 62
7
  6
CONTINUOUS
 10
117.240717
 20
132.275238
 11
117.240717
 21
142.149440
  0
LINE
  8
1
 62
7
  6
CONTINUOUS
 10
99.240717
 20
129.275238
 11
118.740717
 21
129.275238
  0
LINE
  8
1
 62
7
  6
CONTINUOUS
 10
107.415517
 20
132.275238
 11
118.740717
 21
132.275238
  0
LINE
  8
1
 62
7
  6
CONTINUOUS
 10
117.240717
 20
132.275238
 11
116.824717
 21
135.475238
  0
LINE
  8
1
 62
7
  6
CONTINUOUS
 10
116.824717
 20
135.475238
 11
117.656717
 21
135.475238
  0
LINE
  8
1
 62
7
  6
CONTINUOUS
 10
117.656717
 20
135.475238
 11
117.240717
 21
132.275238
  0
LINE
  8
1
 62
7
  6
CONTINUOUS
 10
117.240717
 20
129.275238
 11
117.656717
 21
126.075238
  0
LINE
  8
1
 62
7
  6
CONTINUOUS
 10
117.656717
 20
126.075238
 11
116.824717
 21
126.075238
  0
LINE
  8
1
 62
7
  6
CONTINUOUS
 10
116.824717
 20
126.075238
 11
117.240717
 21
129.275238
  0
TEXT
  8
1
 62
7
  6
CONTINUOUS
 10
114.979997
 20
138.149440
 40
3.200000
 41
0.900000
  1
3
  7
KANJI
 50
90.000000
 51
0.000000
  0
TEXT
  8
1
 62
7
  6
CONTINUOUS
 10
114.979997
 20
136.069440
 40
3.200000
 41
0.900000
  1
(
  7
KANJI
 50
90.000000
 51
0.000000
  0
TEXT
  8
1
 62
7
  6
CONTINUOUS
 10
114.979997
 20
141.669440
 40
3.200000
 41
0.900000
  1
)
  7
KANJI
 50
90.000000
 51
0.000000
  0
LINE
  8
1
 62
7
  6
CONTINUOUS
 10
48.240717
 20
138.675238
 11
48.240717
 21
132.275238
  0
LINE
  8
1
 62
7
  6
CONTINUOUS
 10
48.240717
 20
128.175238
 11
48.240717
 21
132.275238
  0
LINE
  8
1
 62
7
  6
CONTINUOUS
 10
48.240717
 20
128.175238
 11
48.240717
 21
114.587217
  0
LINE
  8
1
 62
7
  6
CONTINUOUS
 10
77.740717
 20
128.175238
 11
46.740717
 21
128.175238
  0
LINE
  8
1
 62
7
  6
CONTINUOUS
 10
68.065867
 20
132.275238
 11
46.740717
 21
132.275238
  0
LINE
  8
1
 62
7
  6
CONTINUOUS
 10
48.240717
 20
132.275238
 11
47.824717
 21
135.475238
  0
LINE
  8
1
 62
7
  6
CONTINUOUS
 10
47.824717
 20
135.475238
 11
48.656717
 21
135.475238
  0
LINE
  8
1
 62
7
  6
CONTINUOUS
 10
48.656717
 20
135.475238
 11
48.240717
 21
132.275238
  0
LINE
  8
1
 62
7
  6
CONTINUOUS
 10
48.240717
 20
128.175238
 11
48.656717
 21
124.975238
  0
LINE
  8
1
 62
7
  6
CONTINUOUS
 10
48.656717
 20
124.975238
 11
47.824717
 21
124.975238
  0
LINE
  8
1
 62
7
  6
CONTINUOUS
 10
47.824717
 20
124.975238
 11
48.240717
 21
128.175238
  0
TEXT
  8
1
 62
7
  6
CONTINUOUS
 10
46.240717
 20
119.867217
 40
3.200000
 41
0.900000
  1
4.1
  7
KANJI
 50
90.000000
 51
0.000000
  0
TEXT
  8
1
 62
7
  6
CONTINUOUS
 10
46.240717
 20
114.587217
 40
3.200000
 41
0.900000
  1
※(
  7
KANJI
 50
90.000000
 51
0.000000
  0
TEXT
  8
1
 62
7
  6
CONTINUOUS
 10
46.240717
 20
126.347217
 40
3.200000
 41
0.900000
  1
)
  7
KANJI
 50
90.000000
 51
0.000000
  0
LINE
  8
1
 62
7
  6
CONTINUOUS
 10
145.118194
 20
154.275238
 11
145.118194
 21
179.596606
  0
LINE
  8
1
 62
7
  6
CONTINUOUS
 10
145.118194
 20
149.275238
 11
145.118194
 21
154.275238
  0
LINE
  8
1
 62
7
  6
CONTINUOUS
 10
145.118194
 20
142.875238
 11
145.118194
 21
149.275238
  0
LINE
  8
1
 62
7
  6
CONTINUOUS
 10
157.831259
 20
154.275238
 11
143.618194
 21
154.275238
  0
LINE
  8
1
 62
7
  6
CONTINUOUS
 10
157.831259
 20
149.275238
 11
143.618194
 21
149.275238
  0
LINE
  8
1
 62
7
  6
CONTINUOUS
 10
145.118194
 20
154.275238
 11
144.702194
 21
157.475238
  0
LINE
  8
1
 62
7
  6
CONTINUOUS
 10
144.702194
 20
157.475238
 11
145.534194
 21
157.475238
  0
LINE
  8
1
 62
7
  6
CONTINUOUS
 10
145.534194
 20
157.475238
 11
145.118194
 21
154.275238
  0
LINE
  8
1
 62
7
  6
CONTINUOUS
 10
145.118194
 20
149.275238
 11
145.534194
 21
146.075238
  0
LINE
  8
1
 62
7
  6
CONTINUOUS
 10
145.534194
 20
146.075238
 11
144.702194
 21
146.075238
  0
LINE
  8
1
 62
7
  6
CONTINUOUS
 10
144.702194
 20
146.075238
 11
145.118194
 21
149.275238
  0
TEXT
  8
1
 62
7
  6
CONTINUOUS
 10
142.318194
 20
168.732606
 40
3.200000
 41
0.900000
  1
5
  7
KANJI
 50
90.000000
 51
0.000000
  0
TEXT
  8
1
 62
7
  6
CONTINUOUS
 10
140.238194
 20
172.252606
 40
1.920000
 41
0.900000
  1
 0
  7
KANJI
 50
90.000000
 51
0.000000
  0
TEXT
  8
1
 62
7
  6
CONTINUOUS
 10
143.118194
 20
172.252606
 40
1.920000
 41
0.900000
  1
-0.011
  7
KANJI
 50
90.000000
 51
0.000000
  0
TEXT
  8
1
 62
7
  6
CONTINUOUS
 10
142.318194
 20
165.088161
 40
3.200000
 41
0.900000
  1
φ
  7
KANJI
 50
90.000000
 51
0.000000
  0
LINE
  8
1
 62
7
  6
CONTINUOUS
 10
158.118194
 20
201.275238
 11
174.618194
 21
201.275238
  0
LINE
  8
1
 62
7
  6
CONTINUOUS
 10
174.618194
 20
172.275238
 11
174.618194
 21
202.775238
  0
LINE
  8
1
 62
7
  6
CONTINUOUS
 10
158.118194
 20
155.062681
 11
158.118194
 21
202.775238
  0
LINE
  8
1
 62
7
  6
CONTINUOUS
 10
174.618194
 20
201.275238
 11
171.418194
 21
200.859238
  0
LINE
  8
1
 62
7
  6
CONTINUOUS
 10
171.418194
 20
200.859238
 11
171.418194
 21
201.691238
  0
LINE
  8
1
 62
7
  6
CONTINUOUS
 10
171.418194
 20
201.691238
 11
174.618194
 21
201.275238
  0
LINE
  8
1
 62
7
  6
CONTINUOUS
 10
158.118194
 20
201.275238
 11
161.318194
 21
201.691238
  0
LINE
  8
1
 62
7
  6
CONTINUOUS
 10
161.318194
 20
201.691238
 11
161.318194
 21
200.859238
  0
LINE
  8
1
 62
7
  6
CONTINUOUS
 10
161.318194
 20
200.859238
 11
158.118194
 21
201.275238
  0
TEXT
  8
1
 62
7
  6
CONTINUOUS
 10
158.985663
 20
203.275238
 40
3.200000
 41
0.900000
  1
16.5
  7
KANJI
 50
0.000000
 51
0.000000
  0
TEXT
  8
1
 62
7
  6
CONTINUOUS
 10
168.345663
 20
203.915238
 40
1.920000
 41
0.900000
  1
±0.5
  7
KANJI
 50
0.000000
 51
0.000000
  0
LINE
  8
1
 62
7
  6
CONTINUOUS
 10
184.375770
 20
200.047149
 11
184.375770
 21
174.047149
  0
LINE
  8
1
 62
7
  6
CONTINUOUS
 10
178.375770
 20
174.047149
 11
178.375770
 21
200.047149
  0
LINE
  8
1
 62
7
  6
CONTINUOUS
 10
178.375770
 20
200.047149
 11
184.375770
 21
200.047149
  0
LINE
  8
1
 62
7
  6
CONTINUOUS
 10
181.375770
 20
175.547149
 11
181.375770
 21
178.047149
  0
LINE
  8
1
 62
7
  6
CONTINUOUS
 10
183.875770
 20
177.047149
 11
178.875770
 21
177.047149
  0
LINE
  8
1
 62
7
  6
CONTINUOUS
 10
178.875770
 20
177.047149
 11
181.375770
 21
175.547149
  0
LINE
  8
1
 62
7
  6
CONTINUOUS
 10
178.375770
 20
180.047149
 11
184.375770
 21
180.047149
  0
LINE
  8
1
 62
7
  6
CONTINUOUS
 10
184.375770
 20
174.047149
 11
178.375770
 21
174.047149
  0
TEXT
  8
1
 62
7
  6
CONTINUOUS
 10
189.802589
 20
176.267438
 40
5.000000
 41
0.900000
  1
(   )
  7
KANJI
 50
90.000000
 51
0.000000
  0
TEXT
  8
1
 62
7
  6
CONTINUOUS
 10
186.882942
 20
179.784519
 40
2.000000
 41
0.900000
  1
DIRECTION
  7
KANJI
 50
90.000000
 51
0.000000
  0
TEXT
  8
1
 62
7
  6
CONTINUOUS
 10
189.882942
 20
179.784519
 40
2.000000
 41
0.900000
  1
OF LETTER
  7
KANJI
 50
90.000000
 51
0.000000
  0
TEXT
  8
1
 62
7
  6
CONTINUOUS
 10
183.375770
 20
181.093895
 40
4.000000
 41
0.900000
  1
文字ノ向キ
  7
KANJI
 50
90.000000
 51
0.000000
  0
LINE
  8
1
 62
7
  6
CONTINUOUS
 10
127.167085
 20
119.389607
 11
153.567085
 21
119.389607
  0
LINE
  8
1
 62
7
  6
CONTINUOUS
 10
104.466255
 20
135.410335
 11
127.167085
 21
119.389607
  0
LINE
  8
1
 62
7
  6
CONTINUOUS
 10
104.466255
 20
135.410335
 11
107.320602
 21
133.905092
  0
LINE
  8
1
 62
7
  6
CONTINUOUS
 10
107.320602
 20
133.905092
 11
106.840869
 21
133.225327
  0
LINE
  8
1
 62
7
  6
CONTINUOUS
 10
106.840869
 20
133.225327
 11
104.466255
 21
135.410335
  0
TEXT
  8
1
 62
7
  6
CONTINUOUS
 10
141.647085
 20
121.389607
 40
3.200000
 41
0.900000
  1
3×0.5
  7
KANJI
 50
0.000000
 51
0.000000
  0
TEXT
  8
1
 62
7
  6
CONTINUOUS
 10
132.367085
 20
121.389607
 40
3.200000
 41
0.900000
  1
4-M
  7
KANJI
 50
0.000000
 51
0.000000
  0
LINE
  8
1
 62
7
  6
CONTINUOUS
 10
229.926694
 20
179.500000
 11
230.000000
 21
179.500000
  0
ENDSEC
  0
EOF
