  0
SECTION
  2
HEADER
  9
$ACADVER
  1
AC1009
  9
$INSBASE
 10
0
 20
0
  9
$EXTMIN
 10
30.28929922266724
 20
-16.63691364995781
  9
$EXTMAX
 10
457.1778833203089
 20
319.7026605348697
  9
$LIMMIN
 10
30.28929922266724
 20
-16.63691364995781
  9
$LIMMAX
 10
457.1778833203089
 20
319.7026605348697
  9
$VIEWCTR
 10
10
 20
10
  9
$VIEWSIZE
 40
10
  9
$SNAPMODE
 70
0
  9
$SNAPUNIT
 10
1
 20
1
  9
$SNAPBASE
 10
0
 20
0
  9
$SNAPANG
 50
0
  9
$SNAPSTYLE
 70
0
  9
$SNAPISOPAIR
 70
0
  9
$GRIDMODE
 70
0
  9
$GRIDUNIT
 10
0
 20
0
  9
$ORTHOMODE
 70
0
  9
$REGENMODE
 70
1
  9
$FILLMODE
 70
1
  9
$QTEXTMODE
 70
0
  9
$DRAGMODE
 70
2
  9
$LTSCALE
 40
1
  9
$OSMODE
 70
0
  9
$ATTMODE
 70
1
  9
$TEXTSIZE
 40
3.5
  9
$TRACEWID
 40
0.5
  9
$TEXTSTYLE
  7
STANDARD
  9
$CLAYER
  8
0
  9
$CELTYPE
  6
BYLAYER
  9
$CECOLOR
 62
256
  9
$DIMSCALE
 40
1
  9
$DIMASZ
 40
0.18
  9
$DIMEXO
 40
0.0625
  9
$DIMDLI
 40
0.38
  9
$DIMRND
 40
0
  9
$DIMDLE
 40
0
  9
$DIMEXE
 40
0.18
  9
$DIMTP
 40
0
  9
$DIMTM
 40
0
  9
$DIMTXT
 40
0.18
  9
$DIMCEN
 40
0.09
  9
$DIMTSZ
 40
0
  9
$DIMTOL
 70
0
  9
$DIMLIM
 70
0
  9
$DIMTIH
 70
1
  9
$DIMTOH
 70
1
  9
$DIMSE1
 70
0
  9
$DIMSE2
 70
0
  9
$DIMTAD
 70
0
  9
$DIMZIN
 70
0
  9
$DIMBLK
  1

  9
$DIMASO
 70
1
  9
$DIMSHO
 70
1
  9
$DIMPOST
  1

  9
$DIMAPOST
  1

  9
$DIMALT
 70
0
  9
$DIMALTD
 70
2
  9
$DIMALTF
 40
25.4
  9
$DIMLFAC
 40
1
  9
$DIMTOFL
 70
0
  9
$DIMTVP
 40
0
  9
$DIMTIX
 70
0
  9
$DIMSOXD
 70
0
  9
$DIMSAH
 70
0
  9
$DIMBLK1
  1

  9
$DIMBLK2
  1

  9
$DIMSTYLE
  2
*UNNAMED
  9
$DIMCLRD
 70
0
  9
$DIMCLRE
 70
0
  9
$DIMCLRT
 70
0
  9
$DIMTFAC
 40
1
  9
$DIMGAP
 40
0.09
  9
$LUNITS
 70
2
  9
$LUPREC
 70
4
  9
$AXISMODE
 70
0
  9
$AXISUNIT
 10
0
 20
0
  9
$SKETCHINC
 40
0.1
  9
$FILLETRAD
 40
2
  9
$AUNITS
 70
0
  9
$AUPREC
 70
0
  9
$MENU
  1
ACAD
  9
$ELEVATION
 40
0
  9
$THICKNESS
 40
0
  9
$VIEWDIR
 10
0
 20
0
 30
1
  9
$LIMCHECK
 70
0
  9
$BLIPMODE
 70
1
  9
$CHAMFERA
 40
0
  9
$CHAMFERB
 40
0
  9
$FASTZOOM
 70
1
  9
$SKPOLY
 70
0
  9
$ANGBASE
 50
0
  9
$ANGDIR
 70
0
  9
$PDMODE
 70
0
  9
$PDSIZE
 40
0
  9
$PLINEWID
 40
0
  9
$COORDS
 70
2
  0
ENDSEC
  0
SECTION
  2
TABLES
  0
TABLE
  2
DIMSTYLE
 70
0
  0
ENDTAB
  0
TABLE
  2
LTYPE
 70
9
  0
LTYPE
  2
CONTINUOUS
 70
64
  3
Solid line
 72
65
 73
0
 40
0
  0
LTYPE
  2
BORDER
 70
64
  3
__ __ . __ __ .
 72
65
 73
6
 40
19.65934268870718
 49
5.616955053916338
 49
-2.808477526958169
 49
5.616955053916338
 49
-2.808477526958169
 49
0
 49
-2.808477526958169
  0
LTYPE
  2
CENTER
 70
64
  3
____ _ ____ _
 72
65
 73
4
 40
22.46782021566535
 49
14.04238763479085
 49
-2.808477526958169
 49
2.808477526958169
 49
-2.808477526958169
  0
LTYPE
  2
DASHDOT
 70
64
  3
__ . __ . __ .
 72
65
 73
4
 40
11.23391010783268
 49
5.616955053916338
 49
-2.808477526958169
 49
0
 49
-2.808477526958169
  0
LTYPE
  2
DASHED
 70
64
  3
__ __ __ __ __
 72
65
 73
2
 40
8.425432580874507
 49
5.616955053916338
 49
-2.808477526958169
  0
LTYPE
  2
DIVIDE
 70
64
  3
__ . . __ . . 
 72
65
 73
6
 40
14.04238763479085
 49
5.616955053916338
 49
-2.808477526958169
 49
0
 49
-2.808477526958169
 49
0
 49
-2.808477526958169
  0
LTYPE
  2
DOT
 70
64
  3
..............
 72
65
 73
4
 40
5.616955053916338
 49
0
 49
-2.808477526958169
 49
0
 49
-2.808477526958169
  0
LTYPE
  2
HIDDEN
 70
64
  3
_ _ _ _ _ _ _
 72
65
 73
2
 40
4.212716290437253
 49
2.808477526958169
 49
-1.404238763479085
  0
LTYPE
  2
PHANTOM
 70
64
  3
_____ _ _ _____ _ _ 
 72
65
 73
6
 40
28.08477526958169
 49
14.04238763479085
 49
-2.808477526958169
 49
2.808477526958169
 49
-2.808477526958169
 49
2.808477526958169
 49
-2.808477526958169
  0
ENDTAB
  0
TABLE
  2
LAYER
 70
3
  0
LAYER
  2
1
 70
0
 62
7
  6
CONTINUOUS
  0
LAYER
  2
0
 70
0
 62
7
  6
CONTINUOUS
  0
ENDTAB
  0
TABLE
  2
STYLE
 70
4
  0
STYLE
  2
STANDARD
 70
0
 40
0
 41
1
 50
0
 71
0
 42
3.5
  3
txt
  4

  0
STYLE
  2
SIMPLEX
 70
0
 40
0
 41
1
 50
0
 71
0
 42
3.5
  3
simplex
  4

  0
STYLE
  2
COMPLEX
 70
0
 40
0
 41
1
 50
0
 71
0
 42
3.5
  3
complex
  4

  0
STYLE
  2
ITALIC
 70
0
 40
0
 41
1
 50
0
 71
0
 42
3.5
  3
italic
  4

  0
ENDTAB
  0
TABLE
  2
VIEW
 70
0
  0
ENDTAB
  0
ENDSEC
  0
SECTION
  2
BLOCKS
  0
ENDSEC
  0
SECTION
  2
ENTITIES
  0
LINE
  8
1
 62
3
 10
372.077883320309
 20
143.4096709069608
 30
0
 11
383.077883320309
 21
143.4096709069607
 31
0
  0
LINE
  8
1
 62
3
 10
447.077883320309
 20
143.4096709069608
 30
0
 11
436.077883320309
 21
143.4096709069607
 31
0
  0
LINE
  8
1
 62
3
 10
364.577883320309
 20
150.9096709069608
 30
0
 11
364.577883320309
 21
188.4096709069607
 31
0
  0
LINE
  8
1
 62
3
 10
454.577883320309
 20
225.9096709069608
 30
0
 11
454.577883320309
 21
150.9096709069608
 31
0
  0
LINE
  8
1
 62
3
 10
364.577883320309
 20
188.4096709069607
 30
0
 11
364.577883320309
 21
225.9096709069608
 31
0
  0
LINE
  8
1
 62
3
 10
409.577883320309
 20
233.4096709069607
 30
0
 11
447.077883320309
 21
233.4096709069608
 31
0
  0
LINE
  8
1
 62
3
 10
409.577883320309
 20
233.4096709069607
 30
0
 11
447.077883320309
 21
233.4096709069608
 31
0
  0
LINE
  8
1
 62
3
 10
372.077883320309
 20
233.4096709069608
 30
0
 11
409.577883320309
 21
233.4096709069607
 31
0
  0
LINE
  8
1
 62
3
 10
226.2928891630426
 20
9.460587756174732
 30
0
 11
219.7928891630426
 21
9.460587756174334
 31
0
  0
LINE
  8
1
 62
3
 10
229.7928969012588
 20
11.86058775617442
 30
0
 11
229.7928969012588
 21
12.96058775617443
 31
0
  0
LINE
  8
1
 62
3
 10
226.2928891630426
 20
11.86058775617442
 30
0
 11
229.7928969012588
 21
11.86058775617442
 31
0
  0
LINE
  8
1
 62
3
 10
229.7928969012587
 20
97.06058775617443
 30
0
 11
226.2928891630426
 21
97.06058775617443
 31
0
  0
LINE
  8
1
 62
3
 10
226.2928891630426
 20
99.46058775617465
 30
0
 11
219.7928891630426
 21
99.46058775617465
 31
0
  0
LINE
  8
1
 62
3
 10
229.7928969012587
 20
74.5605877561753
 30
0
 11
233.4928891630426
 21
74.56058775617443
 31
0
  0
LINE
  8
1
 62
3
 10
229.7928969012587
 20
34.36058775617443
 30
0
 11
233.4928891630426
 21
34.36058775617443
 31
0
  0
LINE
  8
1
 62
3
 10
236.3928969012642
 20
62.15195835318642
 30
0
 11
236.8934193581237
 21
61.96058775617442
 31
0
  0
LINE
  8
1
 62
3
 10
236.3928969012642
 20
64.76921715916252
 30
0
 11
236.8934193581237
 21
64.96058775617442
 31
0
  0
LINE
  8
1
 62
3
 10
236.8934193581237
 20
43.96058775617446
 30
0
 11
236.3928969012642
 21
44.15195835318646
 31
0
  0
LINE
  8
1
 62
3
 10
236.3928969012642
 20
46.76921715916262
 30
0
 11
236.8934193581237
 21
46.96058775617442
 31
0
  0
LINE
  8
1
 62
3
 10
236.8928969012642
 20
46.76921715916262
 30
0
 11
236.8934193581237
 21
46.96058775617442
 31
0
  0
LINE
  8
1
 62
3
 10
236.8934193581237
 20
43.96058775617446
 30
0
 11
236.8928969012642
 21
44.15195835318646
 31
0
  0
LINE
  8
1
 62
3
 10
236.8934193581237
 20
46.96058775617442
 30
0
 11
236.8934193581237
 21
43.96058775617446
 31
0
  0
LINE
  8
1
 62
3
 10
236.8928969012642
 20
68.46058775617442
 30
0
 11
236.3928969012642
 21
68.46058775617442
 31
0
  0
LINE
  8
1
 62
3
 10
236.8928969012642
 20
40.46058775617446
 30
0
 11
237.3934193581237
 21
40.46058775617446
 31
0
  0
LINE
  8
1
 62
3
 10
231.3934193581237
 20
68.46058775617442
 30
0
 11
231.3934193581237
 21
40.46058775617446
 31
0
  0
LINE
  8
1
 62
3
 10
237.3934193581237
 20
68.46058775617442
 30
0
 11
236.8928969012642
 21
68.46058775617442
 31
0
  0
LINE
  8
1
 62
3
 10
237.3934193581237
 20
40.46058775617446
 30
0
 11
237.3934193581237
 21
68.46058775617442
 31
0
  0
LINE
  8
1
 62
3
 10
231.3934193581237
 20
40.46058775617446
 30
0
 11
236.3928969012642
 21
40.46058775617446
 31
0
  0
LINE
  8
1
 62
3
 10
236.3928969012642
 20
44.15195835318646
 30
0
 11
236.3928969012642
 21
40.46058775617446
 31
0
  0
LINE
  8
1
 62
3
 10
236.3928969012642
 20
40.46058775617446
 30
0
 11
236.8928969012642
 21
40.46058775617446
 31
0
  0
LINE
  8
1
 62
3
 10
236.3928969012642
 20
46.76921715916262
 30
0
 11
236.3928969012642
 21
62.15195835318642
 31
0
  0
LINE
  8
1
 62
3
 10
236.3928969012642
 20
68.46058775617442
 30
0
 11
231.3934193581237
 21
68.46058775617442
 31
0
  0
LINE
  8
1
 62
3
 10
236.8928969012642
 20
64.76921715916252
 30
0
 11
236.8934193581237
 21
64.96058775617442
 31
0
  0
LINE
  8
1
 62
3
 10
236.8934193581237
 20
61.96058775617442
 30
0
 11
236.8928969012642
 21
62.15195835318641
 31
0
  0
LINE
  8
1
 62
3
 10
236.8934193581237
 20
64.96058775617442
 30
0
 11
236.8934193581237
 21
61.96058775617442
 31
0
  0
LINE
  8
1
 62
3
 10
236.3928969012642
 20
64.76921715916252
 30
0
 11
236.3928969012642
 21
68.46058775617442
 31
0
  0
LINE
  8
1
 62
3
 10
233.4928891630426
 20
68.46058775617442
 30
0
 11
233.4928891630426
 21
94.16057908602693
 31
0
  0
LINE
  8
1
 62
3
 10
234.1928891630416
 20
68.46058775617442
 30
0
 11
234.1928891630413
 21
92.96058775617402
 31
0
  0
LINE
  8
1
 62
3
 10
234.6928891630423
 20
68.46058775617442
 30
0
 11
234.6928891630422
 21
95.56058775617424
 31
0
  0
LINE
  8
1
 62
3
 10
231.3934193581237
 20
69.96058775617439
 30
0
 11
231.3934193581237
 21
38.96058775617453
 31
0
  0
LINE
  8
1
 62
3
 10
231.3928969012587
 20
73.96058775617449
 30
0
 11
229.7928969012587
 21
73.96058775617451
 31
0
  0
LINE
  8
1
 62
3
 10
231.3934193581237
 20
74.16058775617458
 30
0
 11
231.3934193581237
 21
69.96058775617439
 31
0
  0
LINE
  8
1
 62
3
 10
231.3934193581237
 20
69.96058775617439
 30
0
 11
232.1558448201827
 21
69.96058775617468
 31
0
  0
LINE
  8
1
 62
3
 10
233.1934193581236
 20
72.42308775617488
 30
0
 11
233.0184193581237
 21
72.42308775617488
 31
0
  0
LINE
  8
1
 62
3
 10
233.0184193581237
 20
72.42308775617488
 30
0
 11
233.0184193581237
 21
71.69808775617449
 31
0
  0
LINE
  8
1
 62
3
 10
233.0184193581237
 20
71.69808775617449
 30
0
 11
233.1934193581236
 21
71.69808775617449
 31
0
  0
LINE
  8
1
 62
3
 10
232.1558448201827
 20
74.16058775617438
 30
0
 11
231.3934193581237
 21
74.16058775617458
 31
0
  0
LINE
  8
1
 62
3
 10
229.7928969012587
 20
34.96058775617443
 30
0
 11
231.3928969012587
 21
34.96058775617443
 31
0
  0
LINE
  8
1
 62
3
 10
231.3934193581237
 20
38.96058775617453
 30
0
 11
231.3934193581237
 21
34.76058775617435
 31
0
  0
LINE
  8
1
 62
3
 10
182.7928988162783
 20
58.96058775617256
 30
0
 11
183.2928988162783
 21
59.46058775617256
 31
0
  0
LINE
  8
1
 62
1
 10
177.7928988162783
 20
54.46058775617433
 30
0
 11
287.2928891630424
 21
54.46058775617453
 31
0
  0
LINE
  8
1
 62
3
 10
182.7928988162783
 20
54.13717392730902
 30
0
 11
182.7928988162783
 21
49.96058775617624
 31
0
  0
LINE
  8
1
 62
3
 10
182.7928988162783
 20
54.13717392730902
 30
0
 11
182.7928988162783
 21
58.96058775617256
 31
0
  0
LINE
  8
1
 62
2
 10
183.2928988162783
 20
49.46058775617624
 30
0
 11
183.2928988162783
 21
59.46058775617256
 31
0
  0
LINE
  8
1
 62
3
 10
183.2928988162783
 20
49.46058775617624
 30
0
 11
182.7928988162783
 21
49.96058775617624
 31
0
  0
LINE
  8
1
 62
3
 10
183.2928988162782
 20
59.46058775617502
 30
0
 11
216.7928891630426
 21
59.46058775617465
 31
0
  0
LINE
  8
1
 62
3
 10
183.2928988162782
 20
59.46058775617502
 30
0
 11
216.7928891630426
 21
59.46058775617465
 31
0
  0
LINE
  8
1
 62
3
 10
216.7928891630427
 20
49.46058775617493
 30
0
 11
183.2928988162783
 21
49.46058775617624
 31
0
  0
LINE
  8
1
 62
3
 10
219.7928891630426
 20
9.460587756174334
 30
0
 11
220.7928891630429
 21
9.460587756174533
 31
0
  0
LINE
  8
1
 62
3
 10
232.1558448201827
 20
38.96058775617425
 30
0
 11
231.3934193581237
 21
38.96058775617453
 31
0
  0
LINE
  8
1
 62
3
 10
233.0184193581237
 20
36.49808775617404
 30
0
 11
233.1934193581236
 21
36.49808775617404
 31
0
  0
LINE
  8
1
 62
3
 10
233.0184193581237
 20
37.22308775617444
 30
0
 11
233.0184193581237
 21
36.49808775617404
 31
0
  0
LINE
  8
1
 62
3
 10
233.1934193581236
 20
37.22308775617444
 30
0
 11
233.0184193581237
 21
37.22308775617444
 31
0
  0
LINE
  8
1
 62
3
 10
231.3934193581237
 20
34.76058775617435
 30
0
 11
232.1558448201827
 21
34.76058775617454
 31
0
  0
LINE
  8
1
 62
3
 10
234.6928891630424
 20
15.96059642632244
 30
0
 11
234.1928891630422
 21
15.96059642632244
 31
0
  0
LINE
  8
1
 62
3
 10
234.6928891630415
 20
92.96058775617402
 30
0
 11
234.1928891630413
 21
92.96058775617402
 31
0
  0
LINE
  8
1
 62
3
 10
234.1928891630422
 20
15.96059642632244
 30
0
 11
234.1928891630419
 21
40.46058775617446
 31
0
  0
LINE
  8
1
 62
3
 10
229.7928969012587
 20
95.96058775617443
 30
0
 11
229.7928969012588
 21
12.96058775617443
 31
0
  0
LINE
  8
1
 62
3
 10
219.7928891630426
 20
95.96058775617465
 30
0
 11
219.7928891630426
 21
10.80305867193513
 31
0
  0
LINE
  8
1
 62
3
 10
234.6928891630422
 20
13.36058775617462
 30
0
 11
234.6928891630424
 21
15.96059642632244
 31
0
  0
LINE
  8
1
 62
3
 10
236.2928891630422
 20
13.36058775617462
 30
0
 11
234.6928891630422
 21
13.36058775617462
 31
0
  0
LINE
  8
1
 62
3
 10
282.2928891630424
 20
61.77940801395482
 30
0
 11
282.2928891630424
 21
46.86058775617454
 31
0
  0
LINE
  8
1
 62
3
 10
282.2928891630424
 20
47.14176749839413
 30
0
 11
282.2928891630424
 21
46.86058775617454
 31
0
  0
LINE
  8
1
 62
3
 10
281.4928891630422
 20
46.06058775617444
 30
0
 11
281.2928891630424
 21
46.06058775617444
 31
0
  0
LINE
  8
1
 62
3
 10
281.2928891630424
 20
46.06058775617444
 30
0
 11
281.2928891630424
 21
46.96058775617453
 31
0
  0
LINE
  8
1
 62
3
 10
282.2928891630424
 20
62.06058775617424
 30
0
 11
282.2928891630424
 21
61.77940801395482
 31
0
  0
LINE
  8
1
 62
3
 10
281.2928891630424
 20
62.86058775617454
 30
0
 11
281.4928891630422
 21
62.86058775617454
 31
0
  0
LINE
  8
1
 62
3
 10
281.2928891630424
 20
46.96058775617453
 30
0
 11
281.2928891630424
 21
62.86058775617454
 31
0
  0
LINE
  8
1
 62
3
 10
281.2928891630424
 20
63.46058775617433
 30
0
 11
281.2928891630424
 21
46.96058775617453
 31
0
  0
LINE
  8
1
 62
3
 10
234.6928891630424
 20
15.96059642632244
 30
0
 11
234.6928891630423
 21
40.46058775617446
 31
0
  0
LINE
  8
1
 62
3
 10
234.6928891630422
 20
95.56058775617424
 30
0
 11
236.2928891630422
 21
95.56058775617424
 31
0
  0
LINE
  8
1
 62
3
 10
237.2928891630422
 20
14.36058775617462
 30
0
 11
278.6928891630422
 21
14.36058775617454
 31
0
  0
LINE
  8
1
 62
3
 10
281.2928891630424
 20
16.96058775617453
 30
0
 11
281.2928891630424
 21
46.96058775617453
 31
0
  0
LINE
  8
1
 62
3
 10
281.2928891630424
 20
91.96058775617433
 30
0
 11
281.2928891630424
 21
63.46058775617433
 31
0
  0
LINE
  8
1
 62
3
 10
237.2928891630422
 20
94.56058775617424
 30
0
 11
278.6928891630422
 21
94.56058775617424
 31
0
  0
LINE
  8
1
 62
3
 10
233.4928891630426
 20
12.96058775617444
 30
0
 11
233.4928891630426
 21
20.41649869507643
 31
0
  0
LINE
  8
1
 62
3
 10
229.7928969012588
 20
12.96058775617443
 30
0
 11
233.4928891630426
 21
12.96058775617444
 31
0
  0
LINE
  8
1
 62
3
 10
233.4928891630426
 20
20.41649869507643
 30
0
 11
233.4928891630426
 21
40.46058775617446
 31
0
  0
LINE
  8
1
 62
3
 10
216.7928891630426
 20
59.46058775617465
 30
0
 11
216.7928891630426
 21
91.46058775617465
 31
0
  0
LINE
  8
1
 62
3
 10
216.7928891630426
 20
59.46058775617465
 30
0
 11
216.7928891630426
 21
17.46058775617465
 31
0
  0
LINE
  8
1
 62
3
 10
216.7928891630426
 20
17.46058775617465
 30
0
 11
216.7928891630426
 21
13.31058775617473
 31
0
  0
LINE
  8
1
 62
3
 10
217.1428891630424
 20
12.96058775617493
 30
0
 11
216.7928891630426
 21
13.31058775617473
 31
0
  0
LINE
  8
1
 62
3
 10
219.7928891630426
 20
12.96058775617493
 30
0
 11
217.1428891630424
 21
12.96058775617493
 31
0
  0
LINE
  8
1
 62
3
 10
219.7928891630426
 20
12.96058775617493
 30
0
 11
219.7928891630426
 21
9.460587756174334
 31
0
  0
LINE
  8
1
 62
3
 10
217.1428891630424
 20
95.96058775617465
 30
0
 11
216.7928891630426
 21
95.61058775617482
 31
0
  0
LINE
  8
1
 62
3
 10
216.7928891630426
 20
95.61058775617482
 30
0
 11
216.7928891630426
 21
91.46058775617465
 31
0
  0
LINE
  8
1
 62
3
 10
217.1428891630424
 20
95.96058775617465
 30
0
 11
219.7928891630426
 21
95.96058775617465
 31
0
  0
LINE
  8
1
 62
3
 10
219.7928891630426
 20
99.46058775617465
 30
0
 11
219.7928891630426
 21
95.96058775617465
 31
0
  0
LINE
  8
1
 62
3
 10
229.7928969012587
 20
95.96058775617443
 30
0
 11
229.7928969012587
 21
97.06058775617443
 31
0
  0
LINE
  8
1
 62
3
 10
229.7928969012587
 20
95.96058775617443
 30
0
 11
233.4928891630426
 21
95.96058775617443
 31
0
  0
LINE
  8
1
 62
3
 10
233.4928891630426
 20
95.96058775617443
 30
0
 11
233.4928891630426
 21
94.16057908602693
 31
0
  0
LINE
  8
1
 62
3
 10
226.2928891630426
 20
99.46058775617465
 30
0
 11
226.2928891630426
 21
9.460587756174732
 31
0
  0
LINE
  8
1
 62
3
 10
226.2928891630426
 20
22.31058775617484
 30
0
 11
227.7928891630426
 21
22.31058775617484
 31
0
  0
LINE
  8
1
 62
3
 10
227.7928891630426
 20
13.11058775617482
 30
0
 11
226.2928891630426
 21
13.11058775617482
 31
0
  0
LINE
  8
1
 62
3
 10
227.7928891630426
 20
22.31058775617484
 30
0
 11
227.7928891630426
 21
13.11058775617482
 31
0
  0
LINE
  8
1
 62
3
 10
227.7928891630426
 20
95.81058775617714
 30
0
 11
227.7928891630426
 21
86.61058775617724
 31
0
  0
LINE
  8
1
 62
3
 10
227.7928891630426
 20
95.81058775617714
 30
0
 11
226.2928891630426
 21
95.81058775617714
 31
0
  0
LINE
  8
1
 62
3
 10
227.7928891630426
 20
86.61058775617724
 30
0
 11
226.2928891630426
 21
86.61058775617724
 31
0
  0
LINE
  8
1
 62
3
 10
229.7928969012587
 20
82.46058775617485
 30
0
 11
226.2928891630426
 21
82.46058775617485
 31
0
  0
LINE
  8
1
 62
3
 10
229.7928969012587
 20
26.46058775617442
 30
0
 11
226.2928891630426
 21
26.46058775617442
 31
0
  0
LINE
  8
1
 62
1
 10
446.327883320309
 20
145.6796709069604
 30
0
 11
446.327883320309
 21
157.6396709069602
 31
0
  0
LINE
  8
1
 62
1
 10
440.3478833203092
 20
151.6596709069604
 30
0
 11
452.3078833203088
 21
151.6596709069603
 31
0
  0
LINE
  8
1
 62
1
 10
446.327883320309
 20
219.1796709069605
 30
0
 11
446.327883320309
 21
231.1396709069601
 31
0
  0
LINE
  8
1
 62
1
 10
440.3478833203092
 20
225.1596709069603
 30
0
 11
452.3078833203088
 21
225.1596709069603
 31
0
  0
LINE
  8
1
 62
1
 10
372.827883320309
 20
219.1796709069605
 30
0
 11
372.827883320309
 21
231.1396709069603
 31
0
  0
LINE
  8
1
 62
1
 10
366.8478833203092
 20
225.1596709069605
 30
0
 11
378.8078833203088
 21
225.1596709069605
 31
0
  0
LINE
  8
1
 62
1
 10
372.827883320309
 20
145.6796709069606
 30
0
 11
372.827883320309
 21
157.6396709069602
 31
0
  0
LINE
  8
1
 62
1
 10
366.8478833203092
 20
151.6596709069604
 30
0
 11
378.8078833203088
 21
151.6596709069604
 31
0
  0
LINE
  8
1
 62
3
 10
423.2646688410148
 20
206.3721991906672
 30
0
 11
423.2646688410148
 21
216.3721991906672
 31
0
  0
LINE
  8
1
 62
3
 10
422.2646688410148
 20
217.3721991906672
 30
0
 11
396.2646688410148
 21
217.3721991906672
 31
0
  0
LINE
  8
1
 62
3
 10
395.2646688410148
 20
216.3721991906672
 30
0
 11
395.2646688410148
 21
206.3721991906672
 31
0
  0
LINE
  8
1
 62
3
 10
396.2646688410148
 20
205.3721991906672
 30
0
 11
422.2646688410148
 21
205.3721991906672
 31
0
  0
LINE
  8
1
 62
3
 10
390.077883320309
 20
152.2301186709252
 30
0
 11
390.077883320309
 21
143.5096844724089
 31
0
  0
LINE
  8
1
 62
3
 10
429.577883320309
 20
152.036603948014
 30
0
 11
429.577883320309
 21
152.5041003085145
 31
0
  0
LINE
  8
1
 62
3
 10
389.577883320309
 20
152.036603948014
 30
0
 11
389.577883320309
 21
152.5041003085145
 31
0
  0
LINE
  8
1
 62
3
 10
389.577883320309
 20
150.2656987993711
 30
0
 11
389.577883320309
 21
152.036603948014
 31
0
  0
LINE
  8
1
 62
3
 10
429.577883320309
 20
152.036603948014
 30
0
 11
429.577883320309
 21
149.9945401588789
 31
0
  0
LINE
  8
1
 62
3
 10
429.577883320309
 20
149.9945401588789
 30
0
 11
429.577883320309
 21
147.9096844724087
 31
0
  0
LINE
  8
1
 62
3
 10
429.077883320309
 20
143.5096844724089
 30
0
 11
429.077883320309
 21
152.2301186709252
 31
0
  0
LINE
  8
1
 62
3
 10
429.077883320309
 20
139.4096709069594
 30
0
 11
429.077883320309
 21
142.309684472409
 31
0
  0
LINE
  8
1
 62
3
 10
423.9778833203091
 20
138.4096709069594
 30
0
 11
428.077883320309
 21
138.4096709069594
 31
0
  0
LINE
  8
1
 62
3
 10
391.0778833203082
 20
138.4096709069594
 30
0
 11
395.9778833203091
 21
138.4096709069594
 31
0
  0
LINE
  8
1
 62
3
 10
390.077883320309
 20
142.309684472409
 30
0
 11
390.077883320309
 21
139.4096709069603
 31
0
  0
LINE
  8
1
 62
3
 10
389.577883320309
 20
147.9096844724089
 30
0
 11
389.577883320309
 21
150.2656987993711
 31
0
  0
LINE
  8
1
 62
3
 10
392.5032927643982
 20
142.0075300829725
 30
0
 11
392.0633444171683
 21
142.4474784302026
 31
0
  0
LINE
  8
1
 62
3
 10
391.4524769715578
 20
142.0075300829725
 30
0
 11
391.8924253187877
 21
142.4474784302026
 31
0
  0
LINE
  8
1
 62
3
 10
392.8800392574144
 20
143.4350923688292
 30
0
 11
392.4400909101843
 21
142.9951440215994
 31
0
  0
LINE
  8
1
 62
3
 10
392.8800392574144
 20
142.3842765759888
 30
0
 11
392.4400909101843
 21
142.8242249232186
 31
0
  0
LINE
  8
1
 62
3
 10
391.8924253187877
 20
143.3718905146156
 30
0
 11
391.8880081549175
 21
143.3763076784859
 31
0
  0
LINE
  8
1
 62
3
 10
391.8880081549175
 20
143.3763076784859
 30
0
 11
391.4524769715578
 21
143.8118388618455
 31
0
  0
LINE
  8
1
 62
3
 10
392.5032927643982
 20
143.8118388618455
 30
0
 11
392.0633444171681
 21
143.3718905146156
 31
0
  0
LINE
  8
1
 62
3
 10
391.0757304785416
 20
142.3842765759888
 30
0
 11
391.5156788257714
 21
142.8242249232186
 31
0
  0
LINE
  8
1
 62
3
 10
391.0757304785416
 20
143.4350923688292
 30
0
 11
391.5156788257714
 21
142.9951440215994
 31
0
  0
LINE
  8
1
 62
3
 10
427.703289669061
 20
142.0075300829725
 30
0
 11
427.2633413218311
 21
142.4474784302026
 31
0
  0
LINE
  8
1
 62
3
 10
426.6524738762206
 20
142.0075300829725
 30
0
 11
427.0924222234505
 21
142.4474784302026
 31
0
  0
LINE
  8
1
 62
3
 10
428.0800361620772
 20
143.4350923688292
 30
0
 11
427.6400878148472
 21
142.9951440215994
 31
0
  0
LINE
  8
1
 62
3
 10
428.0800361620772
 20
142.3842765759888
 30
0
 11
427.6400878148472
 21
142.8242249232186
 31
0
  0
LINE
  8
1
 62
3
 10
427.0924222234505
 20
143.3718905146156
 30
0
 11
427.0880050595803
 21
143.3763076784859
 31
0
  0
LINE
  8
1
 62
3
 10
427.0880050595803
 20
143.3763076784859
 30
0
 11
426.6524738762206
 21
143.8118388618455
 31
0
  0
LINE
  8
1
 62
3
 10
427.703289669061
 20
143.8118388618455
 30
0
 11
427.263341321831
 21
143.3718905146156
 31
0
  0
LINE
  8
1
 62
3
 10
426.2757273832044
 20
142.3842765759888
 30
0
 11
426.7156757304342
 21
142.8242249232186
 31
0
  0
LINE
  8
1
 62
3
 10
426.2757273832044
 20
143.4350923688292
 30
0
 11
426.7156757304342
 21
142.9951440215994
 31
0
  0
LINE
  8
1
 62
3
 10
423.9778833203091
 20
137.9096709069599
 30
0
 11
423.9778833203091
 21
140.8779408561046
 31
0
  0
LINE
  8
1
 62
3
 10
395.9778833203091
 20
140.8779408561046
 30
0
 11
395.9778833203091
 21
137.9096709069599
 31
0
  0
LINE
  8
1
 62
3
 10
395.9778833203091
 20
146.2096709069599
 30
0
 11
423.9778833203091
 21
146.2096709069598
 31
0
  0
LINE
  8
1
 62
3
 10
423.9778833203091
 20
146.2096709069598
 30
0
 11
423.9778833203091
 21
136.2096709069598
 31
0
  0
LINE
  8
1
 62
3
 10
423.9778833203091
 20
136.2096709069598
 30
0
 11
395.9778833203091
 21
136.2096709069599
 31
0
  0
LINE
  8
1
 62
3
 10
395.9778833203091
 20
136.2096709069599
 30
0
 11
395.9778833203091
 21
146.2096709069599
 31
0
  0
LINE
  8
1
 62
3
 10
405.1778833203093
 20
230.6096727493894
 30
0
 11
413.9778833203092
 21
230.6096727493894
 31
0
  0
LINE
  8
1
 62
3
 10
414.4778833203092
 20
230.1096727493894
 30
0
 11
414.4778833203092
 21
229.216533074983
 31
0
  0
LINE
  8
1
 62
3
 10
404.6778833203093
 20
230.1096727493894
 30
0
 11
404.6778833203093
 21
229.216533074983
 31
0
  0
LINE
  8
1
 62
3
 10
430.7278833203091
 20
136.25967090696
 30
0
 11
430.7278833203091
 21
139.4096709069607
 31
0
  0
LINE
  8
1
 62
3
 10
388.4278833203089
 20
136.2596709069605
 30
0
 11
388.4278833203089
 21
139.4096709069607
 31
0
  0
LINE
  8
1
 62
3
 10
429.7278833203091
 20
135.25967090696
 30
0
 11
389.4278833203089
 21
135.2596709069605
 31
0
  0
LINE
  8
1
 62
3
 10
383.077883320309
 20
143.4096709069607
 30
0
 11
384.4278833203089
 21
143.4096709069607
 31
0
  0
LINE
  8
1
 62
3
 10
436.077883320309
 20
143.4096709069607
 30
0
 11
434.7278833203091
 21
143.4096709069607
 31
0
  0
LINE
  8
1
 62
3
 10
415.277883320309
 20
229.5999610248996
 30
0
 11
415.277883320309
 21
229.1124963617122
 31
0
  0
LINE
  8
1
 62
3
 10
403.8778833203091
 20
229.5999610248998
 30
0
 11
403.8778833203091
 21
229.1124963617122
 31
0
  0
LINE
  8
1
 62
3
 10
450.6778833203089
 20
160.4096709069604
 30
0
 11
446.077883320309
 21
160.4096709069604
 31
0
  0
LINE
  8
1
 62
3
 10
437.577883320309
 20
151.9096709069604
 30
0
 11
437.577883320309
 21
144.9096709069607
 31
0
  0
LINE
  8
1
 62
3
 10
381.577883320309
 20
144.9096709069607
 30
0
 11
381.577883320309
 21
151.9096709069604
 31
0
  0
LINE
  8
1
 62
3
 10
373.077883320309
 20
160.4096709069604
 30
0
 11
368.4778833203089
 21
160.4096709069604
 31
0
  0
LINE
  8
1
 62
3
 10
366.9778833203089
 20
161.9096709069604
 30
0
 11
366.9778833203089
 21
214.9096709069605
 31
0
  0
LINE
  8
1
 62
3
 10
368.4778833203089
 20
216.4096709069605
 30
0
 11
373.077883320309
 21
216.4096709069605
 31
0
  0
LINE
  8
1
 62
3
 10
381.577883320309
 20
224.9096709069605
 30
0
 11
381.577883320309
 21
229.5096709069605
 31
0
  0
LINE
  8
1
 62
3
 10
436.077883320309
 20
231.0096709069605
 30
0
 11
383.077883320309
 21
231.0096709069605
 31
0
  0
LINE
  8
1
 62
3
 10
437.577883320309
 20
229.5096709069605
 30
0
 11
437.577883320309
 21
224.9096709069605
 31
0
  0
LINE
  8
1
 62
3
 10
446.077883320309
 20
216.4096709069605
 30
0
 11
450.6778833203089
 21
216.4096709069605
 31
0
  0
LINE
  8
1
 62
3
 10
452.1778833203089
 20
161.9096709069604
 30
0
 11
452.1778833203089
 21
214.9096709069605
 31
0
  0
LINE
  8
1
 62
1
 10
457.1778833203089
 20
188.4096709069605
 30
0
 11
361.9778833203089
 21
188.4096709069604
 31
0
  0
LINE
  8
1
 62
1
 10
409.577883320309
 20
132.2596709069602
 30
0
 11
409.577883320309
 21
235.9638594104847
 31
0
  0
LINE
  8
1
 62
1
 10
409.577883320309
 20
142.8426984298964
 30
0
 11
409.577883320309
 21
236.0096709069605
 31
0
  0
LINE
  8
1
 62
1
 10
455.8991867574911
 20
188.4096709069604
 30
0
 11
363.2569849226289
 21
188.4096709069604
 31
0
  0
LINE
  8
1
 62
3
 10
233.358525409291
 20
300.3809424331968
 30
0
 11
215.4679449566759
 21
300.3809424331968
 31
0
  0
LINE
  8
1
 62
3
 10
233.5316343918962
 20
301.3809424331968
 30
0
 11
215.4679449566759
 21
301.3809424331968
 31
0
  0
LINE
  8
1
 62
3
 10
233.1463692409246
 20
302.3809424331968
 30
0
 11
215.4679449566759
 21
302.3809424331968
 31
0
  0
LINE
  8
1
 62
3
 10
232.4779224082629
 20
303.33209123978
 30
0
 11
210.7722716489761
 21
303.2801244065187
 31
0
  0
LINE
  8
1
 62
3
 10
231.8808850108331
 20
304.3809424331968
 30
0
 11
211.794391900247
 21
304.3809424331968
 31
0
  0
LINE
  8
1
 62
3
 10
231.7815710123436
 20
305.3809424331968
 30
0
 11
215.4679449566759
 21
305.3809424331968
 31
0
  0
LINE
  8
1
 62
3
 10
232.0502339340514
 20
306.3809424331968
 30
0
 11
215.4679449566759
 21
306.3809424331968
 31
0
  0
LINE
  8
1
 62
3
 10
232.541063717414
 20
307.3809424331968
 30
0
 11
215.4679449566759
 21
307.3809424331968
 31
0
  0
LINE
  8
1
 62
3
 10
232.8856889819151
 20
299.3809424331968
 30
0
 11
215.4679449566759
 21
299.3809424331968
 31
0
  0
LINE
  8
1
 62
3
 10
233.1368899746851
 20
308.3809424331968
 30
0
 11
215.4679449566759
 21
308.3809424331968
 31
0
  0
LINE
  8
1
 62
3
 10
252.8822240933658
 20
308.3809424331968
 30
0
 11
233.9981505213261
 21
308.3809424331968
 31
0
  0
LINE
  8
1
 62
3
 10
252.8822240933658
 20
307.3809424331968
 30
0
 11
233.2231523501816
 21
307.3809424331968
 31
0
  0
LINE
  8
1
 62
3
 10
252.8822240933658
 20
306.3809424331968
 30
0
 11
232.651697235102
 21
306.3809424331968
 31
0
  0
LINE
  8
1
 62
3
 10
252.8822240933658
 20
305.3809424331968
 30
0
 11
232.4909445647041
 21
305.3809424331968
 31
0
  0
LINE
  8
1
 62
3
 10
252.8822240933658
 20
302.3809424331968
 30
0
 11
234.1719651394015
 21
302.3809424331968
 31
0
  0
LINE
  8
1
 62
3
 10
252.8822240933658
 20
301.3809424331968
 30
0
 11
234.4646666507571
 21
301.3809424331968
 31
0
  0
LINE
  8
1
 62
3
 10
252.8822240933658
 20
300.3809424331968
 30
0
 11
234.2362945779888
 21
300.3809424331968
 31
0
  0
LINE
  8
1
 62
3
 10
252.8822240933658
 20
299.3809424331968
 30
0
 11
233.7110636724461
 21
299.3809424331968
 31
0
  0
LINE
  8
1
 62
3
 10
187.5679449566759
 20
315.3809424331968
 30
0
 11
187.5679449566759
 21
292.3809424331968
 31
0
  0
LINE
  8
1
 62
3
 10
187.5679449566759
 20
292.3809424331968
 30
0
 11
195.4679449566759
 21
292.3809424331968
 31
0
  0
LINE
  8
1
 62
3
 10
195.4679449566759
 20
315.3809424331968
 30
0
 11
187.5679449566759
 21
315.3809424331968
 31
0
  0
LINE
  8
1
 62
3
 10
272.8822240933658
 20
317.8809424331968
 30
0
 11
272.8822240933658
 21
289.8809424331968
 31
0
  0
LINE
  8
1
 62
3
 10
272.8822240933658
 20
289.8809424331968
 30
0
 11
276.934708587926
 21
289.8809424331968
 31
0
  0
LINE
  8
1
 62
3
 10
280.7822240933659
 20
289.8809424331968
 30
0
 11
280.7822240933659
 21
295.930942433197
 31
0
  0
LINE
  8
1
 62
3
 10
280.7822240933659
 20
317.8809424331968
 30
0
 11
279.6635372999591
 21
317.8809424331968
 31
0
  0
LINE
  8
1
 62
3
 10
280.7822240933659
 20
311.830942433197
 30
0
 11
276.0375594223269
 21
311.830942433197
 31
0
  0
LINE
  8
1
 62
3
 10
280.7822240933659
 20
311.830942433197
 30
0
 11
280.7822240933659
 21
317.8809424331968
 31
0
  0
LINE
  8
1
 62
3
 10
275.4768411938271
 20
311.830942433197
 30
0
 11
275.4768411938271
 21
309.830942433197
 31
0
  0
LINE
  8
1
 62
3
 10
275.4768411938271
 20
309.830942433197
 30
0
 11
276.0375594223269
 21
309.830942433197
 31
0
  0
LINE
  8
1
 62
3
 10
280.7822240933659
 20
309.830942433197
 30
0
 11
280.7822240933659
 21
311.830942433197
 31
0
  0
LINE
  8
1
 62
3
 10
280.7822240933659
 20
309.830942433197
 30
0
 11
280.7822240933659
 21
297.930942433197
 31
0
  0
LINE
  8
1
 62
3
 10
280.7822240933659
 20
297.930942433197
 30
0
 11
280.7822240933659
 21
309.830942433197
 31
0
  0
LINE
  8
1
 62
3
 10
280.7822240933659
 20
297.930942433197
 30
0
 11
276.0375594223269
 21
297.930942433197
 31
0
  0
LINE
  8
1
 62
3
 10
275.476841193827
 20
297.930942433197
 30
0
 11
275.476841193827
 21
295.930942433197
 31
0
  0
LINE
  8
1
 62
3
 10
275.476841193827
 20
295.930942433197
 30
0
 11
276.0375594223269
 21
295.930942433197
 31
0
  0
LINE
  8
1
 62
3
 10
280.7822240933659
 20
295.930942433197
 30
0
 11
280.7822240933659
 21
297.930942433197
 31
0
  0
LINE
  8
1
 62
3
 10
279.6635372999591
 20
289.8809424331968
 30
0
 11
279.6635372999591
 21
292.8809424331968
 31
0
  0
LINE
  8
1
 62
3
 10
279.6635372999591
 20
289.8809424331968
 30
0
 11
280.7822240933659
 21
289.8809424331968
 31
0
  0
LINE
  8
1
 62
3
 10
279.6635372999591
 20
292.8809424331968
 30
0
 11
278.6542444886588
 21
292.8809424331968
 31
0
  0
LINE
  8
1
 62
3
 10
276.934708587926
 20
292.8809424331968
 30
0
 11
276.934708587926
 21
289.8809424331968
 31
0
  0
LINE
  8
1
 62
3
 10
276.934708587926
 20
289.8809424331968
 30
0
 11
277.3832831707259
 21
289.8809424331968
 31
0
  0
LINE
  8
1
 62
3
 10
279.6635372999591
 20
317.8809424331968
 30
0
 11
279.6635372999591
 21
314.8809424331968
 31
0
  0
LINE
  8
1
 62
3
 10
279.6635372999591
 20
317.8809424331968
 30
0
 11
278.6542444886588
 21
317.8809424331968
 31
0
  0
LINE
  8
1
 62
3
 10
279.6635372999591
 20
314.8809424331968
 30
0
 11
278.6542444886588
 21
314.8809424331968
 31
0
  0
LINE
  8
1
 62
3
 10
276.934708587926
 20
314.8809424331968
 30
0
 11
276.934708587926
 21
317.8809424331968
 31
0
  0
LINE
  8
1
 62
3
 10
276.934708587926
 20
317.8809424331968
 30
0
 11
272.8822240933658
 21
317.8809424331968
 31
0
  0
LINE
  8
1
 62
3
 10
278.6542444886588
 20
292.8809424331968
 30
0
 11
278.6542444886588
 21
289.8809424331968
 31
0
  0
LINE
  8
1
 62
3
 10
278.6542444886588
 20
292.8809424331968
 30
0
 11
277.3832831707259
 21
292.8809424331968
 31
0
  0
LINE
  8
1
 62
3
 10
278.6542444886588
 20
289.8809424331968
 30
0
 11
279.6635372999591
 21
289.8809424331968
 31
0
  0
LINE
  8
1
 62
3
 10
277.3832831707259
 20
289.8809424331968
 30
0
 11
277.3832831707259
 21
292.8809424331968
 31
0
  0
LINE
  8
1
 62
3
 10
277.3832831707259
 20
289.8809424331968
 30
0
 11
278.6542444886588
 21
289.8809424331968
 31
0
  0
LINE
  8
1
 62
3
 10
277.3832831707259
 20
292.8809424331968
 30
0
 11
276.934708587926
 21
292.8809424331968
 31
0
  0
LINE
  8
1
 62
3
 10
278.6542444886588
 20
317.8809424331968
 30
0
 11
278.6542444886588
 21
314.8809424331968
 31
0
  0
LINE
  8
1
 62
3
 10
278.6542444886588
 20
317.8809424331968
 30
0
 11
277.3832831707259
 21
317.8809424331968
 31
0
  0
LINE
  8
1
 62
3
 10
278.6542444886588
 20
314.8809424331968
 30
0
 11
277.3832831707259
 21
314.8809424331968
 31
0
  0
LINE
  8
1
 62
3
 10
277.3832831707259
 20
314.8809424331968
 30
0
 11
277.3832831707259
 21
317.8809424331968
 31
0
  0
LINE
  8
1
 62
3
 10
277.3832831707259
 20
314.8809424331968
 30
0
 11
276.934708587926
 21
314.8809424331968
 31
0
  0
LINE
  8
1
 62
3
 10
277.3832831707259
 20
317.8809424331968
 30
0
 11
276.934708587926
 21
317.8809424331968
 31
0
  0
LINE
  8
1
 62
3
 10
276.0375594223269
 20
295.930942433197
 30
0
 11
276.0375594223269
 21
297.930942433197
 31
0
  0
LINE
  8
1
 62
3
 10
276.0375594223269
 20
295.930942433197
 30
0
 11
280.7822240933659
 21
295.930942433197
 31
0
  0
LINE
  8
1
 62
3
 10
276.0375594223269
 20
297.930942433197
 30
0
 11
275.476841193827
 21
297.930942433197
 31
0
  0
LINE
  8
1
 62
3
 10
276.0375594223269
 20
309.830942433197
 30
0
 11
276.0375594223269
 21
311.830942433197
 31
0
  0
LINE
  8
1
 62
3
 10
276.0375594223269
 20
309.830942433197
 30
0
 11
280.7822240933659
 21
309.830942433197
 31
0
  0
LINE
  8
1
 62
3
 10
276.0375594223269
 20
311.830942433197
 30
0
 11
275.4768411938271
 21
311.830942433197
 31
0
  0
LINE
  8
1
 62
3
 10
187.5679449566759
 20
294.3809424331968
 30
0
 11
191.720774639457
 21
294.3809424331968
 31
0
  0
LINE
  8
1
 62
3
 10
187.5679449566759
 20
294.3809424331968
 30
0
 11
187.5679449566759
 21
293.3809424331968
 31
0
  0
LINE
  8
1
 62
3
 10
191.720774639457
 20
294.3809424331968
 30
0
 11
191.720774639457
 21
293.3809424331968
 31
0
  0
LINE
  8
1
 62
3
 10
191.720774639457
 20
293.3809424331968
 30
0
 11
187.5679449566759
 21
293.3809424331968
 31
0
  0
LINE
  8
1
 62
3
 10
187.5679449566759
 20
296.8809424331968
 30
0
 11
191.720774639457
 21
296.8809424331968
 31
0
  0
LINE
  8
1
 62
3
 10
187.5679449566759
 20
296.8809424331968
 30
0
 11
187.5679449566759
 21
295.8809424331968
 31
0
  0
LINE
  8
1
 62
3
 10
191.720774639457
 20
296.8809424331968
 30
0
 11
191.720774639457
 21
295.8809424331968
 31
0
  0
LINE
  8
1
 62
3
 10
191.720774639457
 20
295.8809424331968
 30
0
 11
187.5679449566759
 21
295.8809424331968
 31
0
  0
LINE
  8
1
 62
3
 10
187.5679449566759
 20
299.3809424331968
 30
0
 11
191.720774639457
 21
299.3809424331968
 31
0
  0
LINE
  8
1
 62
3
 10
187.5679449566759
 20
299.3809424331968
 30
0
 11
187.5679449566759
 21
298.3809424331968
 31
0
  0
LINE
  8
1
 62
3
 10
191.720774639457
 20
299.3809424331968
 30
0
 11
191.720774639457
 21
298.3809424331968
 31
0
  0
LINE
  8
1
 62
3
 10
191.720774639457
 20
298.3809424331968
 30
0
 11
187.5679449566759
 21
298.3809424331968
 31
0
  0
LINE
  8
1
 62
3
 10
187.5679449566759
 20
301.8809424331968
 30
0
 11
191.720774639457
 21
301.8809424331968
 31
0
  0
LINE
  8
1
 62
3
 10
187.5679449566759
 20
301.8809424331968
 30
0
 11
187.5679449566759
 21
300.8809424331968
 31
0
  0
LINE
  8
1
 62
3
 10
191.720774639457
 20
301.8809424331968
 30
0
 11
191.720774639457
 21
300.8809424331968
 31
0
  0
LINE
  8
1
 62
3
 10
191.720774639457
 20
300.8809424331968
 30
0
 11
187.5679449566759
 21
300.8809424331968
 31
0
  0
LINE
  8
1
 62
3
 10
187.5679449566759
 20
304.3809424331968
 30
0
 11
191.720774639457
 21
304.3809424331968
 31
0
  0
LINE
  8
1
 62
3
 10
187.5679449566759
 20
304.3809424331968
 30
0
 11
187.5679449566759
 21
303.3809424331968
 31
0
  0
LINE
  8
1
 62
3
 10
191.720774639457
 20
304.3809424331968
 30
0
 11
191.720774639457
 21
303.3809424331968
 31
0
  0
LINE
  8
1
 62
3
 10
191.720774639457
 20
303.3809424331968
 30
0
 11
187.5679449566759
 21
303.3809424331968
 31
0
  0
LINE
  8
1
 62
3
 10
187.5679449566759
 20
306.8809424331968
 30
0
 11
191.720774639457
 21
306.8809424331968
 31
0
  0
LINE
  8
1
 62
3
 10
187.5679449566759
 20
306.8809424331968
 30
0
 11
187.5679449566759
 21
305.8809424331968
 31
0
  0
LINE
  8
1
 62
3
 10
191.720774639457
 20
306.8809424331968
 30
0
 11
191.720774639457
 21
305.8809424331968
 31
0
  0
LINE
  8
1
 62
3
 10
191.720774639457
 20
305.8809424331968
 30
0
 11
187.5679449566759
 21
305.8809424331968
 31
0
  0
LINE
  8
1
 62
3
 10
187.5679449566759
 20
309.3809424331968
 30
0
 11
191.720774639457
 21
309.3809424331968
 31
0
  0
LINE
  8
1
 62
3
 10
187.5679449566759
 20
309.3809424331968
 30
0
 11
187.5679449566759
 21
308.3809424331968
 31
0
  0
LINE
  8
1
 62
3
 10
191.720774639457
 20
309.3809424331968
 30
0
 11
191.720774639457
 21
308.3809424331968
 31
0
  0
LINE
  8
1
 62
3
 10
191.720774639457
 20
308.3809424331968
 30
0
 11
187.5679449566759
 21
308.3809424331968
 31
0
  0
LINE
  8
1
 62
3
 10
187.5679449566759
 20
311.8809424331968
 30
0
 11
191.720774639457
 21
311.8809424331968
 31
0
  0
LINE
  8
1
 62
3
 10
187.5679449566759
 20
311.8809424331968
 30
0
 11
187.5679449566759
 21
310.8809424331968
 31
0
  0
LINE
  8
1
 62
3
 10
191.720774639457
 20
311.8809424331968
 30
0
 11
191.720774639457
 21
310.8809424331968
 31
0
  0
LINE
  8
1
 62
3
 10
191.720774639457
 20
310.8809424331968
 30
0
 11
187.5679449566759
 21
310.8809424331968
 31
0
  0
LINE
  8
1
 62
3
 10
187.5679449566759
 20
314.3809424331968
 30
0
 11
191.720774639457
 21
314.3809424331968
 31
0
  0
LINE
  8
1
 62
3
 10
187.5679449566759
 20
314.3809424331968
 30
0
 11
187.5679449566759
 21
313.3809424331968
 31
0
  0
LINE
  8
1
 62
3
 10
191.720774639457
 20
314.3809424331968
 30
0
 11
191.720774639457
 21
313.3809424331968
 31
0
  0
LINE
  8
1
 62
3
 10
191.720774639457
 20
313.3809424331968
 30
0
 11
187.5679449566759
 21
313.3809424331968
 31
0
  0
LINE
  8
1
 62
3
 10
195.4679449566759
 20
309.830942433197
 30
0
 11
195.4679449566759
 21
315.3809424331968
 31
0
  0
LINE
  8
1
 62
3
 10
195.4679449566759
 20
313.3809424331968
 30
0
 11
195.4679449566759
 21
314.3809424331968
 31
0
  0
LINE
  8
1
 62
3
 10
195.4679449566759
 20
310.8809424331968
 30
0
 11
195.4679449566759
 21
311.8809424331968
 31
0
  0
LINE
  8
1
 62
3
 10
195.4679449566759
 20
312.8809424331968
 30
0
 11
195.4679449566759
 21
304.3809424331968
 31
0
  0
LINE
  8
1
 62
3
 10
252.8822240933658
 20
304.3809424331968
 30
0
 11
232.8646066736263
 21
304.3809424331968
 31
0
  0
LINE
  8
1
 62
3
 10
195.4679449566759
 20
315.3809424331968
 30
0
 11
195.4679449566759
 21
304.3809424331968
 31
0
  0
LINE
  8
1
 62
3
 10
252.8822240933658
 20
303.3809424331968
 30
0
 11
233.5676118066883
 21
303.3347001321786
 31
0
  0
LINE
  8
1
 62
3
 10
272.8822240933658
 20
317.8809424331968
 30
0
 11
272.8822240933658
 21
309.830942433197
 31
0
  0
LINE
  8
1
 62
3
 10
272.8822240933658
 20
316.8809424331968
 30
0
 11
272.8822240933658
 21
315.8809424331968
 31
0
  0
LINE
  8
1
 62
3
 10
272.8822240933658
 20
289.8809424331968
 30
0
 11
272.8822240933658
 21
312.8809424331968
 31
0
  0
LINE
  8
1
 62
3
 10
272.8822240933658
 20
292.3809424331968
 30
0
 11
272.8822240933658
 21
315.3809424331968
 31
0
  0
LINE
  8
1
 62
3
 10
195.4679449566759
 20
304.3809424331968
 30
0
 11
195.4679449566759
 21
303.2658128556153
 31
0
  0
LINE
  8
1
 62
3
 10
195.4679449566759
 20
304.3809424331968
 30
0
 11
195.4679449566759
 21
303.2658128556153
 31
0
  0
LINE
  8
1
 62
3
 10
195.4679449566759
 20
303.2658128556153
 30
0
 11
195.4679449566759
 21
292.3809424331968
 31
0
  0
LINE
  8
1
 62
3
 10
195.4679449566759
 20
303.2658128556153
 30
0
 11
195.4679449566759
 21
292.3809424331968
 31
0
  0
LINE
  8
1
 62
3
 10
272.8822240933658
 20
317.8809424331968
 30
0
 11
272.8822240933658
 21
309.830942433197
 31
0
  0
LINE
  8
1
 62
3
 10
272.8822240933658
 20
316.8809424331968
 30
0
 11
272.8822240933658
 21
315.8809424331968
 31
0
  0
LINE
  8
1
 62
3
 10
272.8822240933658
 20
311.8809424331968
 30
0
 11
272.8822240933658
 21
310.8809424331968
 31
0
  0
LINE
  8
1
 62
3
 10
272.8822240933658
 20
301.908415907514
 30
0
 11
272.8822240933658
 21
312.8809424331968
 31
0
  0
LINE
  8
1
 62
3
 10
272.8822240933658
 20
301.908415907514
 30
0
 11
272.8822240933658
 21
315.3809424331968
 31
0
  0
LINE
  8
1
 62
3
 10
272.8822240933658
 20
300.7932863299324
 30
0
 11
272.8822240933658
 21
301.908415907514
 31
0
  0
LINE
  8
1
 62
3
 10
272.8822240933658
 20
300.7932863299324
 30
0
 11
272.8822240933658
 21
301.908415907514
 31
0
  0
LINE
  8
1
 62
3
 10
272.8822240933658
 20
289.8809424331968
 30
0
 11
272.8822240933658
 21
300.7932863299324
 31
0
  0
LINE
  8
1
 62
3
 10
272.8822240933658
 20
292.3809424331968
 30
0
 11
272.8822240933658
 21
300.7932863299324
 31
0
  0
LINE
  8
1
 62
3
 10
77.28929922266727
 20
192.4096709069608
 30
0
 11
83.28929922266727
 21
192.4096709069608
 31
0
  0
LINE
  8
1
 62
1
 10
177.7928988162783
 20
188.4096709069602
 30
0
 11
287.2928891630424
 21
188.4096709069604
 31
0
  0
LINE
  8
1
 62
3
 10
182.7928988162816
 20
192.4096709069621
 30
0
 11
212.792898816278
 21
192.4096709069613
 31
0
  0
LINE
  8
1
 62
3
 10
182.7928988162816
 20
192.4096709069621
 30
0
 11
212.792898816278
 21
192.4096709069613
 31
0
  0
LINE
  8
1
 62
3
 10
182.7928988162783
 20
188.0862570780949
 30
0
 11
182.7928988162783
 21
183.9096709069621
 31
0
  0
LINE
  8
1
 62
3
 10
182.7928988162783
 20
188.0862570780949
 30
0
 11
182.7928988162783
 21
192.4096709069619
 31
0
  0
LINE
  8
1
 62
2
 10
183.2928988162783
 20
183.4096709069621
 30
0
 11
183.2928988162783
 21
192.4096709069619
 31
0
  0
LINE
  8
1
 62
3
 10
183.2928988162783
 20
183.4096709069621
 30
0
 11
182.7928988162783
 21
183.9096709069621
 31
0
  0
LINE
  8
1
 62
3
 10
212.792898816278
 20
193.4096709069609
 30
0
 11
216.7928891630426
 21
193.4096709069605
 31
0
  0
LINE
  8
1
 62
3
 10
212.792898816278
 20
193.4096709069609
 30
0
 11
216.7928891630426
 21
193.4096709069605
 31
0
  0
LINE
  8
1
 62
3
 10
216.7928891630427
 20
183.4096709069608
 30
0
 11
183.2928988162783
 21
183.4096709069621
 31
0
  0
LINE
  8
1
 62
3
 10
212.792898816278
 20
193.4096709069609
 30
0
 11
212.792898816278
 21
192.4096709069613
 31
0
  0
LINE
  8
1
 62
3
 10
219.7928891630426
 20
143.4096709069602
 30
0
 11
220.7928891630429
 21
143.4096709069604
 31
0
  0
LINE
  8
1
 62
3
 10
220.7928891630429
 20
134.9096709069607
 30
0
 11
220.7928891630429
 21
143.4096709069604
 31
0
  0
LINE
  8
1
 62
3
 10
232.1558448201827
 20
145.0020142060656
 30
0
 11
231.3934193581237
 21
145.0020142060659
 31
0
  0
LINE
  8
1
 62
3
 10
231.3934193581239
 20
146.2024709069601
 30
0
 11
237.3928969012642
 21
146.2024709069601
 31
0
  0
LINE
  8
1
 62
3
 10
78.45929922266737
 20
180.7096709069607
 30
0
 11
79.28929922266727
 21
180.7096709069607
 31
0
  0
LINE
  8
1
 62
3
 10
83.78929922266727
 20
182.3796709069607
 30
0
 11
83.78929922266727
 21
184.2727934786891
 31
0
  0
LINE
  8
1
 62
3
 10
78.47929922266746
 20
183.0974315597261
 30
0
 11
79.28929922266727
 21
183.0974315597261
 31
0
  0
LINE
  8
1
 62
3
 10
82.78929922266727
 20
182.4074315597261
 30
0
 11
82.78929922266727
 21
182.3996709069608
 31
0
  0
LINE
  8
1
 62
3
 10
82.09929922266747
 20
181.7096709069607
 30
0
 11
81.28929922266727
 21
181.7096709069607
 31
0
  0
LINE
  8
1
 62
3
 10
77.78929922266727
 20
182.3996709069608
 30
0
 11
77.78929922266727
 21
182.4074315597261
 31
0
  0
LINE
  8
1
 62
3
 10
76.78929922266727
 20
184.2727934786891
 30
0
 11
76.78929922266727
 21
182.3796709069607
 31
0
  0
LINE
  8
1
 62
3
 10
79.28929922266727
 20
183.5366875607533
 30
0
 11
79.28929922266727
 21
183.0974315597261
 31
0
  0
LINE
  8
1
 62
3
 10
81.28929922266727
 20
183.5366875607533
 30
0
 11
81.28929922266727
 21
183.0974315597261
 31
0
  0
LINE
  8
1
 62
3
 10
79.28929922266727
 20
181.7096709069607
 30
0
 11
79.28929922266727
 21
180.7096709069607
 31
0
  0
LINE
  8
1
 62
3
 10
81.28929922266727
 20
181.7096709069607
 30
0
 11
81.28929922266727
 21
180.7096709069607
 31
0
  0
LINE
  8
1
 62
3
 10
81.28929922266727
 20
183.0974315597261
 30
0
 11
82.09929922266738
 21
183.0974315597261
 31
0
  0
LINE
  8
1
 62
3
 10
79.28929922266727
 20
181.7096709069607
 30
0
 11
78.47929922266737
 21
181.7096709069607
 31
0
  0
LINE
  8
1
 62
3
 10
81.28929922266727
 20
180.7096709069607
 30
0
 11
82.11929922266748
 21
180.7096709069607
 31
0
  0
LINE
  8
1
 62
3
 10
229.7928891630429
 20
143.4096709069608
 30
0
 11
229.7928891630429
 21
140.1596709069604
 31
0
  0
LINE
  8
1
 62
3
 10
231.3934193581241
 20
152.0366039480142
 30
0
 11
231.3934193581237
 21
140.8020142060657
 31
0
  0
LINE
  8
1
 62
3
 10
233.0184193581237
 20
142.5395142060654
 30
0
 11
233.1934193581236
 21
142.5395142060654
 31
0
  0
LINE
  8
1
 62
3
 10
233.0184193581237
 20
143.2645142060658
 30
0
 11
233.0184193581237
 21
142.5395142060654
 31
0
  0
LINE
  8
1
 62
3
 10
233.1934193581236
 20
143.2645142060658
 30
0
 11
233.0184193581237
 21
143.2645142060658
 31
0
  0
LINE
  8
1
 62
3
 10
231.3934193581237
 20
140.8020142060657
 30
0
 11
232.1558448201827
 21
140.8020142060659
 31
0
  0
LINE
  8
1
 62
3
 10
229.7928891630429
 20
137.9024709069597
 30
0
 11
229.7928891630429
 21
143.4096709069608
 31
0
  0
LINE
  8
1
 62
3
 10
234.6428969012642
 20
137.2024709069601
 30
0
 11
234.6428969012642
 21
141.2024709069601
 31
0
  0
LINE
  8
1
 62
3
 10
234.1428969012642
 20
137.2024709069601
 30
0
 11
234.6428969012642
 21
137.2024709069601
 31
0
  0
LINE
  8
1
 62
3
 10
234.1428969012642
 20
141.2024709069601
 30
0
 11
234.1428969012642
 21
137.2024709069601
 31
0
  0
LINE
  8
1
 62
3
 10
236.3928969012642
 20
141.2024709069601
 30
0
 11
232.7715666531858
 21
141.2024709069601
 31
0
  0
LINE
  8
1
 62
3
 10
236.3928969012642
 20
136.2024709069601
 30
0
 11
236.3928969012642
 21
141.2024709069601
 31
0
  0
LINE
  8
1
 62
3
 10
237.3928969012642
 20
136.2024709069601
 30
0
 11
236.3928969012642
 21
136.2024709069601
 31
0
  0
LINE
  8
1
 62
3
 10
237.3928969012642
 20
146.2024709069601
 30
0
 11
237.3928969012642
 21
136.2024709069601
 31
0
  0
LINE
  8
1
 62
3
 10
231.3928969012642
 20
141.2024709069601
 30
0
 11
231.3928969012649
 21
137.9024709069597
 31
0
  0
LINE
  8
1
 62
3
 10
231.3928969012649
 20
137.9024709069597
 30
0
 11
229.7928891630429
 21
137.9024709069597
 31
0
  0
LINE
  8
1
 62
3
 10
234.6928891630424
 20
149.9096795771083
 30
0
 11
234.1928891630422
 21
149.9096795771083
 31
0
  0
LINE
  8
1
 62
3
 10
234.6928891630415
 20
226.9096709069599
 30
0
 11
234.1928891630413
 21
226.9096709069599
 31
0
  0
LINE
  8
1
 62
3
 10
234.1928891630422
 20
149.9096795771083
 30
0
 11
234.1928891630413
 21
226.9096709069599
 31
0
  0
LINE
  8
1
 62
3
 10
229.7928891630429
 20
143.4096709069608
 30
0
 11
219.7928891630426
 21
143.4096709069602
 31
0
  0
LINE
  8
1
 62
3
 10
229.7928969012587
 20
230.1109898309468
 30
0
 11
229.7928969012587
 21
152.0366039480143
 31
0
  0
LINE
  8
1
 62
3
 10
219.7928891630426
 20
229.9096709069605
 30
0
 11
219.7928891630426
 21
144.752141822721
 31
0
  0
LINE
  8
1
 62
3
 10
234.6928891630422
 20
147.3096709069605
 30
0
 11
234.6928891630424
 21
149.9096795771083
 31
0
  0
LINE
  8
1
 62
3
 10
236.2928891630422
 20
147.3096709069605
 30
0
 11
234.6928891630422
 21
147.3096709069605
 31
0
  0
LINE
  8
1
 62
3
 10
282.2928891630424
 20
195.7284911647407
 30
0
 11
282.2928891630424
 21
180.8096709069604
 31
0
  0
LINE
  8
1
 62
3
 10
282.2928891630424
 20
181.09085064918
 30
0
 11
282.2928891630424
 21
180.8096709069604
 31
0
  0
LINE
  8
1
 62
3
 10
281.4928891630422
 20
180.0096709069603
 30
0
 11
281.2928891630424
 21
180.0096709069603
 31
0
  0
LINE
  8
1
 62
3
 10
281.2928891630424
 20
180.0096709069603
 30
0
 11
281.2928891630424
 21
180.9096709069604
 31
0
  0
LINE
  8
1
 62
3
 10
282.2928891630424
 20
196.0096709069601
 30
0
 11
282.2928891630424
 21
195.7284911647407
 31
0
  0
LINE
  8
1
 62
3
 10
281.2928891630424
 20
196.8096709069604
 30
0
 11
281.4928891630422
 21
196.8096709069604
 31
0
  0
LINE
  8
1
 62
3
 10
281.2928891630424
 20
180.9096709069604
 30
0
 11
281.2928891630424
 21
196.8096709069604
 31
0
  0
LINE
  8
1
 62
3
 10
281.2928891630424
 20
197.4096709069602
 30
0
 11
281.2928891630424
 21
180.9096709069604
 31
0
  0
LINE
  8
1
 62
3
 10
234.6928891630424
 20
149.9096795771083
 30
0
 11
234.6928891630422
 21
229.5096709069601
 31
0
  0
LINE
  8
1
 62
3
 10
234.6928891630422
 20
229.5096709069601
 30
0
 11
236.2928891630422
 21
229.5096709069601
 31
0
  0
LINE
  8
1
 62
3
 10
237.2928891630422
 20
148.3096709069605
 30
0
 11
278.6928891630422
 21
148.3096709069604
 31
0
  0
LINE
  8
1
 62
3
 10
281.2928891630424
 20
150.9096709069604
 30
0
 11
281.2928891630424
 21
180.9096709069604
 31
0
  0
LINE
  8
1
 62
3
 10
281.2928891630424
 20
225.9096709069602
 30
0
 11
281.2928891630424
 21
197.4096709069602
 31
0
  0
LINE
  8
1
 62
3
 10
237.2928891630422
 20
228.5096709069601
 30
0
 11
278.6928891630422
 21
228.5096709069601
 31
0
  0
LINE
  8
1
 62
1
 10
30.28929922266724
 20
188.4096709069607
 30
0
 11
130.2892992226673
 21
188.4096709069607
 31
0
  0
LINE
  8
1
 62
3
 10
233.4928891630426
 20
152.0366039480143
 30
0
 11
233.4928891630426
 21
154.3655818458623
 31
0
  0
LINE
  8
1
 62
3
 10
229.7928891630429
 20
143.4096709069608
 30
0
 11
229.7928969012588
 21
143.4096709069608
 31
0
  0
LINE
  8
1
 62
3
 10
229.7928969012588
 20
143.4096709069608
 30
0
 11
229.7928969012587
 21
152.0366039480143
 31
0
  0
LINE
  8
1
 62
3
 10
229.7928969012587
 20
152.0366039480143
 30
0
 11
233.4928891630426
 21
152.0366039480143
 31
0
  0
LINE
  8
1
 62
3
 10
233.4928891630426
 20
154.3655818458623
 30
0
 11
233.4928891630426
 21
173.4096709069607
 31
0
  0
LINE
  8
1
 62
3
 10
233.4928891630426
 20
173.4096709069607
 30
0
 11
233.4928891630426
 21
228.1096622368128
 31
0
  0
LINE
  8
1
 62
3
 10
229.7928891630429
 20
143.4096709069608
 30
0
 11
229.7928891630429
 21
140.1596709069604
 31
0
  0
LINE
  8
1
 62
3
 10
229.7928891630429
 20
134.9096709069609
 30
0
 11
229.7928891630429
 21
140.1596709069604
 31
0
  0
LINE
  8
1
 62
3
 10
216.7928891630426
 20
193.4096709069605
 30
0
 11
216.7928891630426
 21
225.4096709069605
 31
0
  0
LINE
  8
1
 62
3
 10
216.7928891630426
 20
193.4096709069605
 30
0
 11
216.7928891630426
 21
151.4096709069605
 31
0
  0
LINE
  8
1
 62
3
 10
216.7928891630426
 20
151.4096709069605
 30
0
 11
216.7928891630426
 21
147.2596709069606
 31
0
  0
LINE
  8
1
 62
3
 10
217.1428891630424
 20
146.9096709069608
 30
0
 11
216.7928891630426
 21
147.2596709069606
 31
0
  0
LINE
  8
1
 62
3
 10
219.7928891630426
 20
146.9096709069608
 30
0
 11
217.1428891630424
 21
146.9096709069608
 31
0
  0
LINE
  8
1
 62
3
 10
219.7928891630426
 20
146.9096709069608
 30
0
 11
219.7928891630426
 21
143.4096709069602
 31
0
  0
LINE
  8
1
 62
3
 10
229.7928891630429
 20
134.9096709069609
 30
0
 11
220.7928891630429
 21
134.9096709069607
 31
0
  0
LINE
  8
1
 62
3
 10
217.1428891630424
 20
229.9096709069605
 30
0
 11
216.7928891630426
 21
229.5596709069607
 31
0
  0
LINE
  8
1
 62
3
 10
216.7928891630426
 20
229.5596709069607
 30
0
 11
216.7928891630426
 21
225.4096709069605
 31
0
  0
LINE
  8
1
 62
3
 10
217.1428891630424
 20
229.9096709069605
 30
0
 11
219.7928891630426
 21
229.9096709069605
 31
0
  0
LINE
  8
1
 62
3
 10
219.7928891630426
 20
233.4096709069605
 30
0
 11
219.7928891630426
 21
229.9096709069605
 31
0
  0
LINE
  8
1
 62
3
 10
229.9428969012652
 20
233.4096709069605
 30
0
 11
219.7928891630426
 21
233.4096709069605
 31
0
  0
LINE
  8
1
 62
3
 10
229.7928969012587
 20
230.1109898309468
 30
0
 11
229.7928969012588
 21
233.4096709069602
 31
0
  0
LINE
  8
1
 62
3
 10
229.7928969012587
 20
230.1109898309468
 30
0
 11
233.4928891630426
 21
230.1109898309468
 31
0
  0
LINE
  8
1
 62
3
 10
233.4928891630426
 20
230.1109898309468
 30
0
 11
233.4928891630426
 21
228.1096622368128
 31
0
  0
LINE
  8
1
 62
3
 10
229.7928969012588
 20
233.4096709069602
 30
0
 11
229.9428969012652
 21
233.4096709069605
 31
0
  0
LINE
  8
1
 62
3
 10
125.2892992226673
 20
225.9096709069608
 30
0
 11
125.2892992226673
 21
188.4096709069607
 31
0
  0
LINE
  8
1
 62
3
 10
80.28929922266727
 20
233.4096709069607
 30
0
 11
117.7892992226673
 21
233.4096709069608
 31
0
  0
LINE
  8
1
 62
3
 10
125.2892992226673
 20
188.4096709069607
 30
0
 11
125.2892992226673
 21
150.9096709069608
 31
0
  0
LINE
  8
1
 62
1
 10
80.28929922266725
 20
238.4096709069607
 30
0
 11
80.28929922266727
 21
129.9096709069606
 31
0
  0
LINE
  8
1
 62
3
 10
108.7892992226673
 20
143.4096709069607
 30
0
 11
117.7892992226673
 21
143.4096709069608
 31
0
  0
LINE
  8
1
 62
3
 10
42.78929922266724
 20
233.4096709069608
 30
0
 11
80.28929922266727
 21
233.4096709069607
 31
0
  0
LINE
  8
1
 62
3
 10
35.28929922266724
 20
150.9096709069608
 30
0
 11
35.28929922266724
 21
225.9096709069608
 31
0
  0
LINE
  8
1
 62
3
 10
51.7892992226673
 20
143.4096709069607
 30
0
 11
55.78929922266757
 21
143.4096709069605
 31
0
  0
LINE
  8
1
 62
3
 10
58.78929922266727
 20
139.4096709069607
 30
0
 11
58.78929922266727
 21
135.9096709069604
 31
0
  0
LINE
  8
1
 62
3
 10
101.7892992226673
 20
139.4096709069607
 30
0
 11
101.7892992226673
 21
135.9096709069608
 31
0
  0
LINE
  8
1
 62
3
 10
100.7892992226673
 20
134.9096709069608
 30
0
 11
59.78929922266727
 21
134.9096709069604
 31
0
  0
LINE
  8
1
 62
3
 10
105.7892992226673
 20
143.4096709069607
 30
0
 11
108.7892992226673
 21
143.4096709069607
 31
0
  0
LINE
  8
1
 62
3
 10
55.78929922266757
 20
143.4096709069605
 30
0
 11
108.7892992226673
 21
143.4096709069607
 31
0
  0
LINE
  8
1
 62
3
 10
54.7892992226673
 20
143.4096709069607
 30
0
 11
51.7892992226673
 21
143.4096709069607
 31
0
  0
LINE
  8
1
 62
3
 10
42.78929922266724
 20
143.4096709069608
 30
0
 11
51.7892992226673
 21
143.4096709069607
 31
0
  0
LINE
  8
1
 62
1
 10
117.0392992226673
 20
146.6596709069607
 30
0
 11
117.0392992226673
 21
156.6596709069607
 31
0
  0
LINE
  8
1
 62
1
 10
122.0392992226673
 20
151.6596709069608
 30
0
 11
112.0392992226673
 21
151.6596709069607
 31
0
  0
LINE
  8
1
 62
3
 10
226.2928891630426
 20
233.4096709069605
 30
0
 11
226.2928891630426
 21
143.4096709069606
 31
0
  0
LINE
  8
1
 62
3
 10
226.2928891630426
 20
156.2596709069607
 30
0
 11
227.7928891630426
 21
156.2596709069607
 31
0
  0
LINE
  8
1
 62
3
 10
227.7928891630426
 20
147.0596709069607
 30
0
 11
226.2928891630426
 21
147.0596709069607
 31
0
  0
LINE
  8
1
 62
3
 10
227.7928891630426
 20
156.2596709069607
 30
0
 11
227.7928891630426
 21
147.0596709069607
 31
0
  0
LINE
  8
1
 62
3
 10
227.7928891630426
 20
229.759670906963
 30
0
 11
227.7928891630426
 21
220.5596709069631
 31
0
  0
LINE
  8
1
 62
3
 10
227.7928891630426
 20
229.759670906963
 30
0
 11
226.2928891630426
 21
229.759670906963
 31
0
  0
LINE
  8
1
 62
3
 10
227.7928891630426
 20
220.5596709069631
 30
0
 11
226.2928891630426
 21
220.5596709069631
 31
0
  0
LINE
  8
1
 62
3
 10
229.7928969012587
 20
216.4096709069607
 30
0
 11
226.2928891630426
 21
216.4096709069607
 31
0
  0
LINE
  8
1
 62
3
 10
229.7928969012587
 20
160.4096709069603
 30
0
 11
226.2928891630426
 21
160.4096709069603
 31
0
  0
LINE
  8
1
 62
1
 10
43.53929922266735
 20
146.6596709069608
 30
0
 11
43.53929922266735
 21
156.6596709069608
 31
0
  0
LINE
  8
1
 62
1
 10
48.53929922266735
 20
151.6596709069608
 30
0
 11
38.53929922266735
 21
151.6596709069608
 31
0
  0
LINE
  8
1
 62
1
 10
117.0392992226673
 20
220.1596709069608
 30
0
 11
117.0392992226673
 21
230.1596709069608
 31
0
  0
LINE
  8
1
 62
1
 10
122.0392992226673
 20
225.1596709069608
 30
0
 11
112.0392992226673
 21
225.1596709069608
 31
0
  0
LINE
  8
1
 62
1
 10
43.53929922266735
 20
220.1596709069608
 30
0
 11
43.53929922266735
 21
230.1596709069608
 31
0
  0
LINE
  8
1
 62
1
 10
48.53929922266735
 20
225.1596709069608
 30
0
 11
38.53929922266735
 21
225.1596709069608
 31
0
  0
ARC
  8
1
 62
3
 10
230.6042116487958
 20
71.71058775617468
 30
0
 40
2.982960852904978
 50
37.11575597786305
 51
43.39968678393997
  0
ARC
  8
1
 62
3
 10
230.5292116487959
 20
70.98597979597437
 30
0
 40
3.567081604788507
 50
51.05128425086019
 51
62.86991214901118
  0
ARC
  8
1
 62
3
 10
228.4071270822593
 20
72.0605877561745
 30
0
 40
4.799999999999803
 50
342.4172239915786
 51
355.668851269211
  0
ARC
  8
1
 62
3
 10
230.5292116487954
 20
72.88139159186099
 30
0
 40
3.343206622513383
 50
299.1139955129295
 51
317.2165542171601
  0
ARC
  8
1
 62
3
 10
228.4071270822593
 20
72.0605877561745
 30
0
 40
4.799999999999846
 50
4.33114873079347
 51
17.58277600842559
  0
ARC
  8
1
 62
3
 10
230.6042116487958
 20
37.21058775617425
 30
0
 40
2.98296085290483
 50
316.6003132160601
 51
322.8842440221371
  0
ARC
  8
1
 62
3
 10
230.5292116487959
 20
37.93519571637455
 30
0
 40
3.567081604788594
 50
297.1300878509888
 51
308.9487157491399
  0
ARC
  8
1
 62
3
 10
228.4071270822593
 20
36.86058775617443
 30
0
 40
4.799999999999818
 50
4.331148730789072
 51
17.58277600842122
  0
ARC
  8
1
 62
3
 10
230.5292116487954
 20
36.03978392048794
 30
0
 40
3.343206622513329
 50
42.78344578283969
 51
60.88600448707048
  0
ARC
  8
1
 62
3
 10
228.4071270822593
 20
36.86058775617443
 30
0
 40
4.799999999999915
 50
342.4172239915744
 51
355.6688512692064
  0
ARC
  8
1
 62
3
 10
237.2928891630422
 20
13.36058775617462
 30
0
 40
1
 50
90
 51
180
  0
ARC
  8
1
 62
3
 10
237.2928891630422
 20
95.56058775617424
 30
0
 40
1
 50
180
 51
270
  0
ARC
  8
1
 62
3
 10
409.577883320309
 20
188.4096709069604
 30
0
 40
42.5000000000001
 50
298.0724869358529
 51
298.9932044200963
  0
ARC
  8
1
 62
3
 10
409.577883320309
 20
188.4096709069604
 30
0
 40
42.5
 50
180
 51
241.9275130641471
  0
ARC
  8
1
 62
3
 10
391.9778848679778
 20
142.909684472409
 30
0
 40
1.043999999999902
 50
210.2161982852554
 51
239.7838017147611
  0
ARC
  8
1
 62
3
 10
391.9778848679778
 20
142.909684472409
 30
0
 40
0.4571999999997475
 50
262.5415509437235
 51
277.4584490563331
  0
ARC
  8
1
 62
3
 10
391.9778848679778
 20
142.909684472409
 30
0
 40
1.044000000000223
 50
300.2161982852578
 51
329.783801714754
  0
ARC
  8
1
 62
3
 10
391.9778848679778
 20
142.909684472409
 30
0
 40
0.4572000000001679
 50
352.5415509437052
 51
7.458449056330131
  0
ARC
  8
1
 62
3
 10
391.9778848679778
 20
142.909684472409
 30
0
 40
1.044000000000196
 50
30.21619828524601
 51
59.7838017147422
  0
ARC
  8
1
 62
3
 10
391.9778848679778
 20
142.909684472409
 30
0
 40
0.457200000000032
 50
82.54155094367063
 51
97.45844905627287
  0
ARC
  8
1
 62
3
 10
391.9778848679778
 20
142.909684472409
 30
0
 40
1.044000000000023
 50
120.2161982852389
 51
149.7838017147446
  0
ARC
  8
1
 62
3
 10
391.9778848679778
 20
142.909684472409
 30
0
 40
0.457199999999923
 50
172.5415509436653
 51
187.4584490562995
  0
ARC
  8
1
 62
3
 10
427.1778817726406
 20
142.909684472409
 30
0
 40
1.043999999999852
 50
210.216198285257
 51
239.7838017147611
  0
ARC
  8
1
 62
3
 10
427.1778817726406
 20
142.909684472409
 30
0
 40
0.4571999999997475
 50
262.5415509437235
 51
277.4584490563472
  0
ARC
  8
1
 62
3
 10
427.1778817726406
 20
142.909684472409
 30
0
 40
1.044000000000223
 50
300.2161982852578
 51
329.783801714754
  0
ARC
  8
1
 62
3
 10
427.1778817726406
 20
142.909684472409
 30
0
 40
0.4572000000001679
 50
352.5415509437052
 51
7.458449056330131
  0
ARC
  8
1
 62
3
 10
427.1778817726406
 20
142.909684472409
 30
0
 40
1.044000000000196
 50
30.21619828524601
 51
59.7838017147422
  0
ARC
  8
1
 62
3
 10
427.1778817726406
 20
142.909684472409
 30
0
 40
0.4572000000000467
 50
82.5415509436565
 51
97.45844905627287
  0
ARC
  8
1
 62
3
 10
427.1778817726406
 20
142.909684472409
 30
0
 40
1.044000000000023
 50
120.2161982852389
 51
149.783801714743
  0
ARC
  8
1
 62
3
 10
427.1778817726406
 20
142.909684472409
 30
0
 40
0.457199999999923
 50
172.5415509436653
 51
187.4584490562995
  0
ARC
  8
1
 62
3
 10
409.577883320309
 20
188.4096709069604
 30
0
 40
42.5000000000002
 50
298.9932044200963
 51
81.03243571352594
  0
ARC
  8
1
 62
3
 10
409.577883320309
 20
188.4096709069604
 30
0
 40
42.49999999999999
 50
98.9675642864739
 51
180
  0
ARC
  8
1
 62
3
 10
403.0826927919258
 20
192.1596709069604
 30
0
 40
1.500000000000023
 50
81.01759807295399
 51
180
  0
ARC
  8
1
 62
3
 10
409.577883320309
 20
180.9096709069604
 30
0
 40
1.500000000000014
 50
201.0175980729424
 51
270
  0
ARC
  8
1
 62
3
 10
416.0730738486923
 20
192.1596709069604
 30
0
 40
1.499999999999917
 50
321.0175980729409
 51
0
  0
ARC
  8
1
 62
3
 10
403.0826927919258
 20
192.1596709069604
 30
0
 40
1.5
 50
180
 51
218.982401927055
  0
ARC
  8
1
 62
3
 10
416.0730738486923
 20
192.1596709069604
 30
0
 40
1.5
 50
0
 51
98.9824019270546
  0
ARC
  8
1
 62
3
 10
409.577883320309
 20
180.9096709069604
 30
0
 40
1.5
 50
270
 51
338.9824019270591
  0
ARC
  8
1
 62
3
 10
80.28929922266727
 20
188.4096709069608
 30
0
 40
5
 50
0
 51
258.4630409671846
  0
ARC
  8
1
 62
3
 10
80.28929922266727
 20
188.4096709069608
 30
0
 40
5.000000000000043
 50
281.5369590328154
 51
0
  0
ARC
  8
1
 62
3
 10
80.28929922266727
 20
188.4096709069608
 30
0
 40
5.418833348290376
 50
310.2328491927946
 51
229.7671508072054
  0
ARC
  8
1
 62
3
 10
80.28929922266727
 20
188.4096709069608
 30
0
 40
5.418833348290403
 50
310.21752775212
 51
310.2328491927946
  0
ARC
  8
1
 62
3
 10
80.28929922266727
 20
187.4096709069608
 30
0
 40
4.000000000000072
 50
255.5224878140703
 51
284.4775121859297
  0
ARC
  8
1
 62
3
 10
230.6042116487958
 20
143.2520142060656
 30
0
 40
2.982960852904835
 50
316.60031321606
 51
322.884244022137
  0
ARC
  8
1
 62
3
 10
230.5292116487959
 20
143.9766221662659
 30
0
 40
3.567081604788588
 50
297.1300878509888
 51
308.9487157491398
  0
ARC
  8
1
 62
3
 10
228.4071270822593
 20
142.9020142060658
 30
0
 40
4.799999999999818
 50
4.331148730789072
 51
17.58277600842138
  0
ARC
  8
1
 62
3
 10
230.5292116487954
 20
142.0812103703793
 30
0
 40
3.343206622513339
 50
42.78344578283986
 51
60.88600448707054
  0
ARC
  8
1
 62
3
 10
228.4071270822593
 20
142.9020142060658
 30
0
 40
4.799999999999915
 50
342.4172239915744
 51
355.6688512692065
  0
ARC
  8
1
 62
3
 10
237.2928891630422
 20
147.3096709069605
 30
0
 40
1
 50
90
 51
180
  0
ARC
  8
1
 62
3
 10
237.2928891630422
 20
229.5096709069601
 30
0
 40
1
 50
180
 51
270
  0
CIRCLE
  8
1
 62
3
 10
234.2939839688434
 20
64.46058775617442
 30
0
 40
0.3499999999998096
  0
CIRCLE
  8
1
 62
3
 10
234.2939839688434
 20
61.96058775617442
 30
0
 40
0.3499999999997101
  0
CIRCLE
  8
1
 62
3
 10
234.2939839688434
 20
59.46058775617442
 30
0
 40
0.3499999999997101
  0
CIRCLE
  8
1
 62
3
 10
234.2939839688434
 20
56.96058775617442
 30
0
 40
0.3499999999997101
  0
CIRCLE
  8
1
 62
3
 10
234.2939839688434
 20
44.46058775617442
 30
0
 40
0.3499999999997527
  0
CIRCLE
  8
1
 62
3
 10
234.2939839688434
 20
46.96058775617442
 30
0
 40
0.3499999999997101
  0
CIRCLE
  8
1
 62
3
 10
234.2939839688434
 20
49.46058775617442
 30
0
 40
0.3499999999997101
  0
CIRCLE
  8
1
 62
3
 10
234.2939839688434
 20
51.96058775617442
 30
0
 40
0.3499999999997101
  0
CIRCLE
  8
1
 62
3
 10
234.2939839688434
 20
54.46058775617442
 30
0
 40
0.3499999999997101
  0
CIRCLE
  8
1
 62
3
 10
234.2939839688434
 20
41.96058775617446
 30
0
 40
0.3499999999997954
  0
CIRCLE
  8
1
 62
3
 10
234.2939839688434
 20
66.96058775617442
 30
0
 40
0.3499999999998096
  0
CIRCLE
  8
1
 62
3
 10
391.9778848679778
 20
142.909684472409
 30
0
 40
2.015999999999735
  0
CIRCLE
  8
1
 62
3
 10
427.1778817726406
 20
142.909684472409
 30
0
 40
2.015999999999679
  0
CIRCLE
  8
1
 62
3
 10
446.327883320309
 20
151.6596709069604
 30
0
 40
4.599999999999795
  0
CIRCLE
  8
1
 62
3
 10
446.327883320309
 20
151.6596709069604
 30
0
 40
3.25
  0
CIRCLE
  8
1
 62
3
 10
446.327883320309
 20
225.1596709069605
 30
0
 40
4.599999999999795
  0
CIRCLE
  8
1
 62
3
 10
446.327883320309
 20
225.1596709069605
 30
0
 40
3.25
  0
CIRCLE
  8
1
 62
3
 10
372.827883320309
 20
225.1596709069605
 30
0
 40
4.599999999999795
  0
CIRCLE
  8
1
 62
3
 10
372.827883320309
 20
225.1596709069605
 30
0
 40
3.249999999999773
  0
CIRCLE
  8
1
 62
3
 10
372.827883320309
 20
151.6596709069604
 30
0
 40
4.599999999999795
  0
CIRCLE
  8
1
 62
3
 10
372.827883320309
 20
151.6596709069604
 30
0
 40
3.249999999999773
  0
CIRCLE
  8
1
 62
3
 10
409.577883320309
 20
188.4096709069604
 30
0
 40
41.09999999999991
  0
CIRCLE
  8
1
 62
3
 10
409.577883320309
 20
188.4096709069604
 30
0
 40
4
  0
CIRCLE
  8
1
 62
3
 10
409.577883320309
 20
188.4096709069604
 30
0
 40
8.15902752921852
  0
CIRCLE
  8
1
 62
3
 10
409.577883320309
 20
188.4096709069604
 30
0
 40
6.400000000000091
  0
CIRCLE
  8
1
 62
3
 10
43.53929922266735
 20
225.1596709069608
 30
0
 40
3.24999999999995
  0
CIRCLE
  8
1
 62
3
 10
43.53929922266735
 20
151.6596709069608
 30
0
 40
3.24999999999995
  0
CIRCLE
  8
1
 62
3
 10
117.0392992226673
 20
225.1596709069608
 30
0
 40
3.249999999999901
  0
CIRCLE
  8
1
 62
3
 10
117.0392992226673
 20
151.6596709069607
 30
0
 40
3.249999999999901
  0
CIRCLE
  8
1
 62
3
 10
80.28929922266727
 20
188.4096709069608
 30
0
 40
13
  0
CIRCLE
  8
1
 62
3
 10
80.28929922266727
 20
188.4096709069608
 30
0
 40
37.00000000000003
  0
CIRCLE
  8
1
 62
3
 10
80.28929922266727
 20
188.4096709069608
 30
0
 40
41.50000000000003
  0
POLYLINE
  8
1
 62
3
 66
1
  0
VERTEX
  8
1
 10
233.9981505213261
 20
308.3809424331968
 30
0
 42
0.005610045220671807
  0
VERTEX
  8
1
 10
233.5189860476746
 20
307.7794136963198
 30
0
 42
0.01766205651886146
  0
VERTEX
  8
1
 10
233.0842523946049
 20
307.178267143662
 30
0
 42
0.03408297587031327
  0
VERTEX
  8
1
 10
232.7383803826987
 20
306.5778849594427
 30
0
 42
0.056865961152555
  0
VERTEX
  8
1
 10
232.5258008325379
 20
305.9786493278813
 30
0
 42
0.08472232245193188
  0
VERTEX
  8
1
 10
232.4909445647041
 20
305.3809424331968
 30
0
 42
0.1038365951311187
  0
VERTEX
  8
1
 10
232.7513529567347
 20
304.5890978563914
 30
0
 42
0.01466668619471994
  0
VERTEX
  8
1
 10
233.241407010365
 20
303.7969009033453
 30
0
 42
0.0136340814959329
  0
VERTEX
  8
1
 10
233.7986290765854
 20
303.000626238702
 30
0
 42
-0.04258924877932212
  0
VERTEX
  8
1
 10
234.260541506386
 20
302.1965485271048
 30
0
 42
-0.09880128485624488
  0
VERTEX
  8
1
 10
234.4646666507571
 20
301.3809424331968
 30
0
 42
-0.05425642054212942
  0
VERTEX
  8
1
 10
234.4297347259017
 20
300.9851450386222
 30
0
 42
-0.03886192777694549
  0
VERTEX
  8
1
 10
234.3176103538418
 20
300.5865459070973
 30
0
 42
-0.02511887737131095
  0
VERTEX
  8
1
 10
234.1475916463784
 20
300.1858454728597
 30
0
 42
-0.01391435860714276
  0
VERTEX
  8
1
 10
233.9389767153128
 20
299.783744170147
 30
0
 42
-0.004443253589482776
  0
VERTEX
  8
1
 10
233.7110636724461
 20
299.3809424331968
 30
0
  0
SEQEND
  8
1
  0
POLYLINE
  8
1
 62
3
 66
1
  0
VERTEX
  8
1
 10
233.1368899746851
 20
308.3809424331968
 30
0
 42
0.006401683005962743
  0
VERTEX
  8
1
 10
232.6413085864788
 20
307.5568122641806
 30
0
 42
0.02019686451650904
  0
VERTEX
  8
1
 10
232.2068222971315
 20
306.7387146374184
 30
0
 42
0.03911197960760827
  0
VERTEX
  8
1
 10
231.8945262055021
 20
305.9326820951643
 30
0
 42
0.06467125169455568
  0
VERTEX
  8
1
 10
231.7655154104496
 20
305.1447471796724
 30
0
 42
0.09177780810705026
  0
VERTEX
  8
1
 10
231.8808850108331
 20
304.3809424331968
 30
0
 42
0.06213484501146207
  0
VERTEX
  8
1
 10
232.177825018346
 20
303.7771597193607
 30
0
 42
0.01032167272008381
  0
VERTEX
  8
1
 10
232.5849500760234
 20
303.1843825905606
 30
0
 42
-0.008968366807545902
  0
VERTEX
  8
1
 10
233.0086800680506
 20
302.5934968186787
 30
0
 42
-0.04086910226524373
  0
VERTEX
  8
1
 10
233.3554348786131
 20
301.9953881755967
 30
0
 42
-0.08398492570939632
  0
VERTEX
  8
1
 10
233.5316343918962
 20
301.3809424331968
 30
0
 42
-0.0574587901924918
  0
VERTEX
  8
1
 10
233.5218571914635
 20
300.9924486180806
 30
0
 42
-0.04092577827186341
  0
VERTEX
  8
1
 10
233.4324720699884
 20
300.5962840130419
 30
0
 42
-0.0262368082600547
  0
VERTEX
  8
1
 10
233.2833810077316
 20
300.1943663155613
 30
0
 42
-0.0144401250857207
  0
VERTEX
  8
1
 10
233.0944859849537
 20
299.7886132231193
 30
0
 42
-0.004595698192913204
  0
VERTEX
  8
1
 10
232.8856889819151
 20
299.3809424331968
 30
0
  0
SEQEND
  8
1
  0
POLYLINE
  8
1
 62
3
 66
1
  0
VERTEX
  8
1
 10
195.4679449566759
 20
314.3809424331968
 30
0
 42
-0.001282843573399297
  0
VERTEX
  8
1
 10
196.3772504939699
 20
314.2772160929899
 30
0
 42
-0.003855547891160869
  0
VERTEX
  8
1
 10
197.284615770052
 20
314.1642576766933
 30
0
 42
-0.006445299873554334
  0
VERTEX
  8
1
 10
198.1881005237104
 20
314.0328351082175
 30
0
 42
-0.009049879607991454
  0
VERTEX
  8
1
 10
199.0857644937329
 20
313.8737163114727
 30
0
 42
-0.0116461762364447
  0
VERTEX
  8
1
 10
199.9756674189079
 20
313.6776692103695
 30
0
 42
-0.008743508454847818
  0
VERTEX
  8
1
 10
200.5920198153704
 20
313.5145859323055
 30
0
 42
-0.008173065875596708
  0
VERTEX
  8
1
 10
201.2031549507193
 20
313.3305544899054
 30
0
 42
-0.007621914706593467
  0
VERTEX
  8
1
 10
201.8085944675023
 20
313.1271751875219
 30
0
 42
-0.007091699757995411
  0
VERTEX
  8
1
 10
202.4078600082672
 20
312.9060483295075
 30
0
 42
-0.006583037128415134
  0
VERTEX
  8
1
 10
203.000473215562
 20
312.6687742202151
 30
0
 42
-0.008713060780625219
  0
VERTEX
  8
1
 10
203.9592667818909
 20
312.2493219058047
 30
0
 42
-0.00529544189172628
  0
VERTEX
  8
1
 10
204.9054740935922
 20
311.8033796769265
 30
0
 42
-0.001863754328450054
  0
VERTEX
  8
1
 10
205.8457324859532
 20
311.3436746522522
 30
0
 42
0.001562292244655192
  0
VERTEX
  8
1
 10
206.7866792942614
 20
310.8829339504533
 30
0
 42
0.004976995968720518
  0
VERTEX
  8
1
 10
207.7349518538039
 20
310.4338846902014
 30
0
 42
0.006696095144210505
  0
VERTEX
  8
1
 10
208.5385351143937
 20
310.0760724840877
 30
0
 42
0.00780366642134714
  0
VERTEX
  8
1
 10
209.3521514564262
 20
309.7417121299001
 30
0
 42
0.01011296588918448
  0
VERTEX
  8
1
 10
210.1760511607514
 20
309.4371473777849
 30
0
 42
0.01131361176713951
  0
VERTEX
  8
1
 10
211.0104845082197
 20
309.168721977888
 30
0
 42
0.02500283413452356
  0
VERTEX
  8
1
 10
212.568936029021
 20
308.7896381583494
 30
0
 42
0.007638934575427626
  0
VERTEX
  8
1
 10
213.2883132024002
 20
308.6636793513927
 30
0
 42
0.00662989680886047
  0
VERTEX
  8
1
 10
214.012297568809
 20
308.5581075807233
 30
0
 42
0.00284904376704909
  0
VERTEX
  8
1
 10
214.7393533972376
 20
308.4661271675788
 30
0
 42
0.001877809743011857
  0
VERTEX
  8
1
 10
215.4679449566759
 20
308.3809424331968
 30
0
  0
SEQEND
  8
1
  0
POLYLINE
  8
1
 62
3
 66
1
  0
VERTEX
  8
1
 10
195.4679449566759
 20
313.3809424331968
 30
0
 42
-0.001282843573275839
  0
VERTEX
  8
1
 10
196.3772504939699
 20
313.2772160929899
 30
0
 42
-0.003855547891037632
  0
VERTEX
  8
1
 10
197.284615770052
 20
313.1642576766933
 30
0
 42
-0.006445299873554334
  0
VERTEX
  8
1
 10
198.1881005237104
 20
313.0328351082175
 30
0
 42
-0.009049879607807364
  0
VERTEX
  8
1
 10
199.0857644937329
 20
312.8737163114728
 30
0
 42
-0.0116461762365051
  0
VERTEX
  8
1
 10
199.9756674189079
 20
312.6776692103695
 30
0
 42
-0.008743508454847818
  0
VERTEX
  8
1
 10
200.5920198153704
 20
312.5145859323055
 30
0
 42
-0.008173065875596708
  0
VERTEX
  8
1
 10
201.2031549507193
 20
312.3305544899054
 30
0
 42
-0.007621914706593467
  0
VERTEX
  8
1
 10
201.8085944675023
 20
312.1271751875219
 30
0
 42
-0.007091699757995411
  0
VERTEX
  8
1
 10
202.4078600082672
 20
311.9060483295075
 30
0
 42
-0.006583037128415134
  0
VERTEX
  8
1
 10
203.000473215562
 20
311.6687742202151
 30
0
 42
-0.008713060780525736
  0
VERTEX
  8
1
 10
203.9592667818909
 20
311.2493219058047
 30
0
 42
-0.005295441891824649
  0
VERTEX
  8
1
 10
204.9054740935922
 20
310.8033796769265
 30
0
 42
-0.001863754328450054
  0
VERTEX
  8
1
 10
205.8457324859532
 20
310.3436746522522
 30
0
 42
0.001562292244606342
  0
VERTEX
  8
1
 10
206.7866792942614
 20
309.8829339504532
 30
0
 42
0.00497699596881822
  0
VERTEX
  8
1
 10
207.7349518538039
 20
309.4338846902014
 30
0
 42
0.006696095144088152
  0
VERTEX
  8
1
 10
208.5385351143937
 20
309.0760724840877
 30
0
 42
0.007803666421469661
  0
VERTEX
  8
1
 10
209.3521514564262
 20
308.7417121299001
 30
0
 42
0.01011296588903186
  0
VERTEX
  8
1
 10
210.1760511607514
 20
308.4371473777848
 30
0
 42
0.01131361176735309
  0
VERTEX
  8
1
 10
211.0104845082197
 20
308.168721977888
 30
0
 42
0.02500283413427833
  0
VERTEX
  8
1
 10
212.568936029021
 20
307.7896381583494
 30
0
 42
0.007638934575672999
  0
VERTEX
  8
1
 10
213.2883132024002
 20
307.6636793513927
 30
0
 42
0.006629896808614878
  0
VERTEX
  8
1
 10
214.012297568809
 20
307.5581075807233
 30
0
 42
0.002849043767294729
  0
VERTEX
  8
1
 10
214.7393533972376
 20
307.4661271675788
 30
0
 42
0.001877809742766275
  0
VERTEX
  8
1
 10
215.4679449566759
 20
307.3809424331968
 30
0
  0
SEQEND
  8
1
  0
POLYLINE
  8
1
 62
3
 66
1
  0
VERTEX
  8
1
 10
195.4679449566759
 20
311.8809424331968
 30
0
 42
-0.002401515546320921
  0
VERTEX
  8
1
 10
196.2124220186548
 20
311.9392506137493
 30
0
 42
-0.007270061773928622
  0
VERTEX
  8
1
 10
196.9545200613402
 20
311.9829817491637
 30
0
 42
-0.01231149283695376
  0
VERTEX
  8
1
 10
197.6918600654384
 20
311.9975587943019
 30
0
 42
-0.01755354876930095
  0
VERTEX
  8
1
 10
198.4220630116558
 20
311.9684047040256
 30
0
 42
-0.02286882021828372
  0
VERTEX
  8
1
 10
199.142749880699
 20
311.8809424331968
 30
0
 42
-0.02422950548629814
  0
VERTEX
  8
1
 10
199.912423020026
 20
311.7096192901802
 30
0
 42
-0.01734588071484207
  0
VERTEX
  8
1
 10
200.6711742991633
 20
311.4731199047938
 30
0
 42
-0.01066198829470844
  0
VERTEX
  8
1
 10
201.4220937890898
 20
311.1921238129993
 30
0
 42
-0.004244675796571036
  0
VERTEX
  8
1
 10
202.1682715607841
 20
310.8873105507583
 30
0
 42
0.002052424584173521
  0
VERTEX
  8
1
 10
202.912797685225
 20
310.5793596540324
 30
0
 42
0.006058712418374536
  0
VERTEX
  8
1
 10
203.709339478227
 20
310.264926731519
 30
0
 42
0.00162078160407523
  0
VERTEX
  8
1
 10
204.5070288942088
 20
309.9641172429827
 30
0
 42
0.002483729581238923
  0
VERTEX
  8
1
 10
205.3053710767265
 20
309.670524215703
 30
0
 42
-0.000669760511008702
  0
VERTEX
  8
1
 10
206.1038711693364
 20
309.3777406769597
 30
0
 42
-0.002478661273215527
  0
VERTEX
  8
1
 10
206.9020343155949
 20
309.0793596540324
 30
0
 42
-0.00109564732241886
  0
VERTEX
  8
1
 10
207.5793788889771
 20
308.8192338585742
 30
0
 42
0.002424872975838341
  0
VERTEX
  8
1
 10
208.2580548519412
 20
308.5606662545923
 30
0
 42
0.005958294520758708
  0
VERTEX
  8
1
 10
208.9399930965316
 20
308.3138669658671
 30
0
 42
0.009559540633496828
  0
VERTEX
  8
1
 10
209.6271245147928
 20
308.0890461161789
 30
0
 42
0.01321742970658609
  0
VERTEX
  8
1
 10
210.321379998769
 20
307.8964138293079
 30
0
 42
0.0207249285408914
  0
VERTEX
  8
1
 10
211.3284877595468
 20
307.6893463845917
 30
0
 42
0.01367359041614131
  0
VERTEX
  8
1
 10
212.350399007527
 20
307.5515943835381
 30
0
 42
0.0119059491443083
  0
VERTEX
  8
1
 10
213.383412870909
 20
307.4658289652316
 30
0
 42
0.004970428984123545
  0
VERTEX
  8
1
 10
214.4238284778921
 20
307.4147212687564
 30
0
 42
0.003400932166491346
  0
VERTEX
  8
1
 10
215.4679449566759
 20
307.3809424331968
 30
0
  0
SEQEND
  8
1
  0
POLYLINE
  8
1
 62
3
 66
1
  0
VERTEX
  8
1
 10
195.4679449566759
 20
310.8809424331968
 30
0
 42
-0.002401515546169263
  0
VERTEX
  8
1
 10
196.2124220186548
 20
310.9392506137493
 30
0
 42
-0.007270061773928622
  0
VERTEX
  8
1
 10
196.9545200613402
 20
310.9829817491637
 30
0
 42
-0.01231149283695376
  0
VERTEX
  8
1
 10
197.6918600654384
 20
310.9975587943019
 30
0
 42
-0.01755354876930095
  0
VERTEX
  8
1
 10
198.4220630116558
 20
310.9684047040256
 30
0
 42
-0.02286882021843901
  0
VERTEX
  8
1
 10
199.142749880699
 20
310.8809424331968
 30
0
 42
-0.024229505486439
  0
VERTEX
  8
1
 10
199.912423020026
 20
310.7096192901802
 30
0
 42
-0.01734588071477367
  0
VERTEX
  8
1
 10
200.6711742991633
 20
310.4731199047939
 30
0
 42
-0.01066198829457564
  0
VERTEX
  8
1
 10
201.4220937890898
 20
310.1921238129994
 30
0
 42
-0.004244675796505532
  0
VERTEX
  8
1
 10
202.1682715607841
 20
309.8873105507583
 30
0
 42
0.002052424584173521
  0
VERTEX
  8
1
 10
202.912797685225
 20
309.5793596540324
 30
0
 42
0.006058712418374536
  0
VERTEX
  8
1
 10
203.709339478227
 20
309.264926731519
 30
0
 42
0.00162078160407523
  0
VERTEX
  8
1
 10
204.5070288942088
 20
308.9641172429827
 30
0
 42
0.002483729581270231
  0
VERTEX
  8
1
 10
205.3053710767265
 20
308.670524215703
 30
0
 42
-0.0006697605108830246
  0
VERTEX
  8
1
 10
206.1038711693364
 20
308.3777406769597
 30
0
 42
-0.002478661273277922
  0
VERTEX
  8
1
 10
206.9020343155949
 20
308.0793596540324
 30
0
 42
-0.00109564732241886
  0
VERTEX
  8
1
 10
207.5793788889771
 20
307.8192338585742
 30
0
 42
0.002424872975838341
  0
VERTEX
  8
1
 10
208.2580548519412
 20
307.5606662545923
 30
0
 42
0.005958294520758708
  0
VERTEX
  8
1
 10
208.9399930965316
 20
307.3138669658671
 30
0
 42
0.009559540633496828
  0
VERTEX
  8
1
 10
209.6271245147928
 20
307.0890461161789
 30
0
 42
0.01321742970658609
  0
VERTEX
  8
1
 10
210.321379998769
 20
306.8964138293079
 30
0
 42
0.02072492854086436
  0
VERTEX
  8
1
 10
211.3284877595468
 20
306.6893463845917
 30
0
 42
0.01367359041625007
  0
VERTEX
  8
1
 10
212.350399007527
 20
306.5515943835381
 30
0
 42
0.01190594914409033
  0
VERTEX
  8
1
 10
213.383412870909
 20
306.4658289652315
 30
0
 42
0.004970428984423979
  0
VERTEX
  8
1
 10
214.4238284778921
 20
306.4147212687564
 30
0
 42
0.003400932166163605
  0
VERTEX
  8
1
 10
215.4679449566759
 20
306.3809424331968
 30
0
  0
SEQEND
  8
1
  0
POLYLINE
  8
1
 62
3
 66
1
  0
VERTEX
  8
1
 10
195.4679449566759
 20
309.3749828118278
 30
0
 42
-0.001487848288992701
  0
VERTEX
  8
1
 10
196.100038351075
 20
309.4064607424471
 30
0
 42
-0.004476505034248112
  0
VERTEX
  8
1
 10
196.7315459839741
 20
309.43036717148
 30
0
 42
-0.007497884543597785
  0
VERTEX
  8
1
 10
197.3618820938733
 20
309.4391305973402
 30
0
 42
-0.01055265308905473
  0
VERTEX
  8
1
 10
197.9904609192726
 20
309.4251795184413
 30
0
 42
-0.01360823765831315
  0
VERTEX
  8
1
 10
198.616696698672
 20
309.3809424331968
 30
0
 42
-0.017780420542347
  0
VERTEX
  8
1
 10
199.3713771698138
 20
309.2786886946516
 30
0
 42
-0.0167286127298938
  0
VERTEX
  8
1
 10
200.1193556351307
 20
309.1242011944372
 30
0
 42
-0.01573533131190692
  0
VERTEX
  8
1
 10
200.8582310922955
 20
308.9208405634954
 30
0
 42
-0.01482389590205013
  0
VERTEX
  8
1
 10
201.5856025389809
 20
308.671967432768
 30
0
 42
-0.01400939333522224
  0
VERTEX
  8
1
 10
202.2990689728598
 20
308.3809424331968
 30
0
 42
-0.005755986491887435
  0
VERTEX
  8
1
 10
202.7620411342601
 20
308.1693217766656
 30
0
 42
0.000726404525349499
  0
VERTEX
  8
1
 10
203.2218874994473
 20
307.9535087763462
 30
0
 42
0.007266235803859448
  0
VERTEX
  8
1
 10
203.6825879393295
 20
307.7462151340738
 30
0
 42
0.01402911607730355
  0
VERTEX
  8
1
 10
204.148122324815
 20
307.5601525516834
 30
0
 42
0.02092265011964946
  0
VERTEX
  8
1
 10
204.6224705268119
 20
307.4080327310102
 30
0
 42
0.02585205553151424
  0
VERTEX
  8
1
 10
205.1685416543839
 20
307.2877546810719
 30
0
 42
0.0130787054359304
  0
VERTEX
  8
1
 10
205.7264311108112
 20
307.2097328798453
 30
0
 42
0.01031549261502232
  0
VERTEX
  8
1
 10
206.2918467005337
 20
307.1574736746636
 30
0
 42
0.0004827589535810041
  0
VERTEX
  8
1
 10
206.8604962279907
 20
307.1144834128602
 30
0
 42
-0.006885535425686792
  0
VERTEX
  8
1
 10
207.4280874976219
 20
307.0642684417682
 30
0
 42
-0.00864935323822956
  0
VERTEX
  8
1
 10
207.9875197962176
 20
306.9950790844386
 30
0
 42
-0.004805729940515841
  0
VERTEX
  8
1
 10
208.5433355284362
 20
306.9110855653763
 30
0
 42
-0.0009220831189938332
  0
VERTEX
  8
1
 10
209.0971962375407
 20
306.8208813876533
 30
0
 42
0.002980105104960052
  0
VERTEX
  8
1
 10
209.6507634667943
 20
306.7330600543422
 30
0
 42
0.006887240875692023
  0
VERTEX
  8
1
 10
210.20569875946
 20
306.656215068515
 30
0
 42
0.007194387540868292
  0
VERTEX
  8
1
 10
210.6448288418503
 20
306.6079648941497
 30
0
 42
0.004252160957314309
  0
VERTEX
  8
1
 10
211.0854297420489
 20
306.5697376338595
 30
0
 42
0.00473471478533373
  0
VERTEX
  8
1
 10
211.527091118151
 20
306.5394047845882
 30
0
 42
0.001808389312237689
  0
VERTEX
  8
1
 10
211.9694026282522
 20
306.5148378432795
 30
0
 42
0.002305351000062186
  0
VERTEX
  8
1
 10
212.4119539304476
 20
306.4939083068772
 30
0
 42
3.675170216871796e-005
  0
VERTEX
  8
1
 10
213.0235432233427
 20
306.467855070376
 30
0
 42
0.001837690898063604
  0
VERTEX
  8
1
 10
213.6348717911382
 20
306.4441085417182
 30
0
 42
0.0005865993104889367
  0
VERTEX
  8
1
 10
214.246004815109
 20
306.4220920439429
 30
0
 42
0.0003522223078937277
  0
VERTEX
  8
1
 10
214.8570074765299
 20
306.4012289000895
 30
0
 42
0.0001173843014284051
  0
VERTEX
  8
1
 10
215.4679449566759
 20
306.3809424331968
 30
0
  0
SEQEND
  8
1
  0
POLYLINE
  8
1
 62
3
 66
1
  0
VERTEX
  8
1
 10
195.4679449566759
 20
308.3749828118278
 30
0
 42
-0.001487848289172113
  0
VERTEX
  8
1
 10
196.100038351075
 20
308.4064607424471
 30
0
 42
-0.004476505034158182
  0
VERTEX
  8
1
 10
196.7315459839741
 20
308.43036717148
 30
0
 42
-0.007497884543507629
  0
VERTEX
  8
1
 10
197.3618820938733
 20
308.4391305973402
 30
0
 42
-0.01055265308887419
  0
VERTEX
  8
1
 10
197.9904609192726
 20
308.4251795184413
 30
0
 42
-0.01360823765831315
  0
VERTEX
  8
1
 10
198.616696698672
 20
308.3809424331968
 30
0
 42
-0.017780420542347
  0
VERTEX
  8
1
 10
199.3713771698138
 20
308.2786886946516
 30
0
 42
-0.0167286127298938
  0
VERTEX
  8
1
 10
200.1193556351307
 20
308.1242011944372
 30
0
 42
-0.01573533131190692
  0
VERTEX
  8
1
 10
200.8582310922955
 20
307.9208405634954
 30
0
 42
-0.0148238959021192
  0
VERTEX
  8
1
 10
201.5856025389809
 20
307.671967432768
 30
0
 42
-0.01400939333515494
  0
VERTEX
  8
1
 10
202.2990689728598
 20
307.3809424331968
 30
0
 42
-0.00575598649209039
  0
VERTEX
  8
1
 10
202.7620411342601
 20
307.1693217766656
 30
0
 42
0.000726404525349499
  0
VERTEX
  8
1
 10
203.2218874994473
 20
306.9535087763462
 30
0
 42
0.007266235803859448
  0
VERTEX
  8
1
 10
203.6825879393295
 20
306.7462151340738
 30
0
 42
0.01402911607730355
  0
VERTEX
  8
1
 10
204.148122324815
 20
306.5601525516834
 30
0
 42
0.02092265011964946
  0
VERTEX
  8
1
 10
204.6224705268119
 20
306.4080327310102
 30
0
 42
0.02585205553151424
  0
VERTEX
  8
1
 10
205.1685416543839
 20
306.2877546810719
 30
0
 42
0.0130787054359304
  0
VERTEX
  8
1
 10
205.7264311108112
 20
306.2097328798453
 30
0
 42
0.01031549261502232
  0
VERTEX
  8
1
 10
206.2918467005337
 20
306.1574736746636
 30
0
 42
0.0004827589535810041
  0
VERTEX
  8
1
 10
206.8604962279907
 20
306.1144834128602
 30
0
 42
-0.006885535425686792
  0
VERTEX
  8
1
 10
207.4280874976219
 20
306.0642684417682
 30
0
 42
-0.008649353238129411
  0
VERTEX
  8
1
 10
207.9875197962176
 20
305.9950790844387
 30
0
 42
-0.004805729940415918
  0
VERTEX
  8
1
 10
208.5433355284362
 20
305.9110855653763
 30
0
 42
-0.0009220831189938332
  0
VERTEX
  8
1
 10
209.0971962375407
 20
305.8208813876533
 30
0
 42
0.002980105104960052
  0
VERTEX
  8
1
 10
209.6507634667943
 20
305.7330600543422
 30
0
 42
0.006887240875692023
  0
VERTEX
  8
1
 10
210.20569875946
 20
305.656215068515
 30
0
 42
0.007194387540868292
  0
VERTEX
  8
1
 10
210.6448288418503
 20
305.6079648941497
 30
0
 42
0.004252160957314309
  0
VERTEX
  8
1
 10
211.0854297420489
 20
305.5697376338595
 30
0
 42
0.00473471478533373
  0
VERTEX
  8
1
 10
211.527091118151
 20
305.5394047845882
 30
0
 42
0.001808389312237689
  0
VERTEX
  8
1
 10
211.9694026282522
 20
305.5148378432795
 30
0
 42
0.002305351000062186
  0
VERTEX
  8
1
 10
212.4119539304476
 20
305.4939083068772
 30
0
 42
3.675170216871796e-005
  0
VERTEX
  8
1
 10
213.0235432233427
 20
305.467855070376
 30
0
 42
0.001837690898063604
  0
VERTEX
  8
1
 10
213.6348717911382
 20
305.4441085417182
 30
0
 42
0.0005865993104889367
  0
VERTEX
  8
1
 10
214.246004815109
 20
305.4220920439429
 30
0
 42
0.0003522223078937277
  0
VERTEX
  8
1
 10
214.8570074765299
 20
305.4012289000895
 30
0
 42
0.0001173843014284051
  0
VERTEX
  8
1
 10
215.4679449566759
 20
305.3809424331968
 30
0
  0
SEQEND
  8
1
  0
POLYLINE
  8
1
 62
3
 66
1
  0
VERTEX
  8
1
 10
195.4679449566759
 20
306.8809424331968
 30
0
 42
-0.001393915121938266
  0
VERTEX
  8
1
 10
196.100980272784
 20
306.9093837380235
 30
0
 42
-0.00419630401197069
  0
VERTEX
  8
1
 10
196.7331943469648
 20
306.9307147166435
 30
0
 42
-0.00703743326232258
  0
VERTEX
  8
1
 10
197.3637659372913
 20
306.9378250428501
 30
0
 42
-0.009926024469296383
  0
VERTEX
  8
1
 10
197.991873801836
 20
306.9236043904369
 30
0
 42
-0.01284330496700396
  0
VERTEX
  8
1
 10
198.616696698672
 20
306.8809424331968
 30
0
 42
-0.01770265890847034
  0
VERTEX
  8
1
 10
199.4398764537804
 20
306.7724049645839
 30
0
 42
-0.01507171499069455
  0
VERTEX
  8
1
 10
200.2565152045443
 20
306.6096935888179
 30
0
 42
-0.0124150434103587
  0
VERTEX
  8
1
 10
201.0673041513824
 20
306.4012509473585
 30
0
 42
-0.009804710123024732
  0
VERTEX
  8
1
 10
201.8729344947131
 20
306.1555196816649
 30
0
 42
-0.007270830576754383
  0
VERTEX
  8
1
 10
202.6740974349549
 20
305.8809424331968
 30
0
 42
-0.0002864829082420127
  0
VERTEX
  8
1
 10
203.1040600849289
 20
305.7257326537512
 30
0
 42
0.00566823375148237
  0
VERTEX
  8
1
 10
203.5342114008295
 20
305.5756513344043
 30
0
 42
0.01176641970668072
  0
VERTEX
  8
1
 10
203.9658348190919
 20
305.4417421305714
 30
0
 42
0.01822351206898179
  0
VERTEX
  8
1
 10
204.4002137761514
 20
305.3350486976676
 30
0
 42
0.02478922320255296
  0
VERTEX
  8
1
 10
204.8386317084431
 20
305.2666146911085
 30
0
 42
0.02758139801197472
  0
VERTEX
  8
1
 10
205.2994978108383
 20
305.2434937404685
 30
0
 42
0.01483379378743742
  0
VERTEX
  8
1
 10
205.7647505155211
 20
305.2596387974143
 30
0
 42
0.01193127750305881
  0
VERTEX
  8
1
 10
206.2330267682051
 20
305.3010550911721
 30
0
 42
0.002190478925461056
  0
VERTEX
  8
1
 10
206.7029635146039
 20
305.3537478509683
 30
0
 42
-0.005086201686774873
  0
VERTEX
  8
1
 10
207.173197700431
 20
305.4037223060291
 30
0
 42
-0.01108267781646278
  0
VERTEX
  8
1
 10
207.8336000363879
 20
305.4502096574389
 30
0
 42
-0.008493923054777603
  0
VERTEX
  8
1
 10
208.4923975314535
 20
305.4706976795836
 30
0
 42
-0.005830763332700484
  0
VERTEX
  8
1
 10
209.1500960618035
 20
305.4722914743615
 30
0
 42
-0.003134911106183749
  0
VERTEX
  8
1
 10
209.8072015036134
 20
305.4620961436705
 30
0
 42
-0.0004288851269773449
  0
VERTEX
  8
1
 10
210.4642197330589
 20
305.4472167894086
 30
0
 42
0.001263637240729122
  0
VERTEX
  8
1
 10
211.4638034031747
 20
305.4272458399722
 30
0
 42
0.0009812774421883363
  0
VERTEX
  8
1
 10
212.4641613230288
 20
305.4117522759985
 30
0
 42
0.0007003385916370306
  0
VERTEX
  8
1
 10
213.4650999301869
 20
305.3996167511218
 30
0
 42
0.000419733502533449
  0
VERTEX
  8
1
 10
214.4664256622141
 20
305.3897199189765
 30
0
 42
0.0001399970764368673
  0
VERTEX
  8
1
 10
215.4679449566759
 20
305.3809424331968
 30
0
  0
SEQEND
  8
1
  0
POLYLINE
  8
1
 62
3
 66
1
  0
VERTEX
  8
1
 10
195.4679449566759
 20
305.8497802865381
 30
0
 42
-0.001460442418311034
  0
VERTEX
  8
1
 10
196.1009734728066
 20
305.885879921268
 30
0
 42
-0.004397959821634867
  0
VERTEX
  8
1
 10
196.7331824470043
 20
305.9145127546483
 30
0
 42
-0.007379722782306886
  0
VERTEX
  8
1
 10
197.3637523373364
 20
305.9282119853296
 30
0
 42
-0.01041556889196955
  0
VERTEX
  8
1
 10
197.9918636018699
 20
305.9195108119623
 30
0
 42
-0.01348354551967341
  0
VERTEX
  8
1
 10
198.616696698672
 20
305.8809424331968
 30
0
 42
-0.01852174853758344
  0
VERTEX
  8
1
 10
199.4398619109474
 20
305.7753110211995
 30
0
 42
-0.01562583279985912
  0
VERTEX
  8
1
 10
200.2564975934301
 20
305.613212772116
 30
0
 42
-0.01270868136942997
  0
VERTEX
  8
1
 10
201.0672907434035
 20
305.4039302290312
 30
0
 42
-0.009851910915184801
  0
VERTEX
  8
1
 10
201.8729283581506
 20
305.1567459350298
 30
0
 42
-0.007085593377774065
  0
VERTEX
  8
1
 10
202.6740974349549
 20
304.8809424331968
 30
0
 42
-0.0001477941855634997
  0
VERTEX
  8
1
 10
203.1040616203867
 20
304.7254258272018
 30
0
 42
0.005767172919382156
  0
VERTEX
  8
1
 10
203.5342133141042
 20
304.5752690096822
 30
0
 42
0.01182779522901146
  0
VERTEX
  8
1
 10
203.9658363424546
 20
304.4414377209512
 30
0
 42
0.01824629362314794
  0
VERTEX
  8
1
 10
204.4002145317852
 20
304.3348977013224
 30
0
 42
0.02476807313138302
  0
VERTEX
  8
1
 10
204.8386317084431
 20
304.2666146911087
 30
0
 42
0.02753061669743911
  0
VERTEX
  8
1
 10
205.2994973663047
 20
304.2435825704728
 30
0
 42
0.0148133658591033
  0
VERTEX
  8
1
 10
205.7647499547259
 20
304.2597508596674
 30
0
 42
0.01190430324348895
  0
VERTEX
  8
1
 10
206.2330263134151
 20
304.3011459706719
 30
0
 42
0.002183927244490948
  0
VERTEX
  8
1
 10
206.7029632820807
 20
304.353794315466
 30
0
 42
-0.005081831715210517
  0
VERTEX
  8
1
 10
207.173197700431
 20
304.4037223060291
 30
0
 42
-0.01107023940316246
  0
VERTEX
  8
1
 10
207.8336002338746
 20
304.4501701941821
 30
0
 42
-0.008484735428462618
  0
VERTEX
  8
1
 10
208.4923977822278
 20
304.4706475679881
 30
0
 42
-0.005824984950583264
  0
VERTEX
  8
1
 10
209.1500962671222
 20
304.4722504460555
 30
0
 42
-0.003132588015331943
  0
VERTEX
  8
1
 10
209.8072016101888
 20
304.4620748469929
 30
0
 42
-0.0004300197765808265
  0
VERTEX
  8
1
 10
210.4642197330589
 20
304.4472167894086
 30
0
 42
0.001259723772546079
  0
VERTEX
  8
1
 10
211.4638032988065
 20
304.4272666955925
 30
0
 42
0.0009782375385798091
  0
VERTEX
  8
1
 10
212.4641611838713
 20
304.4117800834922
 30
0
 42
0.0006981689223466898
  0
VERTEX
  8
1
 10
213.465099808424
 20
304.3996410826788
 30
0
 42
0.0004184329134124977
  0
VERTEX
  8
1
 10
214.4664255926353
 20
304.3897338227233
 30
0
 42
0.0001395634117617727
  0
VERTEX
  8
1
 10
215.4679449566759
 20
304.3809424331968
 30
0
  0
SEQEND
  8
1
  0
POLYLINE
  8
1
 62
3
 66
1
  0
VERTEX
  8
1
 10
195.4679449566759
 20
301.8809424331968
 30
0
 42
-0.0002335519104047373
  0
VERTEX
  8
1
 10
196.0974862077205
 20
301.8880236852656
 30
0
 42
-0.0007005663859821036
  0
VERTEX
  8
1
 10
196.7270797331037
 20
301.8939291320132
 30
0
 42
-0.00116728847338987
  0
VERTEX
  8
1
 10
197.3567778071642
 20
301.8974829681182
 30
0
 42
-0.001633442215188606
  0
VERTEX
  8
1
 10
197.9866327042408
 20
301.8975093882594
 30
0
 42
-0.002098630677718244
  0
VERTEX
  8
1
 10
198.616696698672
 20
301.8928325871156
 30
0
 42
-0.001836296502024601
  0
VERTEX
  8
1
 10
199.4288871044107
 20
301.8796536416923
 30
0
 42
0.0004944346747830941
  0
VERTEX
  8
1
 10
200.2411169381961
 20
301.8642941145815
 30
0
 42
0.002826535781130913
  0
VERTEX
  8
1
 10
201.0529916427407
 20
301.8543350447903
 30
0
 42
0.005169687816673181
  0
VERTEX
  8
1
 10
201.8641166607562
 20
301.8573574713264
 30
0
 42
0.007522252505424126
  0
VERTEX
  8
1
 10
202.6740974349549
 20
301.8809424331968
 30
0
 42
0.004271185294096702
  0
VERTEX
  8
1
 10
203.1062808663428
 20
301.9037379804311
 30
0
 42
0.0004085886509024064
  0
VERTEX
  8
1
 10
203.5384255692459
 20
301.9305895157236
 30
0
 42
-0.001118848494011143
  0
VERTEX
  8
1
 10
203.9709319838039
 20
301.9575209463204
 30
0
 42
-0.003415133681331165
  0
VERTEX
  8
1
 10
204.4042005501565
 20
301.9805561794675
 30
0
 42
-0.005694717497794223
  0
VERTEX
  8
1
 10
204.8386317084431
 20
301.9957191224111
 30
0
 42
-0.00457498568066079
  0
VERTEX
  8
1
 10
205.308347711876
 20
302.0012362267232
 30
0
 42
0.0009489473350113263
  0
VERTEX
  8
1
 10
205.7782711575139
 20
302.0033513333096
 30
0
 42
0.006488725919174591
  0
VERTEX
  8
1
 10
206.2467932006342
 20
302.0124305963863
 30
0
 42
0.01215971397457636
  0
VERTEX
  8
1
 10
206.7123049965141
 20
302.0388401701694
 30
0
 42
0.01793657943326281
  0
VERTEX
  8
1
 10
207.173197700431
 20
302.0929462088748
 30
0
 42
0.02806143278880658
  0
VERTEX
  8
1
 10
207.8399807579642
 20
302.2342551953705
 30
0
 42
0.01206734520026562
  0
VERTEX
  8
1
 10
208.4979019810793
 20
302.4299270390079
 30
0
 42
0.007302900516061665
  0
VERTEX
  8
1
 10
209.1515338786905
 20
302.6522193477213
 30
0
 42
-0.005441792991572524
  0
VERTEX
  8
1
 10
209.8054489597123
 20
302.8733897294443
 30
0
 42
-0.01567352639376117
  0
VERTEX
  8
1
 10
210.4642197330589
 20
303.0656957921111
 30
0
 42
-0.02763614220696749
  0
VERTEX
  8
1
 10
211.4408633656249
 20
303.255539025832
 30
0
 42
-0.02140139376498637
  0
VERTEX
  8
1
 10
212.4335746062957
 20
303.3489126968705
 30
0
 42
-0.01504769255778593
  0
VERTEX
  8
1
 10
213.4383365530454
 20
303.3699341958971
 30
0
 42
-0.008883408330807186
  0
VERTEX
  8
1
 10
214.4511323038475
 20
303.3427209135825
 30
0
 42
-0.002932426850949973
  0
VERTEX
  8
1
 10
215.4679449566759
 20
303.2913902405974
 30
0
  0
SEQEND
  8
1
  0
POLYLINE
  8
1
 62
3
 66
1
  0
VERTEX
  8
1
 10
195.4679449566759
 20
300.8809424331968
 30
0
 42
-0.0002378208919219086
  0
VERTEX
  8
1
 10
196.0974594836067
 20
300.8881091747808
 30
0
 42
-0.000713357377826855
  0
VERTEX
  8
1
 10
196.7270329659046
 20
300.8940787386648
 30
0
 42
-0.001188552287256942
  0
VERTEX
  8
1
 10
197.3567243589367
 20
300.8976539471486
 30
0
 42
-0.001663092466878469
  0
VERTEX
  8
1
 10
197.9865926180702
 20
300.8976376225322
 30
0
 42
-0.00213653729329807
  0
VERTEX
  8
1
 10
198.616696698672
 20
300.8928325871156
 30
0
 42
-0.001865631803425538
  0
VERTEX
  8
1
 10
199.4289781627828
 20
300.8793623491108
 30
0
 42
0.0005141892358381838
  0
VERTEX
  8
1
 10
200.2413040235378
 20
300.8636956350478
 30
0
 42
0.002895590790768721
  0
VERTEX
  8
1
 10
201.0532292258657
 20
300.8535750245952
 30
0
 42
0.005289608783587635
  0
VERTEX
  8
1
 10
201.8643087146951
 20
300.8567430974219
 30
0
 42
0.007694918188328123
  0
VERTEX
  8
1
 10
202.6740974349549
 20
300.8809424331968
 30
0
 42
0.004343499979465415
  0
VERTEX
  8
1
 10
203.106113672689
 20
300.9042728271438
 30
0
 42
0.0002859975229808941
  0
VERTEX
  8
1
 10
203.5381048655694
 20
300.9316154356865
 30
0
 42
-0.001341803219790887
  0
VERTEX
  8
1
 10
203.9705413669317
 20
300.9587705161771
 30
0
 42
-0.003766903632593037
  0
VERTEX
  8
1
 10
204.4038935301111
 20
300.981538325968
 30
0
 42
-0.00616943587574707
  0
VERTEX
  8
1
 10
204.8386317084431
 20
300.9957191224111
 30
0
 42
-0.004876619092536142
  0
VERTEX
  8
1
 10
205.3089415011536
 20
300.9993367153727
 30
0
 42
0.001180039295826396
  0
VERTEX
  8
1
 10
205.779480721303
 20
300.9994819806059
 30
0
 42
0.007259670785059473
  0
VERTEX
  8
1
 10
206.2483216442961
 20
301.0075411580048
 30
0
 42
0.01351855179281072
  0
VERTEX
  8
1
 10
206.7135365455372
 20
301.0349004874632
 30
0
 42
0.01992093400984657
  0
VERTEX
  8
1
 10
207.173197700431
 20
301.0929462088748
 30
0
 42
0.03139252909790975
  0
VERTEX
  8
1
 10
207.8418507725086
 20
301.2482488047518
 30
0
 42
0.01336612539539057
  0
VERTEX
  8
1
 10
208.4996811485971
 20
301.4645766818869
 30
0
 42
0.008041575925416525
  0
VERTEX
  8
1
 10
209.1522871919098
 20
301.7106100220749
 30
0
 42
-0.006199739085143577
  0
VERTEX
  8
1
 10
209.8052672656593
 20
301.9550290071108
 30
0
 42
-0.01768287072613689
  0
VERTEX
  8
1
 10
210.4642197330589
 20
302.1665138187893
 30
0
 42
-0.03095415732676076
  0
VERTEX
  8
1
 10
211.4359012951683
 20
302.3707930260188
 30
0
 42
-0.02393841117519843
  0
VERTEX
  8
1
 10
212.4269585123536
 20
302.4674765770163
 30
0
 42
-0.0167621353141232
  0
VERTEX
  8
1
 10
213.432547470846
 20
302.4834633858398
 30
0
 42
-0.009855059173616319
  0
VERTEX
  8
1
 10
214.4478242568764
 20
302.4456523665473
 30
0
 42
-0.003245338130062986
  0
VERTEX
  8
1
 10
215.4679449566759
 20
302.3809424331968
 30
0
  0
SEQEND
  8
1
  0
POLYLINE
  8
1
 62
3
 66
1
  0
VERTEX
  8
1
 10
195.4679449566759
 20
299.3809424331968
 30
0
 42
-0.000568627005882116
  0
VERTEX
  8
1
 10
196.0971433515683
 20
299.4006502942324
 30
0
 42
-0.001705583657887978
  0
VERTEX
  8
1
 10
196.7264797348374
 20
299.417497435694
 30
0
 42
-0.002841296066188332
  0
VERTEX
  8
1
 10
197.35609209486
 20
299.4286231380077
 30
0
 42
-0.003973764666248019
  0
VERTEX
  8
1
 10
197.9861184200126
 20
299.4311666815993
 30
0
 42
-0.005099253580600393
  0
VERTEX
  8
1
 10
198.616696698672
 20
299.4222673468951
 30
0
 42
-0.00422246366186578
  0
VERTEX
  8
1
 10
199.3548231694377
 20
299.3966273341328
 30
0
 42
0.0005439850099908488
  0
VERTEX
  8
1
 10
200.0930084177683
 20
299.365550293432
 30
0
 42
0.005315690746659631
  0
VERTEX
  8
1
 10
200.830367658135
 20
299.3431607677426
 30
0
 42
0.01014946503151746
  0
VERTEX
  8
1
 10
201.5660161050085
 20
299.3435833000143
 30
0
 42
0.01502468512794848
  0
VERTEX
  8
1
 10
202.2990689728598
 20
299.3809424331968
 30
0
 42
0.0113754638599484
  0
VERTEX
  8
1
 10
202.7662332284691
 20
299.4295696877477
 30
0
 42
0.007443944908798549
  0
VERTEX
  8
1
 10
203.2320645516894
 20
299.4958590604057
 30
0
 42
0.007896505749609532
  0
VERTEX
  8
1
 10
203.6966539025003
 20
299.5765824515988
 30
0
 42
0.003997182847085033
  0
VERTEX
  8
1
 10
204.1600922408812
 20
299.6685117617555
 30
0
 42
0.004492470942530745
  0
VERTEX
  8
1
 10
204.6224705268119
 20
299.7684188913041
 30
0
 42
0.002764412573708266
  0
VERTEX
  8
1
 10
205.1969062335051
 20
299.9012930150776
 30
0
 42
0.009311519232830148
  0
VERTEX
  8
1
 10
205.7672612908521
 20
300.0478194643115
 30
0
 42
0.008520636601190313
  0
VERTEX
  8
1
 10
206.3309601919334
 20
300.2142735544973
 30
0
 42
0.01512273039611483
  0
VERTEX
  8
1
 10
206.8854274298298
 20
300.406930601127
 30
0
 42
0.01430393938622474
  0
VERTEX
  8
1
 10
207.4280874976219
 20
300.632065919692
 30
0
 42
0.01731454526725535
  0
VERTEX
  8
1
 10
207.9833530803304
 20
300.9047510348146
 30
0
 42
0.003504480622577699
  0
VERTEX
  8
1
 10
208.5307783407693
 20
301.1968357051359
 30
0
 42
-0.006277921058110134
  0
VERTEX
  8
1
 10
209.0783319360378
 20
301.4851227798951
 30
0
 42
-0.01631292714575763
  0
VERTEX
  8
1
 10
209.633982523235
 20
301.7464151083311
 30
0
 42
-0.02662680848193412
  0
VERTEX
  8
1
 10
210.20569875946
 20
301.9575155396831
 30
0
 42
-0.020744361757148
  0
VERTEX
  8
1
 10
210.6331405887272
 20
302.0685084249581
 30
0
 42
-0.01631089988936761
  0
VERTEX
  8
1
 10
211.070332533149
 20
302.1480456880343
 30
0
 42
-0.01199063797512377
  0
VERTEX
  8
1
 10
211.5144290800359
 20
302.2031326104564
 30
0
 42
-0.007845844435653138
  0
VERTEX
  8
1
 10
211.9625847166986
 20
302.2407744737689
 30
0
 42
-0.0038382658792869
  0
VERTEX
  8
1
 10
212.4119539304476
 20
302.2679765595166
 30
0
 42
-0.002306500364993394
  0
VERTEX
  8
1
 10
213.0268415228185
 20
302.2983342473703
 30
0
 42
-0.001809730331304672
  0
VERTEX
  8
1
 10
213.6392695237725
 20
302.3235155931454
 30
0
 42
-0.001301101935154936
  0
VERTEX
  8
1
 10
214.2498528311639
 20
302.3448146823619
 30
0
 42
-0.0007840297046680941
  0
VERTEX
  8
1
 10
214.859206342847
 20
302.3635256005392
 30
0
 42
-0.0002619039524200925
  0
VERTEX
  8
1
 10
215.4679449566759
 20
302.3809424331968
 30
0
  0
SEQEND
  8
1
  0
POLYLINE
  8
1
 62
3
 66
1
  0
VERTEX
  8
1
 10
195.4679449566759
 20
298.3809424331968
 30
0
 42
-0.0006197544448407363
  0
VERTEX
  8
1
 10
196.0968221748121
 20
298.40166416957
 30
0
 42
-0.001858534659166204
  0
VERTEX
  8
1
 10
196.725917675514
 20
298.4192717175347
 30
0
 42
-0.003094675196061906
  0
VERTEX
  8
1
 10
197.3554497413474
 20
298.4306508886828
 30
0
 42
-0.004324913475537763
  0
VERTEX
  8
1
 10
197.9856366548782
 20
298.4326874946057
 30
0
 42
-0.005543773682455766
  0
VERTEX
  8
1
 10
198.616696698672
 20
298.4222673468951
 30
0
 42
-0.004520796364704016
  0
VERTEX
  8
1
 10
199.355793985866
 20
298.393562707522
 30
0
 42
0.0007805678300610572
  0
VERTEX
  8
1
 10
200.0949818719354
 20
298.3593205882279
 30
0
 42
0.006092705141517898
  0
VERTEX
  8
1
 10
200.8328583418268
 20
298.3352982972505
 30
0
 42
0.01150964957831476
  0
VERTEX
  8
1
 10
201.5680213804861
 20
298.3372531428276
 30
0
 42
0.01700876146763146
  0
VERTEX
  8
1
 10
202.2990689728598
 20
298.3809424331968
 30
0
 42
0.01240697077909136
  0
VERTEX
  8
1
 10
202.7640960415448
 20
298.4363162566453
 30
0
 42
0.006037178883481473
  0
VERTEX
  8
1
 10
203.2279077644072
 20
298.508981006583
 30
0
 42
0.005589350942041488
  0
VERTEX
  8
1
 10
203.6915461083222
 20
298.5927064906074
 30
0
 42
0.0007533041594861574
  0
VERTEX
  8
1
 10
204.1560530401654
 20
298.6812625163153
 30
0
 42
-0.002573584257898594
  0
VERTEX
  8
1
 10
204.6224705268119
 20
298.7684188913041
 30
0
 42
-0.001804763929109269
  0
VERTEX
  8
1
 10
205.1972402218445
 20
298.868637489581
 30
0
 42
0.004933510209208172
  0
VERTEX
  8
1
 10
205.7708177687894
 20
298.9723421000902
 30
0
 42
0.01176870411046383
  0
VERTEX
  8
1
 10
206.3375721652992
 20
299.0944895269258
 30
0
 42
0.01888827476049468
  0
VERTEX
  8
1
 10
206.8918724090259
 20
299.2500365741825
 30
0
 42
0.0544954495777372
  0
VERTEX
  8
1
 10
207.9904434551969
 20
299.7409414099134
 30
0
 42
0.00592494679385077
  0
VERTEX
  8
1
 10
208.5369094091027
 20
300.0692306901062
 30
0
 42
5.930991547924403e-005
  0
VERTEX
  8
1
 10
209.0799585104049
 20
300.4043768376924
 30
0
 42
-0.01842206213850123
  0
VERTEX
  8
1
 10
209.6320639101688
 20
300.7119488038316
 30
0
 42
-0.0335566510150032
  0
VERTEX
  8
1
 10
210.20569875946
 20
300.9575155396831
 30
0
 42
-0.02601541318544647
  0
VERTEX
  8
1
 10
210.6286808654207
 20
301.0783329692028
 30
0
 42
-0.019993124917775
  0
VERTEX
  8
1
 10
211.0646899792364
 20
301.1604759481105
 30
0
 42
-0.01415542656699998
  0
VERTEX
  8
1
 10
211.5098335571705
 20
301.2132563142417
 30
0
 42
-0.008632739804102296
  0
VERTEX
  8
1
 10
211.9602190554864
 20
301.2459859054319
 30
0
 42
-0.003342474864493121
  0
VERTEX
  8
1
 10
212.4119539304476
 20
301.2679765595166
 30
0
 42
-0.0009058135989701211
  0
VERTEX
  8
1
 10
213.0289015831012
 20
301.2937960390547
 30
0
 42
-0.0007135431987557151
  0
VERTEX
  8
1
 10
213.6420162708162
 20
301.3174646487246
 30
0
 42
-0.0005145810280775833
  0
VERTEX
  8
1
 10
214.2522562348272
 20
301.3395201059936
 30
0
 42
-0.000310733120143133
  0
VERTEX
  8
1
 10
214.8605797163689
 20
301.3605001283287
 30
0
 42
-0.0001039106372818336
  0
VERTEX
  8
1
 10
215.4679449566759
 20
301.3809424331968
 30
0
  0
SEQEND
  8
1
  0
POLYLINE
  8
1
 62
3
 66
1
  0
VERTEX
  8
1
 10
195.4679449566759
 20
296.8809424331968
 30
0
 42
0.001152801735348459
  0
VERTEX
  8
1
 10
196.20539150327
 20
296.8536087827357
 30
0
 42
0.003463756523484439
  0
VERTEX
  8
1
 10
196.9422166594168
 20
296.8331085448899
 30
0
 42
0.005799164164769705
  0
VERTEX
  8
1
 10
197.6777990346687
 20
296.8262751322745
 30
0
 42
0.00815817299449092
  0
VERTEX
  8
1
 10
198.4115172385786
 20
296.8399419575051
 30
0
 42
0.0105359269459088
  0
VERTEX
  8
1
 10
199.142749880699
 20
296.8809424331968
 30
0
 42
0.01177436222929243
  0
VERTEX
  8
1
 10
199.8995664984992
 20
296.9573593256878
 30
0
 42
0.00776804154622923
  0
VERTEX
  8
1
 10
200.6540039564583
 20
297.0634559028797
 30
0
 42
0.006923755484676192
  0
VERTEX
  8
1
 10
201.4070378859701
 20
297.1920193081731
 30
0
 42
0.002936010792609676
  0
VERTEX
  8
1
 10
202.1596439184278
 20
297.3358366849686
 30
0
 42
0.002137160403915914
  0
VERTEX
  8
1
 10
202.912797685225
 20
297.4876951766667
 30
0
 42
0.0005152325846873001
  0
VERTEX
  8
1
 10
203.7318641296075
 20
297.6573701442543
 30
0
 42
0.008980172020378357
  0
VERTEX
  8
1
 10
204.5465254929638
 20
297.8423328409041
 30
0
 42
0.009777534548785702
  0
VERTEX
  8
1
 10
205.350577297166
 20
298.0568926583306
 30
0
 42
0.01845505424894227
  0
VERTEX
  8
1
 10
206.1378150640857
 20
298.3153589882488
 30
0
 42
0.03922143116250144
  0
VERTEX
  8
1
 10
207.5952324258491
 20
298.9882484683923
 30
0
 42
0.006762279807729238
  0
VERTEX
  8
1
 10
208.2732349974717
 20
299.3804795236041
 30
0
 42
-0.00166485024093292
  0
VERTEX
  8
1
 10
208.9465730822847
 20
299.7809102350411
 30
0
 42
-0.01113972042394963
  0
VERTEX
  8
1
 10
209.6257777321098
 20
300.1617164497361
 30
0
 42
-0.02096863254697255
  0
VERTEX
  8
1
 10
210.321379998769
 20
300.4950740147214
 30
0
 42
-0.03144394759797204
  0
VERTEX
  8
1
 10
211.2925721938883
 20
300.8347108078792
 30
0
 42
-0.02411662718855137
  0
VERTEX
  8
1
 10
212.302511586649
 20
301.0660388613951
 30
0
 42
-0.01677980776423611
  0
VERTEX
  8
1
 10
213.3415113776407
 20
301.2161353601798
 30
0
 42
-0.009824377807880924
  0
VERTEX
  8
1
 10
214.3998847674531
 20
301.3120774891435
 30
0
 42
-0.003228644692526264
  0
VERTEX
  8
1
 10
215.4679449566759
 20
301.3809424331968
 30
0
  0
SEQEND
  8
1
  0
POLYLINE
  8
1
 62
3
 66
1
  0
VERTEX
  8
1
 10
195.4679449566759
 20
295.8809424331968
 30
0
 42
0.001250144812510379
  0
VERTEX
  8
1
 10
196.2060277219073
 20
295.8512422736376
 30
0
 42
0.003757595866800464
  0
VERTEX
  8
1
 10
196.943330042032
 20
295.8289671539682
 30
0
 42
0.006297950553934971
  0
VERTEX
  8
1
 10
197.6790714719433
 20
295.8215421140784
 30
0
 42
0.008870900990924477
  0
VERTEX
  8
1
 10
198.4124715665346
 20
295.836392193858
 30
0
 42
0.01147156471235905
  0
VERTEX
  8
1
 10
199.142749880699
 20
295.8809424331968
 30
0
 42
0.01254792155257854
  0
VERTEX
  8
1
 10
199.8979007995819
 20
295.9635551385912
 30
0
 42
0.007042539110434723
  0
VERTEX
  8
1
 10
200.6506596275599
 20
296.0758956276869
 30
0
 42
0.005557307952257251
  0
VERTEX
  8
1
 10
201.402847776549
 20
296.2076050384324
 30
0
 42
9.171228543542649e-005
  0
VERTEX
  8
1
 10
202.1562866584653
 20
296.3483245087762
 30
0
 42
-0.002321053770351424
  0
VERTEX
  8
1
 10
202.912797685225
 20
296.4876951766667
 30
0
 42
-0.001201310526078063
  0
VERTEX
  8
1
 10
203.7298335082564
 20
296.6295725131729
 30
0
 42
0.005027277254564021
  0
VERTEX
  8
1
 10
204.5448992533763
 20
296.7775279140462
 30
0
 42
0.01135044803584462
  0
VERTEX
  8
1
 10
205.3503707500175
 20
296.9511666638634
 30
0
 42
0.01794427143858303
  0
VERTEX
  8
1
 10
206.1386238276128
 20
297.170094047201
 30
0
 42
0.04827825323450299
  0
VERTEX
  8
1
 10
207.5997876322407
 20
297.7935139112894
 30
0
 42
0.008490223132491068
  0
VERTEX
  8
1
 10
208.2794399570065
 20
298.1797179193346
 30
0
 42
0.003152034215635494
  0
VERTEX
  8
1
 10
208.9521501917668
 20
298.5829799258244
 30
0
 42
-0.00911856711920956
  0
VERTEX
  8
1
 10
209.6290772383961
 20
298.9737524838121
 30
0
 42
-0.01940348389055533
  0
VERTEX
  8
1
 10
210.321379998769
 20
299.322488146351
 30
0
 42
-0.03006721513015527
  0
VERTEX
  8
1
 10
211.2927969508396
 20
299.6903693166053
 30
0
 42
-0.02315593798539648
  0
VERTEX
  8
1
 10
212.302811262584
 20
299.9541236116028
 30
0
 42
-0.01618042258618418
  0
VERTEX
  8
1
 10
213.3417735940839
 20
300.1397827501578
 30
0
 42
-0.009504695469743774
  0
VERTEX
  8
1
 10
214.4000346054206
 20
300.2733784510844
 30
0
 42
-0.003129060246725538
  0
VERTEX
  8
1
 10
215.4679449566759
 20
300.3809424331968
 30
0
  0
SEQEND
  8
1
  0
POLYLINE
  8
1
 62
3
 66
1
  0
VERTEX
  8
1
 10
195.4679449566759
 20
294.3809424331968
 30
0
 42
0.0001520563531393163
  0
VERTEX
  8
1
 10
196.368375668712
 20
294.4268537667558
 30
0
 42
0.0004559430652252098
  0
VERTEX
  8
1
 10
197.2690848258506
 20
294.4738774750407
 30
0
 42
0.0007586958597411709
  0
VERTEX
  8
1
 10
198.1703508731944
 20
294.5231259327774
 30
0
 42
0.001059843563054857
  0
VERTEX
  8
1
 10
199.072452255846
 20
294.5757115146919
 30
0
 42
0.001358440646104022
  0
VERTEX
  8
1
 10
199.9756674189079
 20
294.63274659551
 30
0
 42
0.001876121247684273
  0
VERTEX
  8
1
 10
200.5854593659045
 20
294.6752151805009
 30
0
 42
0.005028464223687888
  0
VERTEX
  8
1
 10
201.1943603878801
 20
294.7260795367127
 30
0
 42
0.006786548224052886
  0
VERTEX
  8
1
 10
201.8008460160228
 20
294.7912044585447
 30
0
 42
0.01000373869101586
  0
VERTEX
  8
1
 10
202.4033917815207
 20
294.8764547403963
 30
0
 42
0.01181943118255019
  0
VERTEX
  8
1
 10
203.000473215562
 20
294.9876951766667
 30
0
 42
0.02260296103189115
  0
VERTEX
  8
1
 10
203.9909030117063
 20
295.2437938243077
 30
0
 42
0.01776829577889736
  0
VERTEX
  8
1
 10
204.9605301351913
 20
295.5799964895516
 30
0
 42
0.01769407885031573
  0
VERTEX
  8
1
 10
205.9083902244284
 20
295.9859841761061
 30
0
 42
0.01304024145630755
  0
VERTEX
  8
1
 10
206.8335189178289
 20
296.4514378876793
 30
0
 42
0.01325209981383512
  0
VERTEX
  8
1
 10
207.7349518538039
 20
296.9660386279787
 30
0
 42
0.006507225468079886
  0
VERTEX
  8
1
 10
208.5540076686888
 20
297.4775411854949
 30
0
 42
0.0003492312932396673
  0
VERTEX
  8
1
 10
209.3636538966438
 20
297.9987341737348
 30
0
 42
-0.006990503468342951
  0
VERTEX
  8
1
 10
210.1758472097441
 20
298.5056662637384
 30
0
 42
-0.01414273780449179
  0
VERTEX
  8
1
 10
211.0025442800648
 20
298.9743861265457
 30
0
 42
-0.02139598757921092
  0
VERTEX
  8
1
 10
211.855701779681
 20
299.3809424331968
 30
0
 42
-0.01756986365211691
  0
VERTEX
  8
1
 10
212.5497607810463
 20
299.644579979656
 30
0
 42
-0.01351685745499187
  0
VERTEX
  8
1
 10
213.2627462051007
 20
299.8657924951425
 30
0
 42
-0.009528745766137516
  0
VERTEX
  8
1
 10
213.9899264461719
 20
300.0551862373993
 30
0
 42
-0.005654478827452529
  0
VERTEX
  8
1
 10
214.7265698985878
 20
300.2233674641697
 30
0
 42
-0.001873214916165012
  0
VERTEX
  8
1
 10
215.4679449566759
 20
300.3809424331968
 30
0
  0
SEQEND
  8
1
  0
POLYLINE
  8
1
 62
3
 66
1
  0
VERTEX
  8
1
 10
195.4679449566759
 20
293.3809424331968
 30
0
 42
0.0001520563531393163
  0
VERTEX
  8
1
 10
196.368375668712
 20
293.4268537667558
 30
0
 42
0.0004559430652252098
  0
VERTEX
  8
1
 10
197.2690848258506
 20
293.4738774750407
 30
0
 42
0.0007586958597411709
  0
VERTEX
  8
1
 10
198.1703508731944
 20
293.5231259327774
 30
0
 42
0.001059843563054857
  0
VERTEX
  8
1
 10
199.072452255846
 20
293.5757115146919
 30
0
 42
0.001358440646104022
  0
VERTEX
  8
1
 10
199.9756674189079
 20
293.63274659551
 30
0
 42
0.001876121247684273
  0
VERTEX
  8
1
 10
200.5854593659045
 20
293.6752151805009
 30
0
 42
0.005028464223734241
  0
VERTEX
  8
1
 10
201.1943603878801
 20
293.7260795367128
 30
0
 42
0.006786548223913936
  0
VERTEX
  8
1
 10
201.8008460160228
 20
293.7912044585447
 30
0
 42
0.01000373869115471
  0
VERTEX
  8
1
 10
202.4033917815207
 20
293.8764547403962
 30
0
 42
0.01181943118250455
  0
VERTEX
  8
1
 10
203.000473215562
 20
293.9876951766667
 30
0
 42
0.0226029610318636
  0
VERTEX
  8
1
 10
203.9909030117063
 20
294.2437938243077
 30
0
 42
0.01776829577897698
  0
VERTEX
  8
1
 10
204.9605301351913
 20
294.5799964895516
 30
0
 42
0.01769407885021028
  0
VERTEX
  8
1
 10
205.9083902244284
 20
294.9859841761061
 30
0
 42
0.01304024145638817
  0
VERTEX
  8
1
 10
206.8335189178289
 20
295.4514378876792
 30
0
 42
0.0132520998138028
  0
VERTEX
  8
1
 10
207.7349518538039
 20
295.9660386279787
 30
0
 42
0.006507225468113415
  0
VERTEX
  8
1
 10
208.5540076686888
 20
296.477541185495
 30
0
 42
0.0003492312931564006
  0
VERTEX
  8
1
 10
209.3636538966438
 20
296.9987341737348
 30
0
 42
-0.006990503468342951
  0
VERTEX
  8
1
 10
210.1758472097441
 20
297.5056662637384
 30
0
 42
-0.01414273780464925
  0
VERTEX
  8
1
 10
211.0025442800648
 20
297.9743861265457
 30
0
 42
-0.02139598757926557
  0
VERTEX
  8
1
 10
211.855701779681
 20
298.3809424331968
 30
0
 42
-0.01756986365211691
  0
VERTEX
  8
1
 10
212.5497607810463
 20
298.644579979656
 30
0
 42
-0.01351685745499187
  0
VERTEX
  8
1
 10
213.2627462051007
 20
298.8657924951425
 30
0
 42
-0.009528745766064457
  0
VERTEX
  8
1
 10
213.9899264461719
 20
299.0551862373993
 30
0
 42
-0.005654478827379252
  0
VERTEX
  8
1
 10
214.7265698985878
 20
299.2233674641697
 30
0
 42
-0.001873214916311783
  0
VERTEX
  8
1
 10
215.4679449566759
 20
299.3809424331968
 30
0
  0
SEQEND
  8
1
  0
POLYLINE
  8
1
 62
3
 66
1
  0
VERTEX
  8
1
 10
211.794391900247
 20
304.3809424331968
 30
0
 42
0.0003148701003599738
  0
VERTEX
  8
1
 10
211.5032046844371
 20
304.3598058475131
 30
0
 42
0.0009449789258238116
  0
VERTEX
  8
1
 10
211.2121564597472
 20
304.3379419969551
 30
0
 42
0.001576883993891744
  0
VERTEX
  8
1
 10
210.9213862172975
 20
304.3146236166484
 30
0
 42
0.002211090619556784
  0
VERTEX
  8
1
 10
210.6310329482079
 20
304.2891234417187
 30
0
 42
0.002848557154783022
  0
VERTEX
  8
1
 10
210.3412356435986
 20
304.2607142072918
 30
0
 42
0.006756412268794853
  0
VERTEX
  8
1
 10
209.6766060067326
 20
304.1826436804581
 30
0
 42
0.003949607810528248
  0
VERTEX
  8
1
 10
209.0139282192804
 20
304.0903790452906
 30
0
 42
0.002819681199811628
  0
VERTEX
  8
1
 10
208.3514734636275
 20
303.9889851205204
 30
0
 42
0.0004244089955996883
  0
VERTEX
  8
1
 10
207.6875129221592
 20
303.8835267248782
 30
0
 42
-0.00152677981375485
  0
VERTEX
  8
1
 10
207.0203177772609
 20
303.7790686770949
 30
0
 42
-0.00382871370066166
  0
VERTEX
  8
1
 10
206.5549861523507
 20
303.7109523624056
 30
0
 42
-0.008077299980117789
  0
VERTEX
  8
1
 10
206.0886316316956
 20
303.6539762423919
 30
0
 42
-0.01246650744844482
  0
VERTEX
  8
1
 10
205.6226199182412
 20
303.6163617085805
 30
0
 42
-0.01702945909627028
  0
VERTEX
  8
1
 10
205.1583167149332
 20
303.6063301524982
 30
0
 42
-0.0524004314433118
  0
VERTEX
  8
1
 10
204.0472162656487
 20
303.7372227980806
 30
0
 42
-0.01461122410710485
  0
VERTEX
  8
1
 10
203.4028928534189
 20
303.8981203723926
 30
0
 42
-0.002053019632348364
  0
VERTEX
  8
1
 10
202.7606667088762
 20
304.0813419772528
 30
0
 42
0.01039734553733127
  0
VERTEX
  8
1
 10
202.117087052869
 20
304.2534339013059
 30
0
 42
0.02316068791088172
  0
VERTEX
  8
1
 10
201.4687031062458
 20
304.3809424331968
 30
0
 42
0.02682260581805309
  0
VERTEX
  8
1
 10
200.8780136740755
 20
304.436769964371
 30
0
 42
0.01284867864450258
  0
VERTEX
  8
1
 10
200.2822928411248
 20
304.4456494133863
 30
0
 42
0.01264018664598139
  0
VERTEX
  8
1
 10
199.6832157175036
 20
304.4240309126762
 30
0
 42
0.002393804698230386
  0
VERTEX
  8
1
 10
199.0824574133217
 20
304.3883645946742
 30
0
 42
-0.004389826407132791
  0
VERTEX
  8
1
 10
198.481693038689
 20
304.3551005918136
 30
0
 42
-0.007114942061807728
  0
VERTEX
  8
1
 10
197.8769045602027
 20
304.3372392253947
 30
0
 42
-0.00556355205095203
  0
VERTEX
  8
1
 10
197.2734753231054
 20
304.3347310154394
 30
0
 42
-0.003986604090542165
  0
VERTEX
  8
1
 10
196.6710655170501
 20
304.3437376728321
 30
0
 42
-0.002396062566241643
  0
VERTEX
  8
1
 10
196.0693353316894
 20
304.3604209084564
 30
0
 42
-0.0007992743056894387
  0
VERTEX
  8
1
 10
195.4679449566759
 20
304.3809424331968
 30
0
  0
SEQEND
  8
1
  0
POLYLINE
  8
1
 62
3
 66
1
  0
VERTEX
  8
1
 10
210.7722716489761
 20
303.2801244065187
 30
0
 42
-0.0002943625236567349
  0
VERTEX
  8
1
 10
210.0492900282575
 20
303.1682778457882
 30
0
 42
-0.0008817296301080862
  0
VERTEX
  8
1
 10
209.3254904829055
 20
303.0580480466999
 30
0
 42
-0.001464990072389388
  0
VERTEX
  8
1
 10
208.6000550882871
 20
302.9510517708962
 30
0
 42
-0.002041299421369685
  0
VERTEX
  8
1
 10
207.872165919769
 20
302.8489057800195
 30
0
 42
-0.002607663120008437
  0
VERTEX
  8
1
 10
207.1410050527179
 20
302.7532268357119
 30
0
 42
-0.003565789052034599
  0
VERTEX
  8
1
 10
206.6635421919022
 20
302.6962771081909
 30
0
 42
-0.006974058786614258
  0
VERTEX
  8
1
 10
206.1854014199067
 20
302.6494348168134
 30
0
 42
-0.01046734541293011
  0
VERTEX
  8
1
 10
205.7076347092917
 20
302.6193879999404
 30
0
 42
-0.01406324816676404
  0
VERTEX
  8
1
 10
205.2312940326176
 20
302.6128246959332
 30
0
 42
-0.04238687832008135
  0
VERTEX
  8
1
 10
204.1025246013861
 20
302.7250382316146
 30
0
 42
-0.01275655711048574
  0
VERTEX
  8
1
 10
203.4518417664218
 20
302.8601724126287
 30
0
 42
-0.003311590302219916
  0
VERTEX
  8
1
 10
202.8027566682535
 20
303.0168363505053
 30
0
 42
0.006018803926346284
  0
VERTEX
  8
1
 10
202.1526431175824
 20
303.1700309095542
 30
0
 42
0.01543555656008619
  0
VERTEX
  8
1
 10
201.49887492511
 20
303.294756954085
 30
0
 42
0.01835179206113741
  0
VERTEX
  8
1
 10
200.9184067033105
 20
303.3653070429085
 30
0
 42
0.01056861445987387
  0
VERTEX
  8
1
 10
200.3342857231353
 20
303.4022204351093
 30
0
 42
0.01150728188675594
  0
VERTEX
  8
1
 10
199.7477322108771
 20
303.4133433263057
 30
0
 42
0.003776246101255849
  0
VERTEX
  8
1
 10
199.1599663928285
 20
303.406521912116
 30
0
 42
0.004810538921253492
  0
VERTEX
  8
1
 10
198.572208495282
 20
303.3896023881586
 30
0
 42
0.0009324995728355722
  0
VERTEX
  8
1
 10
197.9496968255774
 20
303.367886332982
 30
0
 42
0.0007280294780593115
  0
VERTEX
  8
1
 10
197.3282911305283
 20
303.3441423769174
 30
0
 42
0.0005209755889605714
  0
VERTEX
  8
1
 10
196.707714916471
 20
303.3188774951867
 30
0
 42
0.0003134104113361574
  0
VERTEX
  8
1
 10
196.0876916897415
 20
303.292598663012
 30
0
 42
0.0001042969049096841
  0
VERTEX
  8
1
 10
195.4679449566759
 20
303.2658128556153
 30
0
  0
SEQEND
  8
1
  0
POLYLINE
  8
1
 62
3
 66
1
  0
VERTEX
  8
1
 10
272.8822240933658
 20
316.8809424331968
 30
0
 42
0.004358729398528399
  0
VERTEX
  8
1
 10
271.9131100426926
 20
316.8764152480108
 30
0
 42
0.01337584483497571
  0
VERTEX
  8
1
 10
270.9608883815761
 20
316.8381735478498
 30
0
 42
0.02383563990225501
  0
VERTEX
  8
1
 10
270.042451499573
 20
316.7325028177387
 30
0
 42
0.03589190169514273
  0
VERTEX
  8
1
 10
269.1746917862401
 20
316.5256885427027
 30
0
 42
0.04895632414672342
  0
VERTEX
  8
1
 10
268.3745016311339
 20
316.1840162077666
 30
0
 42
0.04576326853636158
  0
VERTEX
  8
1
 10
267.7167181837708
 20
315.7408719955048
 30
0
 42
0.02110922930117576
  0
VERTEX
  8
1
 10
267.1067621940579
 20
315.1988156370213
 30
0
 42
0.01598160533309683
  0
VERTEX
  8
1
 10
266.5232173483613
 20
314.5971345081962
 30
0
 42
-0.001092134690973802
  0
VERTEX
  8
1
 10
265.9446673330467
 20
313.9751159849099
 30
0
 42
-0.01369804711987017
  0
VERTEX
  8
1
 10
265.34969583448
 20
313.3720474430425
 30
0
 42
-0.02555441647282265
  0
VERTEX
  8
1
 10
264.4937720793084
 20
312.639075842258
 30
0
 42
-0.02143501595987691
  0
VERTEX
  8
1
 10
263.5806673424945
 20
311.9954436080829
 30
0
 42
-0.01692967819394541
  0
VERTEX
  8
1
 10
262.6220766194422
 20
311.424480899016
 30
0
 42
-0.01233822321846261
  0
VERTEX
  8
1
 10
261.6296949055553
 20
310.9095178735559
 30
0
 42
-0.007800748263403179
  0
VERTEX
  8
1
 10
260.6152171962379
 20
310.4338846902014
 30
0
 42
-0.005362192224247269
  0
VERTEX
  8
1
 10
259.8083449525416
 20
310.0791089370809
 30
0
 42
-0.007366627213609317
  0
VERTEX
  8
1
 10
258.9939366416983
 20
309.7454797438597
 30
0
 42
-0.009412356290908371
  0
VERTEX
  8
1
 10
258.1708894601154
 20
309.4401279262141
 30
0
 42
-0.01149368119270441
  0
VERTEX
  8
1
 10
257.3381006042005
 20
309.1701842998207
 30
0
 42
-0.02517093435365532
  0
VERTEX
  8
1
 10
255.7819955083132
 20
308.7889342152929
 30
0
 42
-0.008504618118794141
  0
VERTEX
  8
1
 10
255.0628724973646
 20
308.6627407606507
 30
0
 42
-0.006047552492907032
  0
VERTEX
  8
1
 10
254.3387610497404
 20
308.557286313824
 30
0
 42
-0.003614339530495478
  0
VERTEX
  8
1
 10
253.6113239776657
 20
308.4656578722078
 30
0
 42
-0.001202089796741958
  0
VERTEX
  8
1
 10
252.8822240933658
 20
308.3809424331968
 30
0
  0
SEQEND
  8
1
  0
POLYLINE
  8
1
 62
3
 66
1
  0
VERTEX
  8
1
 10
272.8822240933658
 20
315.8809424331968
 30
0
 42
0.004358729398528399
  0
VERTEX
  8
1
 10
271.9131100426926
 20
315.8764152480108
 30
0
 42
0.01337584483497571
  0
VERTEX
  8
1
 10
270.9608883815761
 20
315.8381735478498
 30
0
 42
0.02383563990225501
  0
VERTEX
  8
1
 10
270.042451499573
 20
315.7325028177387
 30
0
 42
0.03589190169514273
  0
VERTEX
  8
1
 10
269.1746917862401
 20
315.5256885427027
 30
0
 42
0.04895632414672342
  0
VERTEX
  8
1
 10
268.3745016311339
 20
315.1840162077666
 30
0
 42
0.04576326853636158
  0
VERTEX
  8
1
 10
267.7167181837708
 20
314.7408719955048
 30
0
 42
0.02110922930117576
  0
VERTEX
  8
1
 10
267.1067621940579
 20
314.1988156370213
 30
0
 42
0.01598160533309683
  0
VERTEX
  8
1
 10
266.5232173483613
 20
313.5971345081962
 30
0
 42
-0.001092134691110249
  0
VERTEX
  8
1
 10
265.9446673330467
 20
312.9751159849099
 30
0
 42
-0.01369804711991791
  0
VERTEX
  8
1
 10
265.34969583448
 20
312.3720474430425
 30
0
 42
-0.02555441647286364
  0
VERTEX
  8
1
 10
264.4937720793084
 20
311.639075842258
 30
0
 42
-0.02143501595991656
  0
VERTEX
  8
1
 10
263.5806673424945
 20
310.9954436080829
 30
0
 42
-0.01692967819394541
  0
VERTEX
  8
1
 10
262.6220766194422
 20
310.424480899016
 30
0
 42
-0.01233822321846261
  0
VERTEX
  8
1
 10
261.6296949055553
 20
309.9095178735559
 30
0
 42
-0.007800748263403179
  0
VERTEX
  8
1
 10
260.6152171962379
 20
309.4338846902014
 30
0
 42
-0.005362192224365345
  0
VERTEX
  8
1
 10
259.8083449525416
 20
309.0791089370809
 30
0
 42
-0.007366627213609317
  0
VERTEX
  8
1
 10
258.9939366416983
 20
308.7454797438597
 30
0
 42
-0.009412356290908371
  0
VERTEX
  8
1
 10
258.1708894601154
 20
308.4401279262141
 30
0
 42
-0.01149368119258088
  0
VERTEX
  8
1
 10
257.3381006042005
 20
308.1701842998207
 30
0
 42
-0.02517093435367987
  0
VERTEX
  8
1
 10
255.7819955083132
 20
307.788934215293
 30
0
 42
-0.00850461811887053
  0
VERTEX
  8
1
 10
255.0628724973646
 20
307.6627407606507
 30
0
 42
-0.006047552492907032
  0
VERTEX
  8
1
 10
254.3387610497404
 20
307.557286313824
 30
0
 42
-0.003614339530264771
  0
VERTEX
  8
1
 10
253.6113239776657
 20
307.4656578722078
 30
0
 42
-0.001202089796511197
  0
VERTEX
  8
1
 10
252.8822240933658
 20
307.3809424331968
 30
0
  0
SEQEND
  8
1
  0
POLYLINE
  8
1
 62
3
 66
1
  0
VERTEX
  8
1
 10
272.8822240933658
 20
311.8809424331968
 30
0
 42
0.002401515546318478
  0
VERTEX
  8
1
 10
272.1377470313869
 20
311.9392506137493
 30
0
 42
0.007248840753239098
  0
VERTEX
  8
1
 10
271.3956489887016
 20
311.9829817491637
 30
0
 42
0.01229879808585879
  0
VERTEX
  8
1
 10
270.6583089846035
 20
311.9975587943018
 30
0
 42
0.01753962731825271
  0
VERTEX
  8
1
 10
269.9281060383862
 20
311.9684047040256
 30
0
 42
0.02289826929952627
  0
VERTEX
  8
1
 10
269.207419169343
 20
311.8809424331968
 30
0
 42
0.02623792913380656
  0
VERTEX
  8
1
 10
268.4377460300159
 20
311.7096192901802
 30
0
 42
0.01533451021644248
  0
VERTEX
  8
1
 10
267.6789947508786
 20
311.4731199047938
 30
0
 42
0.01262719634039651
  0
VERTEX
  8
1
 10
266.9280752609522
 20
311.1921238129993
 30
0
 42
0.002243745492188456
  0
VERTEX
  8
1
 10
266.1818974892579
 20
310.8873105507583
 30
0
 42
-0.002052424584173355
  0
VERTEX
  8
1
 10
265.4373713648169
 20
310.5793596540324
 30
0
 42
-0.004718784384161289
  0
VERTEX
  8
1
 10
264.6408295718148
 20
310.264926731519
 30
0
 42
-0.002952234778253515
  0
VERTEX
  8
1
 10
263.8431401558331
 20
309.9641172429827
 30
0
 42
-0.001148070354276131
  0
VERTEX
  8
1
 10
263.0447979733153
 20
309.670524215703
 30
0
 42
0.0006697605109971557
  0
VERTEX
  8
1
 10
262.2462978807054
 20
309.3777406769597
 30
0
 42
0.002482044596495637
  0
VERTEX
  8
1
 10
261.4481347344469
 20
309.0793596540324
 30
0
 42
0.001978882975337239
  0
VERTEX
  8
1
 10
260.7707901610648
 20
308.8192338585741
 30
0
 42
-0.002424872975764844
  0
VERTEX
  8
1
 10
260.0921141981007
 20
308.5606662545923
 30
0
 42
-0.00596540268837861
  0
VERTEX
  8
1
 10
259.4101759535103
 20
308.3138669658671
 30
0
 42
-0.00956320824152782
  0
VERTEX
  8
1
 10
258.7230445352491
 20
308.0890461161789
 30
0
 42
-0.013219867382272
  0
VERTEX
  8
1
 10
258.0287890512729
 20
307.8964138293079
 30
0
 42
-0.0193877805435625
  0
VERTEX
  8
1
 10
257.0216812904951
 20
307.6893463845917
 30
0
 42
-0.01499239441258482
  0
VERTEX
  8
1
 10
255.9997700425149
 20
307.5515943835381
 30
0
 42
-0.01059728124991534
  0
VERTEX
  8
1
 10
254.9667561791328
 20
307.4658289652316
 30
0
 42
-0.006296230251621652
  0
VERTEX
  8
1
 10
253.9263405721496
 20
307.4147212687564
 30
0
 42
-0.002086734309532606
  0
VERTEX
  8
1
 10
252.8822240933658
 20
307.3809424331968
 30
0
  0
SEQEND
  8
1
  0
POLYLINE
  8
1
 62
3
 66
1
  0
VERTEX
  8
1
 10
272.8822240933658
 20
310.8809424331968
 30
0
 42
0.00240151554616682
  0
VERTEX
  8
1
 10
272.1377470313869
 20
310.9392506137493
 30
0
 42
0.007248840753390763
  0
VERTEX
  8
1
 10
271.3956489887016
 20
310.9829817491637
 30
0
 42
0.01229879808574576
  0
VERTEX
  8
1
 10
270.6583089846035
 20
310.9975587943018
 30
0
 42
0.01753962731824827
  0
VERTEX
  8
1
 10
269.9281060383862
 20
310.9684047040256
 30
0
 42
0.02289826929964802
  0
VERTEX
  8
1
 10
269.207419169343
 20
310.8809424331968
 30
0
 42
0.02623792913364747
  0
VERTEX
  8
1
 10
268.4377460300159
 20
310.7096192901802
 30
0
 42
0.01533451021656729
  0
VERTEX
  8
1
 10
267.6789947508786
 20
310.4731199047939
 30
0
 42
0.01262719634030568
  0
VERTEX
  8
1
 10
266.9280752609522
 20
310.1921238129994
 30
0
 42
0.002243745492310581
  0
VERTEX
  8
1
 10
266.1818974892579
 20
309.8873105507583
 30
0
 42
-0.002052424584173355
  0
VERTEX
  8
1
 10
265.4373713648169
 20
309.5793596540324
 30
0
 42
-0.004718784384161289
  0
VERTEX
  8
1
 10
264.6408295718148
 20
309.264926731519
 30
0
 42
-0.002952234778253515
  0
VERTEX
  8
1
 10
263.8431401558331
 20
308.9641172429827
 30
0
 42
-0.001148070354338804
  0
VERTEX
  8
1
 10
263.0447979733153
 20
308.670524215703
 30
0
 42
0.0006697605108714783
  0
VERTEX
  8
1
 10
262.2462978807054
 20
308.3777406769597
 30
0
 42
0.002482044596527168
  0
VERTEX
  8
1
 10
261.4481347344469
 20
308.0793596540324
 30
0
 42
0.001978882975337239
  0
VERTEX
  8
1
 10
260.7707901610648
 20
307.8192338585741
 30
0
 42
-0.002424872975764844
  0
VERTEX
  8
1
 10
260.0921141981007
 20
307.5606662545923
 30
0
 42
-0.00596540268837861
  0
VERTEX
  8
1
 10
259.4101759535103
 20
307.3138669658671
 30
0
 42
-0.00956320824152782
  0
VERTEX
  8
1
 10
258.7230445352491
 20
307.0890461161789
 30
0
 42
-0.01321986738211998
  0
VERTEX
  8
1
 10
258.0287890512729
 20
306.8964138293079
 30
0
 42
-0.01938778054340029
  0
VERTEX
  8
1
 10
257.0216812904951
 20
306.6893463845917
 30
0
 42
-0.01499239441258493
  0
VERTEX
  8
1
 10
255.9997700425149
 20
306.5515943835381
 30
0
 42
-0.01059728124991545
  0
VERTEX
  8
1
 10
254.9667561791328
 20
306.4658289652315
 30
0
 42
-0.006296230251567082
  0
VERTEX
  8
1
 10
253.9263405721496
 20
306.4147212687564
 30
0
 42
-0.002086734309641352
  0
VERTEX
  8
1
 10
252.8822240933658
 20
306.3809424331968
 30
0
  0
SEQEND
  8
1
  0
POLYLINE
  8
1
 62
3
 66
1
  0
VERTEX
  8
1
 10
272.8822240933658
 20
306.8809424331968
 30
0
 42
-0.001012204111016456
  0
VERTEX
  8
1
 10
272.2509842524641
 20
306.8616234269239
 30
0
 42
-0.003041506933751172
  0
VERTEX
  8
1
 10
271.620116784688
 20
306.8474321532877
 30
0
 42
-0.005083541123794678
  0
VERTEX
  8
1
 10
270.9899940631632
 20
306.8434963449249
 30
0
 42
-0.007140173251189278
  0
VERTEX
  8
1
 10
270.3609884610153
 20
306.8549437344722
 30
0
 42
-0.02015103824165747
  0
VERTEX
  8
1
 10
268.9964017725853
 20
306.9543617732138
 30
0
 42
-0.005713191267270268
  0
VERTEX
  8
1
 10
268.260772000432
 20
307.0449864830751
 30
0
 42
-0.00150469950912609
  0
VERTEX
  8
1
 10
267.5254402902523
 20
307.1463646008147
 30
0
 42
0.002686391856051984
  0
VERTEX
  8
1
 10
266.7892638973881
 20
307.2460845430967
 30
0
 42
0.006874857216755092
  0
VERTEX
  8
1
 10
266.0511000771819
 20
307.3317347265858
 30
0
 42
0.006540794940955512
  0
VERTEX
  8
1
 10
265.5870653943356
 20
307.3729953798719
 30
0
 42
0.006046787787817496
  0
VERTEX
  8
1
 10
265.1222545415395
 20
307.4025548582952
 30
0
 42
0.007915314743091482
  0
VERTEX
  8
1
 10
264.6571208747713
 20
307.419113810518
 30
0
 42
0.007448605158171108
  0
VERTEX
  8
1
 10
264.1921177500088
 20
307.4213728852023
 30
0
 42
0.01990100913004624
  0
VERTEX
  8
1
 10
263.1642743822449
 20
307.370107302465
 30
0
 42
0.006705255688048746
  0
VERTEX
  8
1
 10
262.6021922009285
 20
307.3119830185839
 30
0
 42
0.006951790059432256
  0
VERTEX
  8
1
 10
262.0412603930237
 20
307.2384450200511
 30
0
 42
0.002464144041468918
  0
VERTEX
  8
1
 10
261.4812873722732
 20
307.154278447551
 30
0
 42
0.002737693092342884
  0
VERTEX
  8
1
 10
260.9220815524199
 20
307.0642684417682
 30
0
 42
-0.0001339878578999334
  0
VERTEX
  8
1
 10
260.367196730073
 20
306.9734980148635
 30
0
 42
-0.001401259120532721
  0
VERTEX
  8
1
 10
259.8124364660838
 20
306.8844955343363
 30
0
 42
-0.002671166500968237
  0
VERTEX
  8
1
 10
259.2573574870842
 20
306.8000729299363
 30
0
 42
-0.003942555142823763
  0
VERTEX
  8
1
 10
258.7015165197063
 20
306.7230421314128
 30
0
 42
-0.00521219561504513
  0
VERTEX
  8
1
 10
258.1444702905819
 20
306.656215068515
 30
0
 42
-0.004276427742194885
  0
VERTEX
  8
1
 10
257.7044551393798
 20
306.6121651869192
 30
0
 42
-0.003618960281288014
  0
VERTEX
  8
1
 10
257.2636192087725
 20
306.5750533162043
 30
0
 42
-0.002963333241694142
  0
VERTEX
  8
1
 10
256.8221653366676
 20
306.5437357101234
 30
0
 42
-0.002309907758968341
  0
VERTEX
  8
1
 10
256.3802963609724
 20
306.5170686224299
 30
0
 42
-0.0016584378886731
  0
VERTEX
  8
1
 10
255.9382151195942
 20
306.4939083068772
 30
0
 42
-0.001659181814346929
  0
VERTEX
  8
1
 10
255.327038533174
 20
306.465896479135
 30
0
 42
-0.00129106699995101
  0
VERTEX
  8
1
 10
254.7158475342035
 20
306.4414970867302
 30
0
 42
-0.0009224660058125793
  0
VERTEX
  8
1
 10
254.1046457258202
 20
306.4198070208284
 30
0
 42
-0.0005535777015008622
  0
VERTEX
  8
1
 10
253.4934367111618
 20
306.3999231725955
 30
0
 42
-0.0001845410470826467
  0
VERTEX
  8
1
 10
252.8822240933658
 20
306.3809424331968
 30
0
  0
SEQEND
  8
1
  0
POLYLINE
  8
1
 62
3
 66
1
  0
VERTEX
  8
1
 10
272.8822240933658
 20
305.8809424331968
 30
0
 42
-0.001012204111016456
  0
VERTEX
  8
1
 10
272.2509842524641
 20
305.8616234269239
 30
0
 42
-0.003041506933751172
  0
VERTEX
  8
1
 10
271.620116784688
 20
305.8474321532877
 30
0
 42
-0.005083541123794678
  0
VERTEX
  8
1
 10
270.9899940631632
 20
305.8434963449249
 30
0
 42
-0.007140173251369921
  0
VERTEX
  8
1
 10
270.3609884610153
 20
305.8549437344722
 30
0
 42
-0.02015103824154018
  0
VERTEX
  8
1
 10
268.9964017725853
 20
305.9543617732138
 30
0
 42
-0.005713191267270268
  0
VERTEX
  8
1
 10
268.260772000432
 20
306.0449864830751
 30
0
 42
-0.00150469950912609
  0
VERTEX
  8
1
 10
267.5254402902523
 20
306.1463646008147
 30
0
 42
0.002686391856051984
  0
VERTEX
  8
1
 10
266.7892638973881
 20
306.2460845430967
 30
0
 42
0.006874857216755092
  0
VERTEX
  8
1
 10
266.0511000771819
 20
306.3317347265858
 30
0
 42
0.006540794940955512
  0
VERTEX
  8
1
 10
265.5870653943356
 20
306.3729953798719
 30
0
 42
0.006046787787817496
  0
VERTEX
  8
1
 10
265.1222545415395
 20
306.4025548582952
 30
0
 42
0.007915314743091482
  0
VERTEX
  8
1
 10
264.6571208747713
 20
306.419113810518
 30
0
 42
0.007448605158171108
  0
VERTEX
  8
1
 10
264.1921177500088
 20
306.4213728852023
 30
0
 42
0.01990100913004624
  0
VERTEX
  8
1
 10
263.1642743822449
 20
306.370107302465
 30
0
 42
0.006705255688048746
  0
VERTEX
  8
1
 10
262.6021922009285
 20
306.3119830185839
 30
0
 42
0.006951790059432256
  0
VERTEX
  8
1
 10
262.0412603930237
 20
306.2384450200511
 30
0
 42
0.002464144041468918
  0
VERTEX
  8
1
 10
261.4812873722732
 20
306.154278447551
 30
0
 42
0.002737693092342884
  0
VERTEX
  8
1
 10
260.9220815524199
 20
306.0642684417682
 30
0
 42
-0.0001339878580994405
  0
VERTEX
  8
1
 10
260.367196730073
 20
305.9734980148635
 30
0
 42
-0.001401259120532721
  0
VERTEX
  8
1
 10
259.8124364660838
 20
305.8844955343363
 30
0
 42
-0.002671166501068269
  0
VERTEX
  8
1
 10
259.2573574870842
 20
305.8000729299364
 30
0
 42
-0.003942555143124582
  0
VERTEX
  8
1
 10
258.7015165197063
 20
305.7230421314128
 30
0
 42
-0.00521219561504513
  0
VERTEX
  8
1
 10
258.1444702905819
 20
305.656215068515
 30
0
 42
-0.004276427742194885
  0
VERTEX
  8
1
 10
257.7044551393798
 20
305.6121651869192
 30
0
 42
-0.003618960281288014
  0
VERTEX
  8
1
 10
257.2636192087725
 20
305.5750533162043
 30
0
 42
-0.002963333241566076
  0
VERTEX
  8
1
 10
256.8221653366676
 20
305.5437357101233
 30
0
 42
-0.002309907758840165
  0
VERTEX
  8
1
 10
256.3802963609724
 20
305.5170686224299
 30
0
 42
-0.0016584378886731
  0
VERTEX
  8
1
 10
255.9382151195942
 20
305.4939083068772
 30
0
 42
-0.001659181814346929
  0
VERTEX
  8
1
 10
255.327038533174
 20
305.465896479135
 30
0
 42
-0.00129106699995101
  0
VERTEX
  8
1
 10
254.7158475342035
 20
305.4414970867302
 30
0
 42
-0.0009224660058125793
  0
VERTEX
  8
1
 10
254.1046457258202
 20
305.4198070208284
 30
0
 42
-0.0005535777014079365
  0
VERTEX
  8
1
 10
253.4934367111618
 20
305.3999231725954
 30
0
 42
-0.0001845410469897765
  0
VERTEX
  8
1
 10
252.8822240933658
 20
305.3809424331968
 30
0
  0
SEQEND
  8
1
  0
POLYLINE
  8
1
 62
3
 66
1
  0
VERTEX
  8
1
 10
272.8822240933658
 20
304.3809424331968
 30
0
 42
-0.00188893784110391
  0
VERTEX
  8
1
 10
272.2484581008548
 20
304.3422458040827
 30
0
 42
-0.005694027757110153
  0
VERTEX
  8
1
 10
271.6156960193717
 20
304.3132233322472
 30
0
 42
-0.009568406319992036
  0
VERTEX
  8
1
 10
270.9849417599446
 20
304.3035491749686
 30
0
 42
-0.01351495323541103
  0
VERTEX
  8
1
 10
270.3571992336014
 20
304.3228974895256
 30
0
 42
-0.04014634871249673
  0
VERTEX
  8
1
 10
268.9196399336593
 20
304.5229552608007
 30
0
 42
-0.009124304351119186
  0
VERTEX
  8
1
 10
268.1107401264767
 20
304.713169992859
 30
0
 42
0.001534250010401306
  0
VERTEX
  8
1
 10
267.3030164545213
 20
304.9160564295074
 30
0
 42
0.01220105072980098
  0
VERTEX
  8
1
 10
266.4927124424918
 20
305.0960843708818
 30
0
 42
0.0231830801737522
  0
VERTEX
  8
1
 10
265.6760716150869
 20
305.2177236171181
 30
0
 42
0.01529747283873529
  0
VERTEX
  8
1
 10
265.2457171220725
 20
305.2482926856852
 30
0
 42
0.005656696756767399
  0
VERTEX
  8
1
 10
264.8133461631703
 20
305.2608381443897
 30
0
 42
0.006368138960522241
  0
VERTEX
  8
1
 10
264.3796990234265
 20
305.2629881762096
 30
0
 42
-0.0006029030480839938
  0
VERTEX
  8
1
 10
263.9455159878873
 20
305.2623709641233
 30
0
 42
-0.00500014199452997
  0
VERTEX
  8
1
 10
263.5115373415987
 20
305.2666146911085
 30
0
 42
-0.006579526752130059
  0
VERTEX
  8
1
 10
263.0436576170641
 20
305.2830972631724
 30
0
 42
-0.004151305535741033
  0
VERTEX
  8
1
 10
262.5765705973122
 20
305.3096000692294
 30
0
 42
-0.001715361460920618
  0
VERTEX
  8
1
 10
262.1099668406289
 20
305.3415723507466
 30
0
 42
0.0007228359943189682
  0
VERTEX
  8
1
 10
261.6435369052999
 20
305.3744633491909
 30
0
 42
0.003162479870912833
  0
VERTEX
  8
1
 10
261.1769713496109
 20
305.4037223060291
 30
0
 42
0.006187227354371854
  0
VERTEX
  8
1
 10
260.5196848569341
 20
305.4326155573248
 30
0
 42
0.003818458239066879
  0
VERTEX
  8
1
 10
259.8617281073522
 20
305.4483561776011
 30
0
 42
0.003855524038940713
  0
VERTEX
  8
1
 10
259.2033124008457
 20
305.4539996205676
 30
0
 42
0.0014914657859395
  0
VERTEX
  8
1
 10
258.5446490373957
 20
305.4526013399337
 30
0
 42
0.001534251241748564
  0
VERTEX
  8
1
 10
257.885949316983
 20
305.4472167894086
 30
0
 42
0.0004844600512787095
  0
VERTEX
  8
1
 10
256.8847189798278
 20
305.4365440049127
 30
0
 42
0.0003770640251952671
  0
VERTEX
  8
1
 10
255.8838121709604
 20
305.4241498292524
 30
0
 42
0.0002694207363137178
  0
VERTEX
  8
1
 10
254.8831480083089
 20
305.4104646102189
 30
0
 42
0.0001617307302758376
  0
VERTEX
  8
1
 10
253.8826456098014
 20
305.3959186956034
 30
0
 42
5.38932720872656e-005
  0
VERTEX
  8
1
 10
252.8822240933658
 20
305.3809424331968
 30
0
  0
SEQEND
  8
1
  0
POLYLINE
  8
1
 62
3
 66
1
  0
VERTEX
  8
1
 10
272.8822240933658
 20
303.3809424331968
 30
0
 42
-0.001888937841193283
  0
VERTEX
  8
1
 10
272.2484581008548
 20
303.3422458040828
 30
0
 42
-0.005694027757199751
  0
VERTEX
  8
1
 10
271.6156960193717
 20
303.3132233322472
 30
0
 42
-0.009568406319902044
  0
VERTEX
  8
1
 10
270.9849417599446
 20
303.3035491749687
 30
0
 42
-0.01351495323541081
  0
VERTEX
  8
1
 10
270.3571992336014
 20
303.3228974895257
 30
0
 42
-0.04014634871256267
  0
VERTEX
  8
1
 10
268.9196399336593
 20
303.5229552608006
 30
0
 42
-0.009124304351053122
  0
VERTEX
  8
1
 10
268.1107401264767
 20
303.7131699928589
 30
0
 42
0.001534250010335136
  0
VERTEX
  8
1
 10
267.3030164545213
 20
303.9160564295074
 30
0
 42
0.01220105072990025
  0
VERTEX
  8
1
 10
266.4927124424918
 20
304.0960843708818
 30
0
 42
0.02318308017361934
  0
VERTEX
  8
1
 10
265.6760716150869
 20
304.2177236171181
 30
0
 42
0.01529747283883923
  0
VERTEX
  8
1
 10
265.2457171220725
 20
304.2482926856852
 30
0
 42
0.005656696756665255
  0
VERTEX
  8
1
 10
264.8133461631703
 20
304.2608381443898
 30
0
 42
0.006368138960559768
  0
VERTEX
  8
1
 10
264.3796990234265
 20
304.2629881762098
 30
0
 42
-0.0006029030479530985
  0
VERTEX
  8
1
 10
263.9455159878873
 20
304.2623709641234
 30
0
 42
-0.005000141994661035
  0
VERTEX
  8
1
 10
263.5115373415987
 20
304.2666146911087
 30
0
 42
-0.006579526751766057
  0
VERTEX
  8
1
 10
263.0436576170641
 20
304.2830972631725
 30
0
 42
-0.004151305535377152
  0
VERTEX
  8
1
 10
262.5765705973122
 20
304.3096000692295
 30
0
 42
-0.001715361460799326
  0
VERTEX
  8
1
 10
262.1099668406289
 20
304.3415723507467
 30
0
 42
0.0007228359940678357
  0
VERTEX
  8
1
 10
261.6435369053
 20
304.3744633491909
 30
0
 42
0.003162479871110899
  0
VERTEX
  8
1
 10
261.1769713496109
 20
304.4037223060291
 30
0
 42
0.006187227354150024
  0
VERTEX
  8
1
 10
260.5196848569342
 20
304.4326155573247
 30
0
 42
0.003818458239248736
  0
VERTEX
  8
1
 10
259.8617281073522
 20
304.4483561776011
 30
0
 42
0.003855524038714224
  0
VERTEX
  8
1
 10
259.2033124008457
 20
304.4539996205676
 30
0
 42
0.001491465786295439
  0
VERTEX
  8
1
 10
258.5446490373957
 20
304.4526013399336
 30
0
 42
0.001534251241220097
  0
VERTEX
  8
1
 10
257.885949316983
 20
304.4472167894086
 30
0
 42
0.0004844600511652446
  0
VERTEX
  8
1
 10
256.8847189798278
 20
304.4365440049127
 30
0
 42
0.0003770640252800881
  0
VERTEX
  8
1
 10
255.8838121709604
 20
304.4241498292524
 30
0
 42
0.0002694207362570965
  0
VERTEX
  8
1
 10
254.8831480083089
 20
304.410464610219
 30
0
 42
0.0001617307303611027
  0
VERTEX
  8
1
 10
253.8826456098014
 20
304.3959186956034
 30
0
 42
5.389327197357876e-005
  0
VERTEX
  8
1
 10
252.8822240933658
 20
304.3809424331968
 30
0
  0
SEQEND
  8
1
  0
POLYLINE
  8
1
 62
3
 66
1
  0
VERTEX
  8
1
 10
272.8822240933658
 20
299.3809424331968
 30
0
 42
-0.00136247160975902
  0
VERTEX
  8
1
 10
272.2502800918572
 20
299.3556362529039
 30
0
 42
-0.004097610774330292
  0
VERTEX
  8
1
 10
271.6188845036259
 20
299.3372511253802
 30
0
 42
-0.006858595752827205
  0
VERTEX
  8
1
 10
270.9885857419494
 20
299.3327081033948
 30
0
 42
-0.009646437364313981
  0
VERTEX
  8
1
 10
270.359932220105
 20
299.3489282397168
 30
0
 42
-0.01243679960372547
  0
VERTEX
  8
1
 10
269.7334723513699
 20
299.3928325871156
 30
0
 42
-0.01723934499788826
  0
VERTEX
  8
1
 10
268.906114147966
 20
299.5018315529195
 30
0
 42
-0.01504120646964085
  0
VERTEX
  8
1
 10
268.0851421932769
 20
299.6644386419952
 30
0
 42
-0.0129115819251068
  0
VERTEX
  8
1
 10
267.2721092666615
 20
299.8732629138548
 30
0
 42
-0.01088102849107523
  0
VERTEX
  8
1
 10
266.4685681474786
 20
300.1209134280107
 30
0
 42
-0.008953596705410342
  0
VERTEX
  8
1
 10
265.6760716150869
 20
300.3999992439753
 30
0
 42
-0.003703781418570641
  0
VERTEX
  8
1
 10
265.2402111310197
 20
300.5659532324264
 30
0
 42
-0.002172491294157124
  0
VERTEX
  8
1
 10
264.8070392224605
 20
300.73674089041
 30
0
 42
-0.0006319289791247877
  0
VERTEX
  8
1
 10
264.375344128586
 20
300.9097513871637
 30
0
 42
0.0009139763722995336
  0
VERTEX
  8
1
 10
263.9439140885731
 20
301.082373891925
 30
0
 42
0.002461932441401719
  0
VERTEX
  8
1
 10
263.5115373415987
 20
301.2519975739314
 30
0
 42
0.003473150353734418
  0
VERTEX
  8
1
 10
263.0481991208704
 20
301.4274503915418
 30
0
 42
0.00200860397958587
  0
VERTEX
  8
1
 10
262.5827390772962
 20
301.5978957768734
 30
0
 42
0.002047564781072046
  0
VERTEX
  8
1
 10
262.1154915448873
 20
301.7647096168943
 30
0
 42
0.00058247692200101
  0
VERTEX
  8
1
 10
261.6467908576551
 20
301.9292677985721
 30
0
 42
0.0006242501456284388
  0
VERTEX
  8
1
 10
261.1769713496109
 20
302.0929462088748
 30
0
 42
0.0003363676654140579
  0
VERTEX
  8
1
 10
260.5256811846984
 20
302.3184441894238
 30
0
 42
0.005230759132034621
  0
VERTEX
  8
1
 10
259.8719122267557
 20
302.5366796069824
 30
0
 42
0.006236406618053473
  0
VERTEX
  8
1
 10
259.2146861480064
 20
302.7394409925902
 30
0
 42
0.01123059924299663
  0
VERTEX
  8
1
 10
258.5530246206743
 20
302.9185168772866
 30
0
 42
0.01235024403578318
  0
VERTEX
  8
1
 10
257.885949316983
 20
303.0656957921111
 30
0
 42
0.02178204566595307
  0
VERTEX
  8
1
 10
256.9015444767601
 20
303.2133643150619
 30
0
 42
0.01290993169220316
  0
VERTEX
  8
1
 10
255.9062461668703
 20
303.292679749177
 30
0
 42
0.01287933557269503
  0
VERTEX
  8
1
 10
254.9027777547301
 20
303.3207303666654
 30
0
 42
0.004130453162434764
  0
VERTEX
  8
1
 10
253.8938626077563
 20
303.3146044397358
 30
0
 42
0.004305287326395291
  0
VERTEX
  8
1
 10
252.8822240933658
 20
303.2913902405974
 30
0
  0
SEQEND
  8
1
  0
POLYLINE
  8
1
 62
3
 66
1
  0
VERTEX
  8
1
 10
272.8822240933658
 20
298.3809424331968
 30
0
 42
-0.001358152088050542
  0
VERTEX
  8
1
 10
272.2503078496983
 20
298.3557266795693
 30
0
 42
-0.004084509566230265
  0
VERTEX
  8
1
 10
271.6189330798479
 20
298.3374093720447
 30
0
 42
-0.006836327825946943
  0
VERTEX
  8
1
 10
270.9886412576317
 20
298.3328889567256
 30
0
 42
-0.009614512800570352
  0
VERTEX
  8
1
 10
270.3599738568667
 20
298.349063879715
 30
0
 42
-0.01239487570141769
  0
VERTEX
  8
1
 10
269.7334723513699
 20
298.3928325871156
 30
0
 42
-0.01720460201203657
  0
VERTEX
  8
1
 10
268.9060159768791
 20
298.50151174116
 30
0
 42
-0.01506268212934132
  0
VERTEX
  8
1
 10
268.0849398132252
 20
298.6637793488926
 30
0
 42
-0.01298929339484404
  0
VERTEX
  8
1
 10
267.2718517631884
 20
298.8724240452889
 30
0
 42
-0.01101450300668666
  0
VERTEX
  8
1
 10
266.4683597295489
 20
299.1202344653247
 30
0
 42
-0.009143100764603772
  0
VERTEX
  8
1
 10
265.6760716150869
 20
299.3999992439753
 30
0
 42
-0.003751510980182653
  0
VERTEX
  8
1
 10
265.2404013926116
 20
299.566573047246
 30
0
 42
-0.002072865824999915
  0
VERTEX
  8
1
 10
264.8074053796377
 20
299.7379337199374
 30
0
 42
-0.0003846956455681212
  0
VERTEX
  8
1
 10
264.3757910505525
 20
299.911207323989
 30
0
 42
0.001309348898548023
  0
VERTEX
  8
1
 10
263.9442658797437
 20
300.0835199213404
 30
0
 42
0.003005986051564335
  0
VERTEX
  8
1
 10
263.5115373415987
 20
300.2519975739314
 30
0
 42
0.00395184471212501
  0
VERTEX
  8
1
 10
263.0475262924432
 20
300.4252585196766
 30
0
 42
0.001611805709628873
  0
VERTEX
  8
1
 10
262.5813696466591
 20
300.5934345853374
 30
0
 42
0.001288536037609795
  0
VERTEX
  8
1
 10
262.1137619262539
 20
300.75907504162
 30
0
 42
-0.0005425218245851783
  0
VERTEX
  8
1
 10
261.6453976532354
 20
300.9247291592304
 30
0
 42
-0.001862584057108284
  0
VERTEX
  8
1
 10
261.1769713496109
 20
301.0929462088748
 30
0
 42
-0.001452496948212153
  0
VERTEX
  8
1
 10
260.5240631368832
 20
301.3336537350164
 30
0
 42
0.002656236824360188
  0
VERTEX
  8
1
 10
259.870446345653
 20
301.5728373845021
 30
0
 42
0.00679158252492239
  0
VERTEX
  8
1
 10
259.2141814575239
 20
301.7990240319086
 30
0
 42
0.01103558094080492
  0
VERTEX
  8
1
 10
258.5533289540993
 20
302.0007405518122
 30
0
 42
0.01535980820491987
  0
VERTEX
  8
1
 10
257.885949316983
 20
302.1665138187893
 30
0
 42
0.02443126800988084
  0
VERTEX
  8
1
 10
256.9064708496046
 20
302.3285002283516
 30
0
 42
0.01606205456732434
  0
VERTEX
  8
1
 10
255.9128146639962
 20
302.4110861801266
 30
0
 42
0.01393493870844966
  0
VERTEX
  8
1
 10
254.9085251897153
 20
302.4341217885614
 30
0
 42
0.005770450064705995
  0
VERTEX
  8
1
 10
253.8971468563193
 20
302.4174571681025
 30
0
 42
0.0039729786884469
  0
VERTEX
  8
1
 10
252.8822240933658
 20
302.3809424331968
 30
0
  0
SEQEND
  8
1
  0
POLYLINE
  8
1
 62
3
 66
1
  0
VERTEX
  8
1
 10
272.8822240933658
 20
296.8809424331968
 30
0
 42
-0.001437466414656493
  0
VERTEX
  8
1
 10
272.2496395636389
 20
296.8599833622841
 30
0
 42
-0.004324802430528256
  0
VERTEX
  8
1
 10
271.617763579244
 20
296.8463303047845
 30
0
 42
-0.007243808653218946
  0
VERTEX
  8
1
 10
270.9873046855129
 20
296.8472892741111
 30
0
 42
-0.01019656978461271
  0
VERTEX
  8
1
 10
270.3589714277775
 20
296.8701662836768
 30
0
 42
-0.0131552081111109
  0
VERTEX
  8
1
 10
269.7334723513699
 20
296.9222673468951
 30
0
 42
-0.01633930251805973
  0
VERTEX
  8
1
 10
268.9842566593063
 20
297.0308543438641
 30
0
 42
-0.01378166540667181
  0
VERTEX
  8
1
 10
268.2407994125481
 20
297.1847866373259
 30
0
 42
-0.01127931597953332
  0
VERTEX
  8
1
 10
267.5037127844029
 20
297.3763448424473
 30
0
 42
-0.008860671032362369
  0
VERTEX
  8
1
 10
266.7736089481783
 20
297.5978095743944
 30
0
 42
-0.006521860467722736
  0
VERTEX
  8
1
 10
266.0511000771819
 20
297.8414614483339
 30
0
 42
-0.003263998879598829
  0
VERTEX
  8
1
 10
265.582057095548
 20
298.0096164868529
 30
0
 42
-0.002743206220057557
  0
VERTEX
  8
1
 10
265.1158658392352
 20
298.1830993806445
 30
0
 42
-0.002214346597085112
  0
VERTEX
  8
1
 10
264.6518559183442
 20
298.3610291087121
 30
0
 42
-0.001680038634065884
  0
VERTEX
  8
1
 10
264.1893569429755
 20
298.5425246500585
 30
0
 42
-0.00114264829048673
  0
VERTEX
  8
1
 10
263.7276985232299
 20
298.7267049836873
 30
0
 42
-0.003025283605731669
  0
VERTEX
  8
1
 10
263.1482885960153
 20
298.9624910733068
 30
0
 42
-0.006884513991942782
  0
VERTEX
  8
1
 10
262.5735848422769
 20
299.2097455200292
 30
0
 42
-0.01075366762079379
  0
VERTEX
  8
1
 10
262.0080243550648
 20
299.4770844053312
 30
0
 42
-0.01459082984945263
  0
VERTEX
  8
1
 10
261.4560442274291
 20
299.7731238106899
 30
0
 42
-0.0182791571635954
  0
VERTEX
  8
1
 10
260.9220815524199
 20
300.1064798175822
 30
0
 42
-0.01457721295494335
  0
VERTEX
  8
1
 10
260.3735926966813
 20
300.5059490491153
 30
0
 42
-0.001460479569542791
  0
VERTEX
  8
1
 10
259.8361418897984
 20
300.9242788793791
 30
0
 42
0.01170481162204256
  0
VERTEX
  8
1
 10
259.2951743846009
 20
301.3279776660865
 30
0
 42
0.02559818686940506
  0
VERTEX
  8
1
 10
258.7361354339188
 20
301.6835537669502
 30
0
 42
0.04086222631782405
  0
VERTEX
  8
1
 10
258.1444702905819
 20
301.9575155396831
 30
0
 42
0.03180568557293935
  0
VERTEX
  8
1
 10
257.7257183666063
 20
302.0817343924472
 30
0
 42
0.0180498585784238
  0
VERTEX
  8
1
 10
257.2908312032744
 20
302.1647795142103
 30
0
 42
0.01830108516229974
  0
VERTEX
  8
1
 10
256.8446944848316
 20
302.2167613115747
 30
0
 42
0.005464783303985901
  0
VERTEX
  8
1
 10
256.3921938955231
 20
302.2477901911427
 30
0
 42
0.006549699693053536
  0
VERTEX
  8
1
 10
255.9382151195942
 20
302.2679765595166
 30
0
 42
0.0004093587783685637
  0
VERTEX
  8
1
 10
255.3193134376662
 20
302.2922248346437
 30
0
 42
0.0003245172126689192
  0
VERTEX
  8
1
 10
254.7055474068597
 20
302.31536970951
 30
0
 42
0.0002340549035256315
  0
VERTEX
  8
1
 10
254.0956331143945
 20
302.3376870341809
 30
0
 42
0.0001422883531615696
  0
VERTEX
  8
1
 10
253.4882866474899
 20
302.3594526587214
 30
0
 42
4.708687495774132e-005
  0
VERTEX
  8
1
 10
252.8822240933658
 20
302.3809424331968
 30
0
  0
SEQEND
  8
1
  0
POLYLINE
  8
1
 62
3
 66
1
  0
VERTEX
  8
1
 10
272.8822240933658
 20
295.8809424331968
 30
0
 42
-0.001399310508497885
  0
VERTEX
  8
1
 10
272.2500446036605
 20
295.8607935461508
 30
0
 42
-0.004208486187450748
  0
VERTEX
  8
1
 10
271.6184723992817
 20
295.8477481265512
 30
0
 42
-0.007044180568925152
  0
VERTEX
  8
1
 10
270.988114765556
 20
295.8489096418444
 30
0
 42
-0.00990647577270341
  0
VERTEX
  8
1
 10
270.3595789878099
 20
295.8713815594769
 30
0
 42
-0.01276798874529373
  0
VERTEX
  8
1
 10
269.7334723513699
 20
295.9222673468951
 30
0
 42
-0.01604707638822594
  0
VERTEX
  8
1
 10
268.9829861227244
 20
296.0283129450247
 30
0
 42
-0.01397860901119636
  0
VERTEX
  8
1
 10
268.2382082401564
 20
296.1796036283494
 30
0
 42
-0.0119775244727849
  0
VERTEX
  8
1
 10
267.5004362444924
 20
296.3697909227533
 30
0
 42
-0.0100652744521151
  0
VERTEX
  8
1
 10
266.7709676765587
 20
296.5925263541201
 30
0
 42
-0.008241774927350707
  0
VERTEX
  8
1
 10
266.0511000771819
 20
296.8414614483339
 30
0
 42
-0.003838553974232693
  0
VERTEX
  8
1
 10
265.5849546334263
 20
297.0154123053331
 30
0
 42
-0.001856704054642137
  0
VERTEX
  8
1
 10
265.1215140349827
 20
297.1943972199373
 30
0
 42
0.0001371936478596917
  0
VERTEX
  8
1
 10
264.6588060030217
 20
297.3749310595772
 30
0
 42
0.002130188905908492
  0
VERTEX
  8
1
 10
264.194858258714
 20
297.5535286916837
 30
0
 42
0.004105463468081757
  0
VERTEX
  8
1
 10
263.7276985232299
 20
297.7267049836873
 30
0
 42
0.004136423689878522
  0
VERTEX
  8
1
 10
263.1489336105474
 20
297.9304671143954
 30
0
 42
-0.004610467601167837
  0
VERTEX
  8
1
 10
262.5706729826791
 20
298.1366605672951
 30
0
 42
-0.01190343574372054
  0
VERTEX
  8
1
 10
262.0012331140711
 20
298.3611378508566
 30
0
 42
-0.01931776423060664
  0
VERTEX
  8
1
 10
261.4489304791693
 20
298.6197514735497
 30
0
 42
-0.02658956512597568
  0
VERTEX
  8
1
 10
260.9220815524199
 20
298.9283539438445
 30
0
 42
-0.02465029267630999
  0
VERTEX
  8
1
 10
260.3637603719982
 20
299.3446949358398
 30
0
 42
-0.007303506873484985
  0
VERTEX
  8
1
 10
259.8275866213457
 20
299.8002251016257
 30
0
 42
0.009583372171561091
  0
VERTEX
  8
1
 10
259.2928123347203
 20
300.2505009309979
 30
0
 42
0.02737041927769529
  0
VERTEX
  8
1
 10
258.7386895463798
 20
300.6510789137518
 30
0
 42
0.04757618206191807
  0
VERTEX
  8
1
 10
258.1444702905819
 20
300.9575155396831
 30
0
 42
0.03703160076192645
  0
VERTEX
  8
1
 10
257.7303639828419
 20
301.0888037845318
 30
0
 42
0.01980714861984841
  0
VERTEX
  8
1
 10
257.2967089535887
 20
301.1737238865907
 30
0
 42
0.02086257843998413
  0
VERTEX
  8
1
 10
256.8494815611069
 20
301.2240459682086
 30
0
 42
0.004976522059240798
  0
VERTEX
  8
1
 10
256.3946581636806
 20
301.2515401517343
 30
0
 42
0.007214920840300578
  0
VERTEX
  8
1
 10
255.9382151195942
 20
301.2679765595166
 30
0
 42
-0.0005860077343023815
  0
VERTEX
  8
1
 10
255.317167508684
 20
301.2889593015923
 30
0
 42
-0.0004655068745600259
  0
VERTEX
  8
1
 10
254.7026861682168
 20
301.3110156654416
 30
0
 42
-0.0003378585556179187
  0
VERTEX
  8
1
 10
254.0931295305819
 20
301.333877245621
 30
0
 42
-0.0002048992797181672
  0
VERTEX
  8
1
 10
253.4868560281685
 20
301.3572756366872
 30
0
 42
-6.866814293550767e-005
  0
VERTEX
  8
1
 10
252.8822240933658
 20
301.3809424331968
 30
0
  0
SEQEND
  8
1
  0
POLYLINE
  8
1
 62
3
 66
1
  0
VERTEX
  8
1
 10
272.8822240933658
 20
294.3809424331968
 30
0
 42
-0.001829921716483398
  0
VERTEX
  8
1
 10
272.1410090470386
 20
294.3370156680836
 30
0
 42
-0.005521412245285143
  0
VERTEX
  8
1
 10
271.4013575160921
 20
294.3040705942487
 30
0
 42
-0.009297014989028673
  0
VERTEX
  8
1
 10
270.6648330159068
 20
294.2930889029705
 30
0
 42
-0.01317426561356596
  0
VERTEX
  8
1
 10
269.9329990618636
 20
294.315052285527
 30
0
 42
-0.01710602726132751
  0
VERTEX
  8
1
 10
269.207419169343
 20
294.3809424331968
 30
0
 42
-0.01816776250885746
  0
VERTEX
  8
1
 10
268.4451773707284
 20
294.5069327266699
 30
0
 42
-0.01395037294198916
  0
VERTEX
  8
1
 10
267.6893971101161
 20
294.6823542389437
 30
0
 42
-0.009739958315150352
  0
VERTEX
  8
1
 10
266.9377329683586
 20
294.894780604481
 30
0
 42
-0.005623898474820284
  0
VERTEX
  8
1
 10
266.1878395263081
 20
295.1317854577445
 30
0
 42
-0.001607917713858212
  0
VERTEX
  8
1
 10
265.4373713648169
 20
295.3809424331968
 30
0
 42
-0.003035046829888614
  0
VERTEX
  8
1
 10
264.5900922895502
 20
295.6675722323121
 30
0
 42
-0.01003263971665241
  0
VERTEX
  8
1
 10
263.753313136096
 20
295.9751826744316
 30
0
 42
-0.01731546574555557
  0
VERTEX
  8
1
 10
262.9412498572382
 20
296.3251033917408
 30
0
 42
-0.0248735948981643
  0
VERTEX
  8
1
 10
262.1681184057606
 20
296.7386640164258
 30
0
 42
-0.0322380831730656
  0
VERTEX
  8
1
 10
261.4481347344469
 20
297.2371941806723
 30
0
 42
-0.02888700042255738
  0
VERTEX
  8
1
 10
260.7421794282857
 20
297.8770666391837
 30
0
 42
-0.01142416437673813
  0
VERTEX
  8
1
 10
260.0805530120355
 20
298.5811025089677
 30
0
 42
0.00515981816631535
  0
VERTEX
  8
1
 10
259.4299696805484
 20
299.2909901329008
 30
0
 42
0.0224131747066553
  0
VERTEX
  8
1
 10
258.7571436286769
 20
299.9484178538598
 30
0
 42
0.04260597243959812
  0
VERTEX
  8
1
 10
258.0287890512729
 20
300.4950740147214
 30
0
 42
0.05849288245850136
  0
VERTEX
  8
1
 10
257.1297818207294
 20
300.9203215974143
 30
0
 42
0.03363910028930821
  0
VERTEX
  8
1
 10
256.1439040828274
 20
301.1801865807753
 30
0
 42
0.03098575730244481
  0
VERTEX
  8
1
 10
255.0928734644062
 20
301.3160146146374
 30
0
 42
0.009028684574926069
  0
VERTEX
  8
1
 10
253.9984075923059
 20
301.3691513488336
 30
0
 42
0.0099463534562637
  0
VERTEX
  8
1
 10
252.8822240933658
 20
301.3809424331968
 30
0
  0
SEQEND
  8
1
  0
POLYLINE
  8
1
 62
3
 66
1
  0
VERTEX
  8
1
 10
272.8822240933658
 20
293.3809424331968
 30
0
 42
-0.00190278926441055
  0
VERTEX
  8
1
 10
272.1401582576882
 20
293.3351480728318
 30
0
 42
-0.005745277525893819
  0
VERTEX
  8
1
 10
271.3998686347288
 20
293.3008023025581
 30
0
 42
-0.009686512557380544
  0
VERTEX
  8
1
 10
270.663131437206
 20
293.2893537124668
 30
0
 42
-0.01374928444277245
  0
VERTEX
  8
1
 10
269.931722877838
 20
293.3122508926493
 30
0
 42
-0.01788295130678822
  0
VERTEX
  8
1
 10
269.207419169343
 20
293.3809424331968
 30
0
 42
-0.01866086244698169
  0
VERTEX
  8
1
 10
268.4474626490748
 20
293.5119492151657
 30
0
 42
-0.01353317069705864
  0
VERTEX
  8
1
 10
267.6939953871682
 20
293.6924480657938
 30
0
 42
-0.008418840654040645
  0
VERTEX
  8
1
 10
266.9435016049433
 20
293.9074435254374
 30
0
 42
-0.003422876774999047
  0
VERTEX
  8
1
 10
266.1924655237195
 20
294.141940134453
 30
0
 42
0.001454396476832187
  0
VERTEX
  8
1
 10
265.4373713648169
 20
294.3809424331968
 30
0
 42
0.002341100075038418
  0
VERTEX
  8
1
 10
264.5939932018108
 20
294.6408616617862
 30
0
 42
-0.008094591874728985
  0
VERTEX
  8
1
 10
263.757335394308
 20
294.9132500300142
 30
0
 42
-0.01670365432666373
  0
VERTEX
  8
1
 10
262.9434430052713
 20
295.2234913713212
 30
0
 42
-0.02578314228306679
  0
VERTEX
  8
1
 10
262.1683610976633
 20
295.5969695191479
 30
0
 42
-0.07276438933753542
  0
VERTEX
  8
1
 10
260.7338306368686
 20
296.6794024578226
 30
0
 42
-0.01438878185774404
  0
VERTEX
  8
1
 10
260.0694214472181
 20
297.37581801195
 30
0
 42
0.00281317626828854
  0
VERTEX
  8
1
 10
259.4202297380395
 20
298.088408474575
 30
0
 42
0.02037324986593794
  0
VERTEX
  8
1
 10
258.7515780818764
 20
298.7572673509559
 30
0
 42
0.04059420823339995
  0
VERTEX
  8
1
 10
258.0287890512729
 20
299.322488146351
 30
0
 42
0.05710425916613669
  0
VERTEX
  8
1
 10
257.1311725410936
 20
299.7766863866765
 30
0
 42
0.03290429397085007
  0
VERTEX
  8
1
 10
256.1457583766462
 20
300.0692130383645
 30
0
 42
0.03065123788450628
  0
VERTEX
  8
1
 10
255.0944959714977
 20
300.2404859985742
 30
0
 42
0.008913767507461326
  0
VERTEX
  8
1
 10
253.9993347392153
 20
300.3309231644652
 30
0
 42
0.009909907619798569
  0
VERTEX
  8
1
 10
252.8822240933658
 20
300.3809424331968
 30
0
  0
SEQEND
  8
1
  0
POLYLINE
  8
1
 62
3
 66
1
  0
VERTEX
  8
1
 10
272.8822240933658
 20
291.8809424331968
 30
0
 42
-0.001607743817767728
  0
VERTEX
  8
1
 10
271.9740951744305
 20
291.8846078460447
 30
0
 42
-0.004839459238606386
  0
VERTEX
  8
1
 10
271.0676123621176
 20
291.8999471137963
 30
0
 42
-0.008112118624447221
  0
VERTEX
  8
1
 10
270.164421763049
 20
291.9386340913552
 30
0
 42
-0.01142630948606098
  0
VERTEX
  8
1
 10
269.2661694838471
 20
292.0123426336252
 30
0
 42
-0.01474034783455274
  0
VERTEX
  8
1
 10
268.374501631134
 20
292.13274659551
 30
0
 42
-0.01091907975224759
  0
VERTEX
  8
1
 10
267.7603665655302
 20
292.2489005361737
 30
0
 42
-0.01003733773332939
  0
VERTEX
  8
1
 10
267.1505071478497
 20
292.390947028981
 30
0
 42
-0.009167219348191232
  0
VERTEX
  8
1
 10
266.5452346833059
 20
292.5566643101699
 30
0
 42
-0.008316733795461462
  0
VERTEX
  8
1
 10
265.9448604771117
 20
292.743830615978
 30
0
 42
-0.02049271564598378
  0
VERTEX
  8
1
 10
264.3311112804668
 20
293.350903828292
 30
0
 42
-0.01613454575095013
  0
VERTEX
  8
1
 10
263.3387680497372
 20
293.8109445758917
 30
0
 42
-0.0188277928965545
  0
VERTEX
  8
1
 10
262.3822692321899
 20
294.3384580880409
 30
0
 42
-0.02154182287532853
  0
VERTEX
  8
1
 10
261.4712179177238
 20
294.9415560273378
 30
0
 42
-0.02412403713680733
  0
VERTEX
  8
1
 10
260.6152171962379
 20
295.6283500563807
 30
0
 42
-0.01837071847585043
  0
VERTEX
  8
1
 10
259.7976321709238
 20
296.4163027149969
 30
0
 42
-0.003824838419057796
  0
VERTEX
  8
1
 10
259.0123441736625
 20
297.2430889178162
 30
0
 42
0.01068385427298317
  0
VERTEX
  8
1
 10
258.2237736964707
 20
298.0511580290092
 30
0
 42
0.02605597401755753
  0
VERTEX
  8
1
 10
257.3963412313646
 20
298.782959412746
 30
0
 42
0.04330280254886802
  0
VERTEX
  8
1
 10
256.494467270361
 20
299.3809424331968
 30
0
 42
0.03453843384913126
  0
VERTEX
  8
1
 10
255.8317281890188
 20
299.6848003984438
 30
0
 42
0.01926728948014687
  0
VERTEX
  8
1
 10
255.1291827383055
 20
299.9194197201928
 30
0
 42
0.01966704674599413
  0
VERTEX
  8
1
 10
254.3967825105636
 20
300.1021100593183
 30
0
 42
0.005391877216733865
  0
VERTEX
  8
1
 10
253.6444790981361
 20
300.2501810766948
 30
0
 42
0.006832092944586011
  0
VERTEX
  8
1
 10
252.8822240933658
 20
300.3809424331968
 30
0
  0
SEQEND
  8
1
  0
POLYLINE
  8
1
 62
3
 66
1
  0
VERTEX
  8
1
 10
272.8822240933658
 20
290.8809424331968
 30
0
 42
-0.001607743817830345
  0
VERTEX
  8
1
 10
271.9740951744305
 20
290.8846078460447
 30
0
 42
-0.00483945923866906
  0
VERTEX
  8
1
 10
271.0676123621176
 20
290.8999471137963
 30
0
 42
-0.008112118624384377
  0
VERTEX
  8
1
 10
270.164421763049
 20
290.9386340913553
 30
0
 42
-0.01142630948606115
  0
VERTEX
  8
1
 10
269.2661694838471
 20
291.0123426336253
 30
0
 42
-0.01474034783436479
  0
VERTEX
  8
1
 10
268.374501631134
 20
291.13274659551
 30
0
 42
-0.01091907975224759
  0
VERTEX
  8
1
 10
267.7603665655302
 20
291.2489005361737
 30
0
 42
-0.01003733773350627
  0
VERTEX
  8
1
 10
267.1505071478497
 20
291.390947028981
 30
0
 42
-0.009167219348191232
  0
VERTEX
  8
1
 10
266.5452346833059
 20
291.5566643101699
 30
0
 42
-0.008316733795634057
  0
VERTEX
  8
1
 10
265.9448604771117
 20
291.743830615978
 30
0
 42
-0.02049271564586188
  0
VERTEX
  8
1
 10
264.3311112804668
 20
292.3509038282919
 30
0
 42
-0.01613454575088083
  0
VERTEX
  8
1
 10
263.3387680497372
 20
292.8109445758917
 30
0
 42
-0.01882779289652845
  0
VERTEX
  8
1
 10
262.3822692321899
 20
293.3384580880409
 30
0
 42
-0.02154182287539595
  0
VERTEX
  8
1
 10
261.4712179177238
 20
293.9415560273378
 30
0
 42
-0.02412403713669307
  0
VERTEX
  8
1
 10
260.6152171962379
 20
294.6283500563808
 30
0
 42
-0.01837071847592512
  0
VERTEX
  8
1
 10
259.7976321709239
 20
295.4163027149969
 30
0
 42
-0.003824838419058324
  0
VERTEX
  8
1
 10
259.0123441736626
 20
296.2430889178162
 30
0
 42
0.01068385427301826
  0
VERTEX
  8
1
 10
258.2237736964707
 20
297.0511580290092
 30
0
 42
0.02605597401752476
  0
VERTEX
  8
1
 10
257.3963412313646
 20
297.782959412746
 30
0
 42
0.04330280254885867
  0
VERTEX
  8
1
 10
256.494467270361
 20
298.3809424331968
 30
0
 42
0.0345384338491635
  0
VERTEX
  8
1
 10
255.8317281890188
 20
298.6848003984438
 30
0
 42
0.01926728948011577
  0
VERTEX
  8
1
 10
255.1291827383055
 20
298.9194197201928
 30
0
 42
0.01966704674602567
  0
VERTEX
  8
1
 10
254.3967825105636
 20
299.1021100593183
 30
0
 42
0.005391877216701668
  0
VERTEX
  8
1
 10
253.6444790981361
 20
299.2501810766948
 30
0
 42
0.006832092944618209
  0
VERTEX
  8
1
 10
252.8822240933658
 20
299.3809424331968
 30
0
  0
SEQEND
  8
1
  0
POLYLINE
  8
1
 62
3
 66
1
  0
VERTEX
  8
1
 10
256.5557771497949
 20
304.3809424331968
 30
0
 42
-7.05238075186093e-005
  0
VERTEX
  8
1
 10
256.8462775122565
 20
304.3575671549506
 30
0
 42
-0.0002115044989291635
  0
VERTEX
  8
1
 10
257.1368105969351
 20
304.3340242849706
 30
0
 42
-0.0003522839053105441
  0
VERTEX
  8
1
 10
257.4274091260478
 20
304.3101462315233
 30
0
 42
-0.0004927261344000737
  0
VERTEX
  8
1
 10
257.7181058218115
 20
304.2857654028749
 30
0
 42
-0.0006326927679634724
  0
VERTEX
  8
1
 10
258.0089334064433
 20
304.2607142072918
 30
0
 42
-0.002829224898416137
  0
VERTEX
  8
1
 10
258.6785433159196
 20
304.1988761109749
 30
0
 42
-0.005262177555072429
  0
VERTEX
  8
1
 10
259.3472299049407
 20
304.126196237846
 30
0
 42
-0.007717915863632796
  0
VERTEX
  8
1
 10
260.0132033258575
 20
304.0362708598558
 30
0
 42
-0.01019790816415949
  0
VERTEX
  8
1
 10
260.6746737310207
 20
303.9226962489552
 30
0
 42
-0.02165487244675418
  0
VERTEX
  8
1
 10
261.7955534874308
 20
303.6557208207173
 30
0
 42
-0.003174607387940023
  0
VERTEX
  8
1
 10
262.2589104566316
 20
303.5221423888605
 30
0
 42
0.001341736710706424
  0
VERTEX
  8
1
 10
262.7217393237619
 20
303.3868770655778
 30
0
 42
0.005867617843849607
  0
VERTEX
  8
1
 10
263.1858572322002
 20
303.2584685349223
 30
0
 42
0.01043616403240856
  0
VERTEX
  8
1
 10
263.653081325325
 20
303.1454604809471
 30
0
 42
0.01572676402662895
  0
VERTEX
  8
1
 10
264.2942194759444
 20
303.0254839517867
 30
0
 42
0.004938296709304305
  0
VERTEX
  8
1
 10
264.9410284285316
 20
302.931916463253
 30
0
 42
0.001884020282917184
  0
VERTEX
  8
1
 10
265.5901067676562
 20
302.8470451472304
 30
0
 42
-0.006909369922572262
  0
VERTEX
  8
1
 10
266.2380530778877
 20
302.753157135603
 30
0
 42
-0.01379629701620021
  0
VERTEX
  8
1
 10
266.8814659437959
 20
302.6325395602551
 30
0
 42
-0.01224550147364764
  0
VERTEX
  8
1
 10
267.4814031482107
 20
302.4842403932587
 30
0
 42
-0.004376625229185617
  0
VERTEX
  8
1
 10
268.0771849978044
 20
302.3157938205114
 30
0
 42
0.003443735131263134
  0
VERTEX
  8
1
 10
268.6716992519463
 20
302.1465002818499
 30
0
 42
0.01135075693027585
  0
VERTEX
  8
1
 10
269.2678336700061
 20
301.9956602171107
 30
0
 42
0.01951810480750651
  0
VERTEX
  8
1
 10
269.8684760113529
 20
301.8825740661305
 30
0
 42
0.02289053426953758
  0
VERTEX
  8
1
 10
270.4627263352757
 20
301.8221742291476
 30
0
 42
0.01385585263752742
  0
VERTEX
  8
1
 10
271.062642854185
 20
301.8054865290044
 30
0
 42
0.01336861782345719
  0
VERTEX
  8
1
 10
271.6668090193342
 20
301.8215829314911
 30
0
 42
0.004535915093868779
  0
VERTEX
  8
1
 10
272.2738082819766
 20
301.8595354023976
 30
0
 42
0.004326632835733155
  0
VERTEX
  8
1
 10
272.8822240933658
 20
301.908415907514
 30
0
  0
SEQEND
  8
1
  0
POLYLINE
  8
1
 62
3
 66
1
  0
VERTEX
  8
1
 10
257.5778974010657
 20
303.2801244065187
 30
0
 42
-0.001154420490659355
  0
VERTEX
  8
1
 10
258.3094890519215
 20
303.2015093818747
 30
0
 42
-0.003468734099912414
  0
VERTEX
  8
1
 10
259.0397461198762
 20
303.1162032348513
 30
0
 42
-0.005796547176469772
  0
VERTEX
  8
1
 10
259.7673340220288
 20
303.0175148430693
 30
0
 42
-0.008136977558663442
  0
VERTEX
  8
1
 10
260.4909181754784
 20
302.8987530841493
 30
0
 42
-0.01756846700862706
  0
VERTEX
  8
1
 10
261.6870713629547
 20
302.6387313094558
 30
0
 42
-0.003142605946998283
  0
VERTEX
  8
1
 10
262.1631824157623
 20
302.5151766267326
 30
0
 42
-5.559773162677619e-005
  0
VERTEX
  8
1
 10
262.6386971547818
 20
302.3885260694091
 30
0
 42
0.003030683839549944
  0
VERTEX
  8
1
 10
263.1148155790482
 20
302.2647429193521
 30
0
 42
0.006125008534284701
  0
VERTEX
  8
1
 10
263.5927376875969
 20
302.149790458428
 30
0
 42
0.009595418813419123
  0
VERTEX
  8
1
 10
264.2410558041972
 20
302.0152609906428
 30
0
 42
0.003443420274524035
  0
VERTEX
  8
1
 10
264.8929504498898
 20
301.8976293895771
 30
0
 42
0.001921277061824485
  0
VERTEX
  8
1
 10
265.5465416810157
 20
301.7869188846753
 30
0
 42
-0.003059807641867704
  0
VERTEX
  8
1
 10
266.1999495539161
 20
301.6731527053823
 30
0
 42
-0.006880434131621942
  0
VERTEX
  8
1
 10
266.8512941249319
 20
301.546354081143
 30
0
 42
-0.005683946695322567
  0
VERTEX
  8
1
 10
267.4368179045503
 20
301.4153174328092
 30
0
 42
-0.001199148558128929
  0
VERTEX
  8
1
 10
268.0206852543018
 20
301.2761884958486
 30
0
 42
0.003285732452816109
  0
VERTEX
  8
1
 10
268.6044573572272
 20
301.1396500611883
 30
0
 42
0.007799462787585677
  0
VERTEX
  8
1
 10
269.1896953963663
 20
301.016384919755
 30
0
 42
0.01237618344508788
  0
VERTEX
  8
1
 10
269.7779605547598
 20
300.9170758624757
 30
0
 42
0.01495152526755236
  0
VERTEX
  8
1
 10
270.3928831051517
 20
300.8475488963557
 30
0
 42
0.009328849676251767
  0
VERTEX
  8
1
 10
271.011759093763
 20
300.8078679699765
 30
0
 42
0.008782865383259222
  0
VERTEX
  8
1
 10
271.6336001610391
 20
300.7905715734031
 30
0
 42
0.003218905574485092
  0
VERTEX
  8
1
 10
272.257417947425
 20
300.7881981967001
 30
0
 42
0.002755082483134757
  0
VERTEX
  8
1
 10
272.8822240933658
 20
300.7932863299324
 30
0
  0
SEQEND
  8
1
  0
ARC
  8
1
 62
3
 10
447.077883320309
 20
150.9096709069607
 30
0
 40
7.499999999999915
 50
270
 51
0
  0
ARC
  8
1
 62
3
 10
372.077883320309
 20
150.9096709069608
 30
0
 40
7.5
 50
180
 51
270
  0
ARC
  8
1
 62
3
 10
372.077883320309
 20
225.9096709069608
 30
0
 40
7.5
 50
90
 51
180
  0
ARC
  8
1
 62
3
 10
447.077883320309
 20
225.9096709069608
 30
0
 40
7.5
 50
0
 51
90
  0
ARC
  8
1
 62
3
 10
281.4928891630422
 20
46.86058775617454
 30
0
 40
0.8000000000000966
 50
270
 51
0
  0
ARC
  8
1
 62
3
 10
281.4928891630422
 20
62.06058775617424
 30
0
 40
0.8000000000001819
 50
0
 51
90
  0
ARC
  8
1
 62
3
 10
278.6928891630422
 20
16.96058775617453
 30
0
 40
2.599999999999989
 50
270
 51
0
  0
ARC
  8
1
 62
3
 10
278.6928891630422
 20
91.96058775617433
 30
0
 40
2.600000000000193
 50
0
 51
90
  0
ARC
  8
1
 62
3
 10
396.2646688410148
 20
206.3721991906672
 30
0
 40
1
 50
180
 51
270
  0
ARC
  8
1
 62
3
 10
396.2646688410148
 20
216.3721991906672
 30
0
 40
1
 50
90
 51
180
  0
ARC
  8
1
 62
3
 10
422.2646688410148
 20
216.3721991906672
 30
0
 40
1
 50
0
 51
90
  0
ARC
  8
1
 62
3
 10
422.2646688410148
 20
206.3721991906672
 30
0
 40
1
 50
270
 51
0
  0
ARC
  8
1
 62
3
 10
427.577883320309
 20
147.9096844724087
 30
0
 40
2.000000000000154
 50
318.5903778907241
 51
0
  0
ARC
  8
1
 62
3
 10
428.077883320309
 20
139.4096709069594
 30
0
 40
1
 50
270
 51
0
  0
ARC
  8
1
 62
3
 10
391.0778833203082
 20
139.4096709069594
 30
0
 40
0.9999999999992042
 50
179.9999999999495
 51
270
  0
ARC
  8
1
 62
3
 10
391.577883320309
 20
147.9096844724089
 30
0
 40
2
 50
180
 51
221.4096221092691
  0
ARC
  8
1
 62
3
 10
392.0412826855953
 20
142.4254166986296
 30
0
 40
0.03119999999997675
 50
45.00000000003691
 51
97.45844905632943
  0
ARC
  8
1
 62
3
 10
391.9144870503607
 20
142.4254166986296
 30
0
 40
0.0312000000001243
 50
82.54155094356709
 51
135.0000000000369
  0
ARC
  8
1
 62
3
 10
392.4621526417575
 20
142.9730822900263
 30
0
 40
0.03120000000015762
 50
135.0000000000738
 51
187.4584490559493
  0
ARC
  8
1
 62
3
 10
392.4621526417575
 20
142.8462866547917
 30
0
 40
0.03119999999998339
 50
172.5415509435332
 51
224.9999999999262
  0
ARC
  8
1
 62
3
 10
391.9144870503607
 20
143.3939522461887
 30
0
 40
0.03120000000007723
 50
225.0000000000738
 51
277.4584490564194
  0
ARC
  8
1
 62
3
 10
392.0412826855953
 20
143.3939522461887
 30
0
 40
0.03120000000017328
 50
262.5415509436841
 51
314.9999999995571
  0
ARC
  8
1
 62
3
 10
391.4936170941986
 20
142.8462866547917
 30
0
 40
0.03119999999987626
 50
314.9999999995571
 51
7.458449056507451
  0
ARC
  8
1
 62
3
 10
391.4936170941986
 20
142.9730822900263
 30
0
 40
0.03119999999977741
 50
352.5415509440101
 51
45.00000000044288
  0
ARC
  8
1
 62
3
 10
427.2412795902581
 20
142.4254166986296
 30
0
 40
0.03119999999997675
 50
45.00000000003691
 51
97.45844905612242
  0
ARC
  8
1
 62
3
 10
427.1144839550235
 20
142.4254166986296
 30
0
 40
0.0312000000001243
 50
82.54155094356709
 51
134.9999999999631
  0
ARC
  8
1
 62
3
 10
427.6621495464204
 20
142.9730822900263
 30
0
 40
0.03120000000015762
 50
135.0000000000738
 51
187.4584490559222
  0
ARC
  8
1
 62
3
 10
427.6621495464204
 20
142.8462866547917
 30
0
 40
0.03120000000009612
 50
172.5415509435603
 51
224.9999999999262
  0
ARC
  8
1
 62
3
 10
427.1144839550235
 20
143.3939522461887
 30
0
 40
0.03120000000003704
 50
225.0000000001477
 51
277.4584490564194
  0
ARC
  8
1
 62
3
 10
427.2412795902581
 20
143.3939522461887
 30
0
 40
0.03120000000015853
 50
262.5415509438911
 51
314.9999999997047
  0
ARC
  8
1
 62
3
 10
426.6936139988614
 20
142.8462866547917
 30
0
 40
0.03119999999991645
 50
314.9999999996309
 51
7.458449056507451
  0
ARC
  8
1
 62
3
 10
426.6936139988614
 20
142.9730822900263
 30
0
 40
0.03119999999977741
 50
352.5415509440101
 51
45.00000000036906
  0
ARC
  8
1
 62
3
 10
413.9778833203092
 20
230.1096727493894
 30
0
 40
0.5
 50
0
 51
90
  0
ARC
  8
1
 62
3
 10
405.1778833203093
 20
230.1096727493894
 30
0
 40
0.5
 50
90
 51
180
  0
ARC
  8
1
 62
3
 10
389.4278833203089
 20
136.2596709069605
 30
0
 40
1
 50
180
 51
270
  0
ARC
  8
1
 62
3
 10
429.7278833203091
 20
136.25967090696
 30
0
 40
1
 50
270
 51
0
  0
ARC
  8
1
 62
3
 10
384.4278833203089
 20
139.4096709069607
 30
0
 40
4
 50
0
 51
90
  0
ARC
  8
1
 62
3
 10
434.7278833203091
 20
139.4096709069607
 30
0
 40
4
 50
90
 51
180
  0
ARC
  8
1
 62
3
 10
446.077883320309
 20
151.9096709069603
 30
0
 40
8.500000000000114
 50
90
 51
180
  0
ARC
  8
1
 62
3
 10
436.077883320309
 20
144.9096709069607
 30
0
 40
1.5
 50
270
 51
0
  0
ARC
  8
1
 62
3
 10
383.077883320309
 20
144.9096709069607
 30
0
 40
1.5
 50
180
 51
270
  0
ARC
  8
1
 62
3
 10
373.0778833203091
 20
151.9096709069603
 30
0
 40
8.499999999999886
 50
0
 51
90
  0
ARC
  8
1
 62
3
 10
368.4778833203089
 20
161.9096709069604
 30
0
 40
1.5
 50
180
 51
270
  0
ARC
  8
1
 62
3
 10
368.4778833203089
 20
214.9096709069605
 30
0
 40
1.5
 50
90
 51
180
  0
ARC
  8
1
 62
3
 10
373.077883320309
 20
224.9096709069605
 30
0
 40
8.5
 50
270
 51
0
  0
ARC
  8
1
 62
3
 10
383.077883320309
 20
229.5096709069605
 30
0
 40
1.5
 50
90
 51
180
  0
ARC
  8
1
 62
3
 10
436.077883320309
 20
229.5096709069605
 30
0
 40
1.5
 50
0
 51
90
  0
ARC
  8
1
 62
3
 10
446.077883320309
 20
224.9096709069605
 30
0
 40
8.5
 50
180
 51
270
  0
ARC
  8
1
 62
3
 10
450.6778833203089
 20
214.9096709069605
 30
0
 40
1.5
 50
0
 51
90
  0
ARC
  8
1
 62
3
 10
450.6778833203089
 20
161.9096709069604
 30
0
 40
1.5
 50
270
 51
0
  0
ARC
  8
1
 62
3
 10
403.077883320309
 20
229.5999610248998
 30
0
 40
0.8000000000000682
 50
0
 51
98.967564286479
  0
ARC
  8
1
 62
3
 10
416.077883320309
 20
229.5999610248996
 30
0
 40
0.8000000000000032
 50
81.03243571351517
 51
180
  0
ARC
  8
1
 62
3
 10
78.47929922266737
 20
182.4074315597261
 30
0
 40
0.6899999999999977
 50
90
 51
180
  0
ARC
  8
1
 62
3
 10
78.47929922266737
 20
182.3996709069608
 30
0
 40
0.6900000000000972
 50
180
 51
270
  0
ARC
  8
1
 62
3
 10
82.09929922266738
 20
182.4074315597261
 30
0
 40
0.689999999999884
 50
0
 51
90
  0
ARC
  8
1
 62
3
 10
82.09929922266738
 20
182.3996709069608
 30
0
 40
0.6900000000001114
 50
270
 51
0
  0
ARC
  8
1
 62
3
 10
78.45929922266727
 20
182.3796709069607
 30
0
 40
1.670000000000002
 50
180
 51
270
  0
ARC
  8
1
 62
3
 10
82.11929922266737
 20
182.3796709069607
 30
0
 40
1.670000000000016
 50
270
 51
0
  0
ARC
  8
1
 62
3
 10
281.4928891630422
 20
180.8096709069604
 30
0
 40
0.8000000000000966
 50
270
 51
0
  0
ARC
  8
1
 62
3
 10
281.4928891630422
 20
196.0096709069601
 30
0
 40
0.8000000000001819
 50
0
 51
90
  0
ARC
  8
1
 62
3
 10
278.6928891630422
 20
150.9096709069604
 30
0
 40
2.599999999999994
 50
270
 51
0
  0
ARC
  8
1
 62
3
 10
278.6928891630422
 20
225.9096709069602
 30
0
 40
2.600000000000193
 50
0
 51
90
  0
ARC
  8
1
 62
3
 10
42.78929922266724
 20
225.9096709069608
 30
0
 40
7.5
 50
90
 51
180
  0
ARC
  8
1
 62
3
 10
42.7892992226673
 20
150.9096709069607
 30
0
 40
7.500000000000064
 50
180
 51
270
  0
ARC
  8
1
 62
3
 10
117.7892992226673
 20
150.9096709069608
 30
0
 40
7.5
 50
270
 51
0
  0
ARC
  8
1
 62
3
 10
117.7892992226673
 20
225.9096709069608
 30
0
 40
7.5
 50
0
 51
90
  0
ARC
  8
1
 62
3
 10
100.7892992226673
 20
135.9096709069608
 30
0
 40
1
 50
270
 51
0
  0
ARC
  8
1
 62
3
 10
59.78929922266727
 20
135.9096709069604
 30
0
 40
1
 50
180
 51
270
  0
ARC
  8
1
 62
3
 10
105.7892992226673
 20
139.4096709069607
 30
0
 40
4
 50
90
 51
180
  0
ARC
  8
1
 62
3
 10
54.78929922266727
 20
139.4096709069607
 30
0
 40
4
 50
0
 51
90
  0
TEXT
  8
1
 62
2
 10
221.719544522237
 20
277.268694008516
 30
0
 40
4
  1
付属ケーブル
 41
0.9
  0
TEXT
  8
1
 62
2
 10
238.0821870720864
 20
69.35144704380861
 30
0
 40
3
  1
1
 50
270
 41
0.9
 72
1
 73
2
 11
239.5821870720864
 21
68.00144704380861
 31
0
  0
TEXT
  8
1
 62
2
 10
238.1686197500943
 20
44.93766738403539
 30
0
 40
3
  1
11
 50
270
 41
0.9
 72
1
 73
2
 11
239.6686197500943
 21
42.23766738403539
 31
0
  0
TEXT
  8
1
 62
2
 10
184.0316552465339
 20
317.4565973163433
 30
0
 40
3.200000000000001
  1
1
 50
90
 41
0.9
  0
TEXT
  8
1
 62
2
 10
184.5902143004251
 20
289.0697272424142
 30
0
 40
3.200000000000001
  1
9
 50
90
 41
0.9
  0
TEXT
  8
1
 62
2
 10
286.6206895823448
 20
286.8357429509808
 30
0
 40
3.199999999999999
  1
11
 50
90
 41
0.9
  0
TEXT
  8
1
 62
2
 10
286.565595228341
 20
318.7426605348697
 30
0
 40
3.200000000000001
  1
1
 50
90
 41
0.9
  0
TEXT
  8
1
 62
2
 10
215.2680615933251
 20
-16.63691364995781
 30
0
 40
5
  1
FY9S40-D3
 41
0.9
  0
ENDSEC
  0
EOF
