  0
SECTION
  2
HEADER
  9
$ACADVER
  1
AC1009
  9
$INSBASE
 10
0
 20
0
  9
$EXTMIN
 10
116.9068513433588
 20
305.0426543107844
  9
$EXTMAX
 10
472.2627971855937
 20
608.6137367126062
  9
$LIMMIN
 10
116.9068513433588
 20
305.0426543107844
  9
$LIMMAX
 10
472.2627971855937
 20
608.6137367126062
  9
$VIEWCTR
 10
10
 20
10
  9
$VIEWSIZE
 40
10
  9
$SNAPMODE
 70
0
  9
$SNAPUNIT
 10
1
 20
1
  9
$SNAPBASE
 10
0
 20
0
  9
$SNAPANG
 50
0
  9
$SNAPSTYLE
 70
0
  9
$SNAPISOPAIR
 70
0
  9
$GRIDMODE
 70
0
  9
$GRIDUNIT
 10
0
 20
0
  9
$ORTHOMODE
 70
0
  9
$REGENMODE
 70
1
  9
$FILLMODE
 70
1
  9
$QTEXTMODE
 70
0
  9
$DRAGMODE
 70
2
  9
$LTSCALE
 40
1
  9
$OSMODE
 70
0
  9
$ATTMODE
 70
1
  9
$TEXTSIZE
 40
3.5
  9
$TRACEWID
 40
0.5
  9
$TEXTSTYLE
  7
STANDARD
  9
$CLAYER
  8
0
  9
$CELTYPE
  6
BYLAYER
  9
$CECOLOR
 62
256
  9
$DIMSCALE
 40
1
  9
$DIMASZ
 40
0.18
  9
$DIMEXO
 40
0.0625
  9
$DIMDLI
 40
0.38
  9
$DIMRND
 40
0
  9
$DIMDLE
 40
0
  9
$DIMEXE
 40
0.18
  9
$DIMTP
 40
0
  9
$DIMTM
 40
0
  9
$DIMTXT
 40
0.18
  9
$DIMCEN
 40
0.09
  9
$DIMTSZ
 40
0
  9
$DIMTOL
 70
0
  9
$DIMLIM
 70
0
  9
$DIMTIH
 70
1
  9
$DIMTOH
 70
1
  9
$DIMSE1
 70
0
  9
$DIMSE2
 70
0
  9
$DIMTAD
 70
0
  9
$DIMZIN
 70
0
  9
$DIMBLK
  1

  9
$DIMASO
 70
1
  9
$DIMSHO
 70
1
  9
$DIMPOST
  1

  9
$DIMAPOST
  1

  9
$DIMALT
 70
0
  9
$DIMALTD
 70
2
  9
$DIMALTF
 40
25.4
  9
$DIMLFAC
 40
1
  9
$DIMTOFL
 70
0
  9
$DIMTVP
 40
0
  9
$DIMTIX
 70
0
  9
$DIMSOXD
 70
0
  9
$DIMSAH
 70
0
  9
$DIMBLK1
  1

  9
$DIMBLK2
  1

  9
$DIMSTYLE
  2
*UNNAMED
  9
$DIMCLRD
 70
0
  9
$DIMCLRE
 70
0
  9
$DIMCLRT
 70
0
  9
$DIMTFAC
 40
1
  9
$DIMGAP
 40
0.09
  9
$LUNITS
 70
2
  9
$LUPREC
 70
4
  9
$AXISMODE
 70
0
  9
$AXISUNIT
 10
0
 20
0
  9
$SKETCHINC
 40
0.1
  9
$FILLETRAD
 40
2
  9
$AUNITS
 70
0
  9
$AUPREC
 70
0
  9
$MENU
  1
ACAD
  9
$ELEVATION
 40
0
  9
$THICKNESS
 40
0
  9
$VIEWDIR
 10
0
 20
0
 30
1
  9
$LIMCHECK
 70
0
  9
$BLIPMODE
 70
1
  9
$CHAMFERA
 40
0
  9
$CHAMFERB
 40
0
  9
$FASTZOOM
 70
1
  9
$SKPOLY
 70
0
  9
$ANGBASE
 50
0
  9
$ANGDIR
 70
0
  9
$PDMODE
 70
0
  9
$PDSIZE
 40
0
  9
$PLINEWID
 40
0
  9
$COORDS
 70
2
  0
ENDSEC
  0
SECTION
  2
TABLES
  0
TABLE
  2
DIMSTYLE
 70
0
  0
ENDTAB
  0
TABLE
  2
LTYPE
 70
9
  0
LTYPE
  2
CONTINUOUS
 70
64
  3
Solid line
 72
65
 73
0
 40
0
  0
LTYPE
  2
BORDER
 70
64
  3
__ __ . __ __ .
 72
65
 73
6
 40
16.36507645326082
 49
4.675736129503091
 49
-2.337868064751545
 49
4.675736129503091
 49
-2.337868064751545
 49
0
 49
-2.337868064751545
  0
LTYPE
  2
CENTER
 70
64
  3
____ _ ____ _
 72
65
 73
4
 40
18.70294451801236
 49
11.68934032375773
 49
-2.337868064751545
 49
2.337868064751545
 49
-2.337868064751545
  0
LTYPE
  2
DASHDOT
 70
64
  3
__ . __ . __ .
 72
65
 73
4
 40
9.351472259006181
 49
4.675736129503091
 49
-2.337868064751545
 49
0
 49
-2.337868064751545
  0
LTYPE
  2
DASHED
 70
64
  3
__ __ __ __ __
 72
65
 73
2
 40
7.013604194254636
 49
4.675736129503091
 49
-2.337868064751545
  0
LTYPE
  2
DIVIDE
 70
64
  3
__ . . __ . . 
 72
65
 73
6
 40
11.68934032375773
 49
4.675736129503091
 49
-2.337868064751545
 49
0
 49
-2.337868064751545
 49
0
 49
-2.337868064751545
  0
LTYPE
  2
DOT
 70
64
  3
..............
 72
65
 73
4
 40
4.675736129503091
 49
0
 49
-2.337868064751545
 49
0
 49
-2.337868064751545
  0
LTYPE
  2
HIDDEN
 70
64
  3
_ _ _ _ _ _ _
 72
65
 73
2
 40
3.506802097127318
 49
2.337868064751545
 49
-1.168934032375773
  0
LTYPE
  2
PHANTOM
 70
64
  3
_____ _ _ _____ _ _ 
 72
65
 73
6
 40
23.37868064751545
 49
11.68934032375773
 49
-2.337868064751545
 49
2.337868064751545
 49
-2.337868064751545
 49
2.337868064751545
 49
-2.337868064751545
  0
ENDTAB
  0
TABLE
  2
LAYER
 70
3
  0
LAYER
  2
1
 70
0
 62
7
  6
CONTINUOUS
  0
LAYER
  2
0
 70
0
 62
7
  6
CONTINUOUS
  0
ENDTAB
  0
TABLE
  2
STYLE
 70
4
  0
STYLE
  2
STANDARD
 70
0
 40
0
 41
1
 50
0
 71
0
 42
3.5
  3
txt
  4

  0
STYLE
  2
SIMPLEX
 70
0
 40
0
 41
1
 50
0
 71
0
 42
3.5
  3
simplex
  4

  0
STYLE
  2
COMPLEX
 70
0
 40
0
 41
1
 50
0
 71
0
 42
3.5
  3
complex
  4

  0
STYLE
  2
ITALIC
 70
0
 40
0
 41
1
 50
0
 71
0
 42
3.5
  3
italic
  4

  0
ENDTAB
  0
TABLE
  2
VIEW
 70
0
  0
ENDTAB
  0
ENDSEC
  0
SECTION
  2
BLOCKS
  0
ENDSEC
  0
SECTION
  2
ENTITIES
  0
LINE
  8
1
 62
3
 10
415.9127971855933
 20
441.9352707466986
 30
0
 11
396.513410958327
 21
441.9352707466994
 31
0
  0
LINE
  8
1
 62
3
 10
389.513410958327
 20
481.9352707466994
 30
0
 11
389.513410958327
 21
514.9352707466994
 31
0
  0
LINE
  8
1
 62
3
 10
389.513410958327
 20
448.9352707466994
 30
0
 11
389.513410958327
 21
481.9352707466994
 31
0
  0
LINE
  8
1
 62
3
 10
462.513410958327
 20
441.9352707466994
 30
0
 11
443.9127971855933
 21
441.9352707466985
 31
0
  0
LINE
  8
1
 62
3
 10
469.513410958327
 20
448.9352707466994
 30
0
 11
469.513410958327
 21
481.9352707466994
 31
0
  0
LINE
  8
1
 62
3
 10
469.513410958327
 20
481.9352707466994
 30
0
 11
469.513410958327
 21
514.9352707466994
 31
0
  0
LINE
  8
1
 62
3
 10
396.513410958327
 20
521.9352707466994
 30
0
 11
462.513410958327
 21
521.9352707466994
 31
0
  0
LINE
  8
1
 62
3
 10
300.5430336913498
 20
348.303368730868
 30
0
 11
304.5430336913506
 21
348.303368730868
 31
0
  0
LINE
  8
1
 62
3
 10
300.5430336913498
 20
388.903368730868
 30
0
 11
304.5430336913506
 21
388.903368730868
 31
0
  0
LINE
  8
1
 62
3
 10
300.5430336913498
 20
330.603368730868
 30
0
 11
299.0430336913498
 21
330.603368730868
 31
0
  0
LINE
  8
1
 62
3
 10
300.5430336913498
 20
330.603368730868
 30
0
 11
300.5430336913498
 21
399.8807337337939
 31
0
  0
LINE
  8
1
 62
3
 10
302.1430336913498
 20
388.103368730868
 30
0
 11
302.1430336913498
 21
382.603368730868
 31
0
  0
LINE
  8
1
 62
3
 10
300.5430336913498
 20
388.103368730868
 30
0
 11
302.1430336913498
 21
388.103368730868
 31
0
  0
LINE
  8
1
 62
3
 10
302.1430336913498
 20
388.3033687308681
 30
0
 11
302.1430336913498
 21
388.103368730868
 31
0
  0
LINE
  8
1
 62
3
 10
303.8430413262412
 20
386.5658687308681
 30
0
 11
303.6680413262412
 21
386.5658687308681
 31
0
  0
LINE
  8
1
 62
3
 10
303.6680413262412
 20
386.5658687308681
 30
0
 11
303.6680413262412
 21
385.8408687308682
 31
0
  0
LINE
  8
1
 62
3
 10
303.6680413262412
 20
385.8408687308682
 30
0
 11
303.8430413262412
 21
385.8408687308682
 31
0
  0
LINE
  8
1
 62
3
 10
302.9554667883002
 20
388.303368730868
 30
0
 11
302.1430336913498
 21
388.3033687308681
 31
0
  0
LINE
  8
1
 62
3
 10
302.1430336913498
 20
384.1033687308679
 30
0
 11
302.9554667883003
 21
384.103368730868
 31
0
  0
LINE
  8
1
 62
3
 10
302.1430336913498
 20
349.103368730868
 30
0
 11
302.1430336913498
 21
348.9033687308679
 31
0
  0
LINE
  8
1
 62
3
 10
304.5430336913506
 20
347.2902440939448
 30
0
 11
304.5430336913506
 21
336.103368730868
 31
0
  0
LINE
  8
1
 62
3
 10
300.5430336913498
 20
336.1033687308681
 30
0
 11
304.5430336913506
 21
336.103368730868
 31
0
  0
LINE
  8
1
 62
3
 10
302.1430336913498
 20
349.103368730868
 30
0
 11
300.5430336913498
 21
349.103368730868
 31
0
  0
LINE
  8
1
 62
3
 10
302.1430336913498
 20
354.603368730868
 30
0
 11
302.1430336913498
 21
349.103368730868
 31
0
  0
LINE
  8
1
 62
3
 10
306.6436082477163
 20
337.1033687308677
 30
0
 11
305.4433336913502
 21
337.1033687308677
 31
0
  0
LINE
  8
1
 62
3
 10
307.4430336913498
 20
360.9119981338562
 30
0
 11
307.6430336913498
 21
361.103368730868
 31
0
  0
LINE
  8
1
 62
3
 10
307.6430336913498
 20
358.103368730868
 30
0
 11
307.4430336913498
 21
358.29473932788
 31
0
  0
LINE
  8
1
 62
3
 10
307.6430336913498
 20
361.103368730868
 30
0
 11
307.6430336913498
 21
358.103368730868
 31
0
  0
LINE
  8
1
 62
3
 10
307.4430336913498
 20
382.603368730868
 30
0
 11
306.8276085809763
 21
382.603368730868
 31
0
  0
LINE
  8
1
 62
3
 10
307.4430336913498
 20
354.603368730868
 30
0
 11
308.1430336913498
 21
354.603368730868
 31
0
  0
LINE
  8
1
 62
3
 10
302.1430336913498
 20
382.603368730868
 30
0
 11
302.1430336913498
 21
354.603368730868
 31
0
  0
LINE
  8
1
 62
3
 10
308.1430336913498
 20
382.603368730868
 30
0
 11
307.4430336913498
 21
382.603368730868
 31
0
  0
LINE
  8
1
 62
3
 10
308.1430336913498
 20
354.603368730868
 30
0
 11
308.1430336913498
 21
382.603368730868
 31
0
  0
LINE
  8
1
 62
3
 10
302.1430336913498
 20
354.603368730868
 30
0
 11
306.8276085809763
 21
354.603368730868
 31
0
  0
LINE
  8
1
 62
3
 10
307.4430336913498
 20
358.29473932788
 30
0
 11
306.8276085809763
 21
358.29473932788
 31
0
  0
LINE
  8
1
 62
3
 10
307.4430336913498
 20
360.9119981338562
 30
0
 11
306.8276085809763
 21
360.9119981338562
 31
0
  0
LINE
  8
1
 62
3
 10
306.8276085809763
 20
358.29473932788
 30
0
 11
306.8276085809763
 21
354.603368730868
 31
0
  0
LINE
  8
1
 62
3
 10
306.8276085809763
 20
354.603368730868
 30
0
 11
307.4430336913498
 21
354.603368730868
 31
0
  0
LINE
  8
1
 62
3
 10
306.8276085809763
 20
360.9119981338562
 30
0
 11
306.8276085809763
 21
376.2947393278798
 31
0
  0
LINE
  8
1
 62
3
 10
306.8276085809763
 20
382.603368730868
 30
0
 11
302.1430336913498
 21
382.603368730868
 31
0
  0
LINE
  8
1
 62
3
 10
307.4430336913498
 20
378.911998133856
 30
0
 11
307.6430336913498
 21
379.103368730868
 31
0
  0
LINE
  8
1
 62
3
 10
307.6430336913498
 20
376.103368730868
 30
0
 11
307.4430336913498
 21
376.2947393278798
 31
0
  0
LINE
  8
1
 62
3
 10
307.6430336913498
 20
379.103368730868
 30
0
 11
307.6430336913498
 21
376.103368730868
 31
0
  0
LINE
  8
1
 62
3
 10
307.4430336913498
 20
376.2947393278798
 30
0
 11
306.8276085809763
 21
376.2947393278798
 31
0
  0
LINE
  8
1
 62
3
 10
307.4430336913498
 20
378.911998133856
 30
0
 11
306.8276085809763
 21
378.911998133856
 31
0
  0
LINE
  8
1
 62
3
 10
306.8276085809763
 20
378.911998133856
 30
0
 11
306.8276085809763
 21
382.603368730868
 31
0
  0
LINE
  8
1
 62
3
 10
305.4433336913502
 20
382.603368730868
 30
0
 11
305.4433336913502
 21
398.003368730868
 31
0
  0
LINE
  8
1
 62
3
 10
304.943059134984
 20
354.603368730868
 30
0
 11
304.943059134984
 21
342.5533687308683
 31
0
  0
LINE
  8
1
 62
3
 10
304.5430336913506
 20
354.603368730868
 30
0
 11
304.5430336913506
 21
343.8034119211282
 31
0
  0
LINE
  8
1
 62
3
 10
289.5430336913498
 20
372.603368730868
 30
0
 11
261.0430591349834
 21
372.6033687308678
 31
0
  0
LINE
  8
1
 62
3
 10
260.5430591349835
 20
372.1033687308678
 30
0
 11
261.0430591349834
 21
372.6033687308678
 31
0
  0
LINE
  8
1
 62
3
 10
305.4433336913502
 20
400.1033687308682
 30
0
 11
306.6436082477163
 21
400.1033687308682
 31
0
  0
LINE
  8
1
 62
3
 10
305.4433336913502
 20
398.003368730868
 30
0
 11
305.4433336913502
 21
400.1033687308682
 31
0
  0
LINE
  8
1
 62
3
 10
304.943059134984
 20
398.003368730868
 30
0
 11
305.4433336913502
 21
398.003368730868
 31
0
  0
LINE
  8
1
 62
3
 10
307.1433336913502
 20
399.6033687308683
 30
0
 11
335.34303369135
 21
399.603368730868
 31
0
  0
LINE
  8
1
 62
3
 10
304.943059134984
 20
339.2004522416534
 30
0
 11
304.943059134984
 21
342.5533687308683
 31
0
  0
LINE
  8
1
 62
3
 10
304.943059134984
 20
398.003368730868
 30
0
 11
304.943059134984
 21
382.603368730868
 31
0
  0
LINE
  8
1
 62
3
 10
304.943059134984
 20
339.2033687308682
 30
0
 11
305.443059134984
 21
339.2033687308682
 31
0
  0
LINE
  8
1
 62
3
 10
337.5430336913502
 20
362.603368730868
 30
0
 11
337.64303369135
 21
362.603368730868
 31
0
  0
LINE
  8
1
 62
3
 10
337.94303369135
 20
372.4033687308681
 30
0
 11
337.9430336913499
 21
364.8033687308681
 31
0
  0
LINE
  8
1
 62
3
 10
337.9430336913499
 20
362.903368730868
 30
0
 11
337.64303369135
 21
362.603368730868
 31
0
  0
LINE
  8
1
 62
3
 10
337.64303369135
 20
374.6033687308684
 30
0
 11
337.9430336913499
 21
374.3033687308682
 31
0
  0
LINE
  8
1
 62
3
 10
337.9430336913499
 20
364.3033687308682
 30
0
 11
337.9430336913499
 21
372.903368730868
 31
0
  0
LINE
  8
1
 62
3
 10
337.9430336913499
 20
374.3033687308682
 30
0
 11
337.9430336913499
 21
372.903368730868
 31
0
  0
LINE
  8
1
 62
3
 10
337.64303369135
 20
374.6033687308684
 30
0
 11
337.5430336913502
 21
374.603368730868
 31
0
  0
LINE
  8
1
 62
3
 10
337.9430336913499
 20
364.3033687308682
 30
0
 11
337.9430336913499
 21
362.903368730868
 31
0
  0
LINE
  8
1
 62
3
 10
337.5430336913502
 20
362.603368730868
 30
0
 11
337.5430336913502
 21
368.603368730868
 31
0
  0
LINE
  8
1
 62
3
 10
335.34303369135
 20
337.603368730868
 30
0
 11
307.1433336913502
 21
337.6033687308682
 31
0
  0
LINE
  8
1
 62
3
 10
337.5430336913502
 20
362.603368730868
 30
0
 11
337.5430336913502
 21
339.8033687308681
 31
0
  0
LINE
  8
1
 62
3
 10
337.5430336913502
 20
368.603368730868
 30
0
 11
337.5430336913502
 21
374.603368730868
 31
0
  0
LINE
  8
1
 62
3
 10
337.5430336913502
 20
397.403368730868
 30
0
 11
337.5430336913502
 21
374.603368730868
 31
0
  0
LINE
  8
1
 62
3
 10
303.6680413262412
 20
350.6408687308679
 30
0
 11
303.8430413262412
 21
350.6408687308679
 31
0
  0
LINE
  8
1
 62
3
 10
303.6680413262412
 20
351.3658687308678
 30
0
 11
303.6680413262412
 21
350.6408687308679
 31
0
  0
LINE
  8
1
 62
3
 10
303.8430413262412
 20
351.3658687308678
 30
0
 11
303.6680413262412
 21
351.3658687308678
 31
0
  0
LINE
  8
1
 62
3
 10
302.1430336913498
 20
348.9033687308679
 30
0
 11
302.9554667883002
 21
348.903368730868
 31
0
  0
LINE
  8
1
 62
3
 10
302.9554667883003
 20
353.103368730868
 30
0
 11
302.1430336913498
 21
353.1033687308681
 31
0
  0
LINE
  8
1
 62
3
 10
304.5430336913506
 20
401.103368730868
 30
0
 11
300.5430336913498
 21
401.1033687308679
 31
0
  0
LINE
  8
1
 62
3
 10
304.5430336913506
 20
401.103368730868
 30
0
 11
304.5430336913506
 21
382.603368730868
 31
0
  0
LINE
  8
1
 62
3
 10
292.5430336913498
 20
405.1033687308679
 30
0
 11
292.5430336913498
 21
332.1033687308679
 31
0
  0
LINE
  8
1
 62
3
 10
292.5430336913501
 20
408.6033687308685
 30
0
 11
299.0430336913498
 21
408.6033687308683
 31
0
  0
LINE
  8
1
 62
3
 10
300.5430336913498
 20
399.8807337337939
 30
0
 11
300.5430336913498
 21
406.6033687308681
 31
0
  0
LINE
  8
1
 62
3
 10
289.5430336913498
 20
372.1033687308678
 30
0
 11
289.5430336913498
 21
335.1033687308677
 31
0
  0
LINE
  8
1
 62
3
 10
292.5430336913498
 20
328.603368730868
 30
0
 11
299.0430336913498
 21
328.6033687308679
 31
0
  0
LINE
  8
1
 62
3
 10
292.5430336913498
 20
332.1033687308679
 30
0
 11
292.5430336913498
 21
328.603368730868
 31
0
  0
LINE
  8
1
 62
3
 10
289.5430336913498
 20
332.4533687308678
 30
0
 11
289.8930336913497
 21
332.1033687308679
 31
0
  0
LINE
  8
1
 62
3
 10
292.5430336913498
 20
332.1033687308679
 30
0
 11
289.8930336913497
 21
332.1033687308679
 31
0
  0
LINE
  8
1
 62
3
 10
289.5430336913498
 20
335.1033687308677
 30
0
 11
289.5430336913498
 21
332.4533687308678
 31
0
  0
LINE
  8
1
 62
3
 10
292.5430336913501
 20
408.6033687308685
 30
0
 11
292.5430336913498
 21
405.1033687308679
 31
0
  0
LINE
  8
1
 62
3
 10
289.5430336913498
 20
404.753368730868
 30
0
 11
289.8930336913497
 21
405.1033687308679
 31
0
  0
LINE
  8
1
 62
3
 10
289.8930336913497
 20
405.1033687308679
 30
0
 11
292.5430336913498
 21
405.1033687308679
 31
0
  0
LINE
  8
1
 62
3
 10
289.5430336913498
 20
404.753368730868
 30
0
 11
289.5430336913498
 21
402.1033687308679
 31
0
  0
LINE
  8
1
 62
3
 10
289.5430336913498
 20
402.1033687308679
 30
0
 11
289.5430336913498
 21
372.1033687308678
 31
0
  0
LINE
  8
1
 62
1
 10
342.9430336913499
 20
368.603368730868
 30
0
 11
255.5430591349834
 21
368.603368730868
 31
0
  0
LINE
  8
1
 62
3
 10
289.5430336913498
 20
372.603368730868
 30
0
 11
284.5430591349834
 21
372.603368730868
 31
0
  0
LINE
  8
1
 62
3
 10
260.5430591349834
 20
368.603368730868
 30
0
 11
260.5430591349835
 21
372.1033687308678
 31
0
  0
LINE
  8
1
 62
3
 10
261.0430591349834
 20
364.6033687308681
 30
0
 11
289.5430336913498
 21
364.603368730868
 31
0
  0
LINE
  8
1
 62
3
 10
260.5430591349835
 20
372.1033687308678
 30
0
 11
260.5430591349835
 21
365.1033687308681
 31
0
  0
LINE
  8
1
 62
3
 10
261.0430591349834
 20
364.6033687308681
 30
0
 11
260.5430591349835
 21
365.1033687308681
 31
0
  0
LINE
  8
1
 62
2
 10
261.0430591349834
 20
372.6033687308678
 30
0
 11
261.0430591349834
 21
364.6033687308681
 31
0
  0
LINE
  8
1
 62
3
 10
299.0430336913498
 20
408.6033687308683
 30
0
 11
299.0430336913498
 21
406.6033687308681
 31
0
  0
LINE
  8
1
 62
3
 10
300.5430336913498
 20
406.6033687308681
 30
0
 11
299.0430336913498
 21
406.6033687308681
 31
0
  0
LINE
  8
1
 62
3
 10
299.0430336913498
 20
406.6033687308681
 30
0
 11
299.0430336913498
 21
328.6033687308679
 31
0
  0
LINE
  8
1
 62
3
 10
299.0430336913498
 20
405.8533687308681
 30
0
 11
300.5430336913498
 21
405.8533687308681
 31
0
  0
LINE
  8
1
 62
3
 10
299.0430336913498
 20
397.8533687308681
 30
0
 11
300.5430336913498
 21
397.8533687308681
 31
0
  0
LINE
  8
1
 62
3
 10
299.0430336913498
 20
394.6033687308681
 30
0
 11
300.5430336913498
 21
394.6033687308681
 31
0
  0
LINE
  8
1
 62
3
 10
299.0430336913498
 20
342.6033687308676
 30
0
 11
300.5430336913498
 21
342.6033687308676
 31
0
  0
LINE
  8
1
 62
3
 10
299.0430336913498
 20
339.3533687308681
 30
0
 11
300.5430336913498
 21
339.3533687308681
 31
0
  0
LINE
  8
1
 62
3
 10
299.0430336913498
 20
331.3533687308681
 30
0
 11
300.5430336913498
 21
331.3533687308681
 31
0
  0
LINE
  8
1
 62
3
 10
305.4433336913502
 20
337.1033687308677
 30
0
 11
305.4433336913502
 21
354.603368730868
 31
0
  0
LINE
  8
1
 62
1
 10
429.5134109583269
 20
437.9352707466996
 30
0
 11
429.5134109583269
 21
524.6852707466996
 31
0
  0
LINE
  8
1
 62
3
 10
443.201079968602
 20
494.7079967463724
 30
0
 11
443.201079968602
 21
504.7079967463724
 31
0
  0
LINE
  8
1
 62
3
 10
442.201079968602
 20
505.7079967463724
 30
0
 11
416.2010799686021
 21
505.7079967463724
 31
0
  0
LINE
  8
1
 62
3
 10
415.2010799686021
 20
504.7079967463724
 30
0
 11
415.2010799686021
 21
494.7079967463724
 31
0
  0
LINE
  8
1
 62
3
 10
416.2010799686021
 20
493.7079967463724
 30
0
 11
442.201079968602
 21
493.7079967463724
 31
0
  0
LINE
  8
1
 62
1
 10
472.2627971855937
 20
481.9352707466994
 30
0
 11
386.762797185593
 21
481.9352707466994
 31
0
  0
LINE
  8
1
 62
3
 10
410.3513593578262
 20
442.185270746699
 30
0
 11
408.5127971855932
 21
442.185270746699
 31
0
  0
LINE
  8
1
 62
3
 10
411.0106443438259
 20
446.4614009322743
 30
0
 11
411.4505926910557
 21
446.0214525850445
 31
0
  0
LINE
  8
1
 62
3
 10
411.0106443438259
 20
445.4105851394339
 30
0
 11
411.4505926910557
 21
445.8505334866637
 31
0
  0
LINE
  8
1
 62
3
 10
412.4382066296824
 20
446.8381474252906
 30
0
 11
411.9982582824525
 21
446.3981990780606
 31
0
  0
LINE
  8
1
 62
3
 10
411.8229220202017
 20
446.402616241931
 30
0
 11
411.387390836842
 21
446.8381474252906
 31
0
  0
LINE
  8
1
 62
3
 10
411.827339184072
 20
446.3981990780606
 30
0
 11
411.8229220202017
 21
446.402616241931
 31
0
  0
LINE
  8
1
 62
3
 10
412.8149531226987
 20
445.4105851394339
 30
0
 11
412.3750047754687
 21
445.8505334866637
 31
0
  0
LINE
  8
1
 62
3
 10
412.8149531226987
 20
446.4614009322743
 30
0
 11
412.3750047754687
 21
446.0214525850445
 31
0
  0
LINE
  8
1
 62
3
 10
411.387390836842
 20
445.0338386464176
 30
0
 11
411.827339184072
 21
445.4737869936476
 31
0
  0
LINE
  8
1
 62
3
 10
412.4382066296824
 20
445.0338386464176
 30
0
 11
411.9982582824526
 21
445.4737869936476
 31
0
  0
LINE
  8
1
 62
3
 10
446.2106412484883
 20
446.4614009322742
 30
0
 11
446.6505895957182
 21
446.0214525850444
 31
0
  0
LINE
  8
1
 62
3
 10
446.2106412484883
 20
445.4105851394338
 30
0
 11
446.6505895957182
 21
445.8505334866636
 31
0
  0
LINE
  8
1
 62
3
 10
447.638203534345
 20
446.8381474252905
 30
0
 11
447.1982551871149
 21
446.3981990780605
 31
0
  0
LINE
  8
1
 62
3
 10
447.0229189248642
 20
446.4026162419308
 30
0
 11
446.5873877415044
 21
446.8381474252905
 31
0
  0
LINE
  8
1
 62
3
 10
447.0273360887344
 20
446.3981990780605
 30
0
 11
447.0229189248642
 21
446.4026162419308
 31
0
  0
LINE
  8
1
 62
3
 10
448.0149500273611
 20
445.4105851394338
 30
0
 11
447.5750016801312
 21
445.8505334866636
 31
0
  0
LINE
  8
1
 62
3
 10
448.0149500273611
 20
446.4614009322742
 30
0
 11
447.5750016801312
 21
446.0214525850444
 31
0
  0
LINE
  8
1
 62
3
 10
446.5873877415044
 20
445.0338386464175
 30
0
 11
447.0273360887344
 21
445.4737869936475
 31
0
  0
LINE
  8
1
 62
3
 10
447.638203534345
 20
445.0338386464175
 30
0
 11
447.198255187115
 21
445.4737869936475
 31
0
  0
LINE
  8
1
 62
3
 10
443.9127971855933
 20
441.9352707466985
 30
0
 11
448.0127971855933
 21
441.9352707466985
 31
0
  0
LINE
  8
1
 62
3
 10
415.9127971855933
 20
441.9352707466986
 30
0
 11
411.0127971855944
 21
441.9352707466986
 31
0
  0
LINE
  8
1
 62
3
 10
415.9127971855933
 20
440.9352707466996
 30
0
 11
415.9127971855933
 21
450.6352707466993
 31
0
  0
LINE
  8
1
 62
3
 10
415.9127971855933
 20
450.6352707466993
 30
0
 11
418.9127971855933
 21
450.6352707466993
 31
0
  0
LINE
  8
1
 62
3
 10
443.9127971855933
 20
450.6352707466992
 30
0
 11
443.9127971855933
 21
440.9352707466995
 31
0
  0
LINE
  8
1
 62
3
 10
443.9127971855933
 20
440.9352707466995
 30
0
 11
415.9127971855933
 21
440.9352707466996
 31
0
  0
LINE
  8
1
 62
3
 10
418.9127971855933
 20
450.6352707466993
 30
0
 11
418.9127971855933
 21
448.6352707466993
 31
0
  0
LINE
  8
1
 62
3
 10
418.9127971855933
 20
448.6352707466993
 30
0
 11
440.9127971855933
 21
448.6352707466992
 31
0
  0
LINE
  8
1
 62
3
 10
440.9127971855933
 20
448.6352707466992
 30
0
 11
440.9127971855933
 21
450.6352707466992
 31
0
  0
LINE
  8
1
 62
3
 10
440.9127971855933
 20
450.6352707466992
 30
0
 11
443.9127971855933
 21
450.6352707466992
 31
0
  0
LINE
  8
1
 62
3
 10
424.6227971855936
 20
513.9352707466994
 30
0
 11
434.4027971855934
 21
513.9352707466994
 31
0
  0
LINE
  8
1
 62
3
 10
424.6127971855936
 20
513.9252707466994
 30
0
 11
424.6127971855936
 21
512.5454648762782
 31
0
  0
LINE
  8
1
 62
3
 10
434.4127971855934
 20
513.9252707466994
 30
0
 11
434.4127971855934
 21
512.5454648762782
 31
0
  0
LINE
  8
1
 62
3
 10
410.0127971855933
 20
442.9352707466996
 30
0
 11
410.0127971855933
 21
445.3352707466987
 31
0
  0
LINE
  8
1
 62
3
 10
449.0127971855933
 20
442.9352707466995
 30
0
 11
449.0127971855933
 21
445.3352707466985
 31
0
  0
LINE
  8
1
 62
3
 10
410.0127971855933
 20
446.5352707466986
 30
0
 11
410.0127971855933
 21
457.8370122518065
 31
0
  0
LINE
  8
1
 62
3
 10
449.0127971855933
 20
446.5352707466985
 30
0
 11
449.0127971855933
 21
457.8360189583161
 31
0
  0
LINE
  8
1
 62
3
 10
466.0127971855933
 20
507.9352707466995
 30
0
 11
458.5127971855933
 21
507.9352707466995
 31
0
  0
LINE
  8
1
 62
3
 10
467.5127971855933
 20
457.4352707466989
 30
0
 11
467.5127971855933
 21
506.4352707466995
 31
0
  0
LINE
  8
1
 62
3
 10
393.0127971855932
 20
455.935270746699
 30
0
 11
400.5127971855932
 21
455.935270746699
 31
0
  0
LINE
  8
1
 62
3
 10
391.5127971855932
 20
457.435270746699
 30
0
 11
391.5127971855932
 21
506.4352707466995
 31
0
  0
LINE
  8
1
 62
3
 10
455.5127971855933
 20
518.4352707466994
 30
0
 11
455.5127971855933
 21
510.9352707466995
 31
0
  0
LINE
  8
1
 62
3
 10
454.0127971855933
 20
519.9352707466994
 30
0
 11
405.0127971855932
 21
519.9352707466994
 31
0
  0
LINE
  8
1
 62
3
 10
458.5127971855933
 20
455.9352707466989
 30
0
 11
466.0127971855933
 21
455.9352707466989
 31
0
  0
LINE
  8
1
 62
3
 10
455.5127971855933
 20
452.9352707466989
 30
0
 11
455.5127971855933
 21
443.6852707466989
 31
0
  0
LINE
  8
1
 62
3
 10
403.5127971855932
 20
510.9352707466995
 30
0
 11
403.5127971855932
 21
518.4352707466994
 31
0
  0
LINE
  8
1
 62
3
 10
400.5127971855932
 20
507.9352707466995
 30
0
 11
393.0127971855932
 21
507.9352707466995
 31
0
  0
LINE
  8
1
 62
3
 10
403.5127971855932
 20
443.685270746699
 30
0
 11
403.5127971855932
 21
452.935270746699
 31
0
  0
LINE
  8
1
 62
3
 10
450.5127971855933
 20
442.1852707466989
 30
0
 11
452.5127971855933
 21
442.1852707466989
 31
0
  0
LINE
  8
1
 62
3
 10
408.5127971855932
 20
442.185270746699
 30
0
 11
406.5127971855932
 21
442.185270746699
 31
0
  0
LINE
  8
1
 62
3
 10
452.8412243103397
 20
442.1852707466989
 30
0
 11
454.0127971855933
 21
442.1852707466989
 31
0
  0
LINE
  8
1
 62
1
 10
400.7029732723545
 20
515.1852707466994
 30
0
 11
391.8226210988317
 21
515.1852707466994
 31
0
  0
LINE
  8
1
 62
1
 10
396.2627971855932
 20
510.7450946599379
 30
0
 11
396.2627971855932
 21
519.6254468334607
 31
0
  0
LINE
  8
1
 62
1
 10
396.2627971855932
 20
453.1254468334608
 30
0
 11
396.2627971855932
 21
444.2450946599382
 31
0
  0
LINE
  8
1
 62
1
 10
400.7029732723545
 20
448.6852707466996
 30
0
 11
391.8226210988318
 21
448.6852707466996
 31
0
  0
LINE
  8
1
 62
3
 10
405.0127971855932
 20
442.185270746699
 30
0
 11
406.184370060847
 21
442.185270746699
 31
0
  0
LINE
  8
1
 62
1
 10
462.7627971855933
 20
444.2450946599381
 30
0
 11
462.7627971855933
 21
453.1254468334607
 31
0
  0
LINE
  8
1
 62
1
 10
467.2029732723548
 20
448.6852707466995
 30
0
 11
458.3226210988317
 21
448.6852707466995
 31
0
  0
LINE
  8
1
 62
1
 10
467.2029732723548
 20
515.1852707466994
 30
0
 11
458.3226210988317
 21
515.1852707466994
 31
0
  0
LINE
  8
1
 62
1
 10
462.7627971855933
 20
519.6254468334607
 30
0
 11
462.7627971855933
 21
510.7450946599379
 31
0
  0
LINE
  8
1
 62
3
 10
406.5127971855932
 20
442.185270746699
 30
0
 11
406.184370060847
 21
442.185270746699
 31
0
  0
LINE
  8
1
 62
3
 10
452.5127971855933
 20
442.1852707466989
 30
0
 11
452.8412243103397
 21
442.1852707466989
 31
0
  0
LINE
  8
1
 62
3
 10
450.5127971855933
 20
442.1852707466989
 30
0
 11
448.6742350133592
 21
442.1852707466989
 31
0
  0
LINE
  8
1
 62
3
 10
409.2127971855933
 20
458.2777138145054
 30
0
 11
409.2127971855933
 21
458.5069741707574
 31
0
  0
LINE
  8
1
 62
3
 10
449.8127971855933
 20
450.4352843121475
 30
0
 11
449.8127971855933
 21
458.2982224882657
 31
0
  0
LINE
  8
1
 62
3
 10
423.8127971855933
 20
512.5529127199147
 30
0
 11
423.8127971855933
 21
512.9617110839342
 31
0
  0
LINE
  8
1
 62
3
 10
435.2127971855933
 20
512.5529127199147
 30
0
 11
435.2127971855933
 21
512.9617110839342
 31
0
  0
LINE
  8
1
 62
3
 10
451.8205378670935
 20
458.3002394226893
 30
0
 11
451.1437116633612
 21
457.6997830031912
 31
0
  0
LINE
  8
1
 62
3
 10
449.8127971855933
 20
458.2982224882657
 30
0
 11
449.8127971855933
 21
458.5059105591853
 31
0
  0
LINE
  8
1
 62
3
 10
409.2127971855933
 20
450.4352843121481
 30
0
 11
409.2127971855933
 21
458.2403441424123
 31
0
  0
LINE
  8
1
 62
3
 10
347.1838852998704
 20
581.2920186109332
 30
0
 11
347.1838852998704
 21
589.7043625076688
 31
0
  0
LINE
  8
1
 62
3
 10
347.1838852998704
 20
578.7920186109332
 30
0
 11
347.1838852998704
 21
589.7043625076688
 31
0
  0
LINE
  8
1
 62
3
 10
347.1838852998704
 20
589.7043625076688
 30
0
 11
347.1838852998704
 21
590.8194920852504
 31
0
  0
LINE
  8
1
 62
3
 10
347.1838852998704
 20
589.7043625076688
 30
0
 11
347.1838852998704
 21
590.8194920852504
 31
0
  0
LINE
  8
1
 62
3
 10
347.1838852998704
 20
590.8194920852504
 30
0
 11
347.1838852998704
 21
604.2920186109333
 31
0
  0
LINE
  8
1
 62
3
 10
347.1838852998704
 20
590.8194920852504
 30
0
 11
347.1838852998704
 21
601.7920186109332
 31
0
  0
LINE
  8
1
 62
3
 10
347.1838852998704
 20
600.7920186109332
 30
0
 11
347.1838852998704
 21
599.7920186109332
 31
0
  0
LINE
  8
1
 62
3
 10
347.1838852998704
 20
605.7920186109333
 30
0
 11
347.1838852998704
 21
604.7920186109333
 31
0
  0
LINE
  8
1
 62
3
 10
347.1838852998704
 20
606.7920186109333
 30
0
 11
347.1838852998704
 21
598.7420186109333
 31
0
  0
LINE
  8
1
 62
3
 10
269.7696061631805
 20
592.1768890333517
 30
0
 11
269.7696061631805
 21
581.2920186109332
 31
0
  0
LINE
  8
1
 62
3
 10
269.7696061631805
 20
592.1768890333517
 30
0
 11
269.7696061631805
 21
581.2920186109332
 31
0
  0
LINE
  8
1
 62
3
 10
269.7696061631805
 20
593.2920186109332
 30
0
 11
269.7696061631805
 21
592.1768890333517
 31
0
  0
LINE
  8
1
 62
3
 10
269.7696061631805
 20
593.2920186109332
 30
0
 11
269.7696061631805
 21
592.1768890333517
 31
0
  0
LINE
  8
1
 62
3
 10
347.1838852998704
 20
581.2920186109332
 30
0
 11
347.1838852998704
 21
604.2920186109333
 31
0
  0
LINE
  8
1
 62
3
 10
347.1838852998704
 20
578.7920186109332
 30
0
 11
347.1838852998704
 21
601.7920186109332
 31
0
  0
LINE
  8
1
 62
3
 10
347.1838852998704
 20
605.7920186109333
 30
0
 11
347.1838852998704
 21
604.7920186109333
 31
0
  0
LINE
  8
1
 62
3
 10
347.1838852998704
 20
606.7920186109333
 30
0
 11
347.1838852998704
 21
598.7420186109333
 31
0
  0
LINE
  8
1
 62
3
 10
327.1838852998703
 20
592.2920186109332
 30
0
 11
307.8692730131929
 21
592.2457763099153
 31
0
  0
LINE
  8
1
 62
3
 10
269.7696061631805
 20
604.2920186109333
 30
0
 11
269.7696061631805
 21
593.2920186109332
 31
0
  0
LINE
  8
1
 62
3
 10
327.1838852998703
 20
593.2920186109332
 30
0
 11
307.1662678801308
 21
593.2920186109332
 31
0
  0
LINE
  8
1
 62
3
 10
269.7696061631805
 20
601.7920186109332
 30
0
 11
269.7696061631805
 21
593.2920186109332
 31
0
  0
LINE
  8
1
 62
3
 10
269.7696061631805
 20
599.7920186109332
 30
0
 11
269.7696061631805
 21
600.7920186109332
 31
0
  0
LINE
  8
1
 62
3
 10
269.7696061631805
 20
602.2920186109332
 30
0
 11
269.7696061631805
 21
603.2920186109332
 31
0
  0
LINE
  8
1
 62
3
 10
269.7696061631805
 20
598.7420186109333
 30
0
 11
269.7696061631805
 21
604.2920186109333
 31
0
  0
LINE
  8
1
 62
3
 10
266.0224358459615
 20
602.2920186109332
 30
0
 11
261.8696061631804
 21
602.2920186109332
 31
0
  0
LINE
  8
1
 62
3
 10
266.0224358459615
 20
603.2920186109332
 30
0
 11
266.0224358459615
 21
602.2920186109332
 31
0
  0
LINE
  8
1
 62
3
 10
261.8696061631804
 20
603.2920186109332
 30
0
 11
261.8696061631804
 21
602.2920186109332
 31
0
  0
LINE
  8
1
 62
3
 10
261.8696061631804
 20
603.2920186109332
 30
0
 11
266.0224358459615
 21
603.2920186109332
 31
0
  0
LINE
  8
1
 62
3
 10
266.0224358459615
 20
599.7920186109332
 30
0
 11
261.8696061631804
 21
599.7920186109332
 31
0
  0
LINE
  8
1
 62
3
 10
266.0224358459615
 20
600.7920186109332
 30
0
 11
266.0224358459615
 21
599.7920186109332
 31
0
  0
LINE
  8
1
 62
3
 10
261.8696061631804
 20
600.7920186109332
 30
0
 11
261.8696061631804
 21
599.7920186109332
 31
0
  0
LINE
  8
1
 62
3
 10
261.8696061631804
 20
600.7920186109332
 30
0
 11
266.0224358459615
 21
600.7920186109332
 31
0
  0
LINE
  8
1
 62
3
 10
266.0224358459615
 20
597.2920186109332
 30
0
 11
261.8696061631804
 21
597.2920186109332
 31
0
  0
LINE
  8
1
 62
3
 10
266.0224358459615
 20
598.2920186109332
 30
0
 11
266.0224358459615
 21
597.2920186109332
 31
0
  0
LINE
  8
1
 62
3
 10
261.8696061631804
 20
598.2920186109332
 30
0
 11
261.8696061631804
 21
597.2920186109332
 31
0
  0
LINE
  8
1
 62
3
 10
261.8696061631804
 20
598.2920186109332
 30
0
 11
266.0224358459615
 21
598.2920186109332
 31
0
  0
LINE
  8
1
 62
3
 10
266.0224358459615
 20
594.7920186109332
 30
0
 11
261.8696061631804
 21
594.7920186109332
 31
0
  0
LINE
  8
1
 62
3
 10
266.0224358459615
 20
595.7920186109332
 30
0
 11
266.0224358459615
 21
594.7920186109332
 31
0
  0
LINE
  8
1
 62
3
 10
261.8696061631804
 20
595.7920186109332
 30
0
 11
261.8696061631804
 21
594.7920186109332
 31
0
  0
LINE
  8
1
 62
3
 10
261.8696061631804
 20
595.7920186109332
 30
0
 11
266.0224358459615
 21
595.7920186109332
 31
0
  0
LINE
  8
1
 62
3
 10
266.0224358459615
 20
592.2920186109332
 30
0
 11
261.8696061631804
 21
592.2920186109332
 31
0
  0
LINE
  8
1
 62
3
 10
266.0224358459615
 20
593.2920186109332
 30
0
 11
266.0224358459615
 21
592.2920186109332
 31
0
  0
LINE
  8
1
 62
3
 10
261.8696061631804
 20
593.2920186109332
 30
0
 11
261.8696061631804
 21
592.2920186109332
 31
0
  0
LINE
  8
1
 62
3
 10
261.8696061631804
 20
593.2920186109332
 30
0
 11
266.0224358459615
 21
593.2920186109332
 31
0
  0
LINE
  8
1
 62
3
 10
266.0224358459615
 20
589.7920186109332
 30
0
 11
261.8696061631804
 21
589.7920186109332
 31
0
  0
LINE
  8
1
 62
3
 10
266.0224358459615
 20
590.7920186109332
 30
0
 11
266.0224358459615
 21
589.7920186109332
 31
0
  0
LINE
  8
1
 62
3
 10
261.8696061631804
 20
590.7920186109332
 30
0
 11
261.8696061631804
 21
589.7920186109332
 31
0
  0
LINE
  8
1
 62
3
 10
261.8696061631804
 20
590.7920186109332
 30
0
 11
266.0224358459615
 21
590.7920186109332
 31
0
  0
LINE
  8
1
 62
3
 10
266.0224358459615
 20
587.2920186109332
 30
0
 11
261.8696061631804
 21
587.2920186109332
 31
0
  0
LINE
  8
1
 62
3
 10
266.0224358459615
 20
588.2920186109332
 30
0
 11
266.0224358459615
 21
587.2920186109332
 31
0
  0
LINE
  8
1
 62
3
 10
261.8696061631804
 20
588.2920186109332
 30
0
 11
261.8696061631804
 21
587.2920186109332
 31
0
  0
LINE
  8
1
 62
3
 10
261.8696061631804
 20
588.2920186109332
 30
0
 11
266.0224358459615
 21
588.2920186109332
 31
0
  0
LINE
  8
1
 62
3
 10
266.0224358459615
 20
584.7920186109332
 30
0
 11
261.8696061631804
 21
584.7920186109332
 31
0
  0
LINE
  8
1
 62
3
 10
266.0224358459615
 20
585.7920186109332
 30
0
 11
266.0224358459615
 21
584.7920186109332
 31
0
  0
LINE
  8
1
 62
3
 10
261.8696061631804
 20
585.7920186109332
 30
0
 11
261.8696061631804
 21
584.7920186109332
 31
0
  0
LINE
  8
1
 62
3
 10
261.8696061631804
 20
585.7920186109332
 30
0
 11
266.0224358459615
 21
585.7920186109332
 31
0
  0
LINE
  8
1
 62
3
 10
266.0224358459615
 20
582.2920186109332
 30
0
 11
261.8696061631804
 21
582.2920186109332
 31
0
  0
LINE
  8
1
 62
3
 10
266.0224358459615
 20
583.2920186109332
 30
0
 11
266.0224358459615
 21
582.2920186109332
 31
0
  0
LINE
  8
1
 62
3
 10
261.8696061631804
 20
583.2920186109332
 30
0
 11
261.8696061631804
 21
582.2920186109332
 31
0
  0
LINE
  8
1
 62
3
 10
261.8696061631804
 20
583.2920186109332
 30
0
 11
266.0224358459615
 21
583.2920186109332
 31
0
  0
LINE
  8
1
 62
3
 10
350.3392206288315
 20
600.7420186109333
 30
0
 11
349.7785024003316
 21
600.7420186109333
 31
0
  0
LINE
  8
1
 62
3
 10
350.3392206288315
 20
598.7420186109333
 30
0
 11
355.0838852998705
 21
598.7420186109333
 31
0
  0
LINE
  8
1
 62
3
 10
350.3392206288315
 20
598.7420186109333
 30
0
 11
350.3392206288315
 21
600.7420186109333
 31
0
  0
LINE
  8
1
 62
3
 10
350.3392206288315
 20
586.8420186109333
 30
0
 11
349.7785024003316
 21
586.8420186109333
 31
0
  0
LINE
  8
1
 62
3
 10
350.3392206288315
 20
584.8420186109333
 30
0
 11
355.0838852998705
 21
584.8420186109333
 31
0
  0
LINE
  8
1
 62
3
 10
350.3392206288315
 20
584.8420186109333
 30
0
 11
350.3392206288315
 21
586.8420186109333
 31
0
  0
LINE
  8
1
 62
3
 10
351.6849443772305
 20
606.7920186109333
 30
0
 11
351.2363697944306
 21
606.7920186109333
 31
0
  0
LINE
  8
1
 62
3
 10
351.6849443772305
 20
603.7920186109333
 30
0
 11
351.2363697944306
 21
603.7920186109333
 31
0
  0
LINE
  8
1
 62
3
 10
351.6849443772305
 20
603.7920186109333
 30
0
 11
351.6849443772305
 21
606.7920186109333
 31
0
  0
LINE
  8
1
 62
3
 10
352.9559056951634
 20
603.7920186109333
 30
0
 11
351.6849443772305
 21
603.7920186109333
 31
0
  0
LINE
  8
1
 62
3
 10
352.9559056951634
 20
606.7920186109333
 30
0
 11
351.6849443772305
 21
606.7920186109333
 31
0
  0
LINE
  8
1
 62
3
 10
352.9559056951634
 20
606.7920186109333
 30
0
 11
352.9559056951634
 21
603.7920186109333
 31
0
  0
LINE
  8
1
 62
3
 10
351.6849443772305
 20
581.7920186109332
 30
0
 11
351.2363697944306
 21
581.7920186109332
 31
0
  0
LINE
  8
1
 62
3
 10
351.6849443772305
 20
578.7920186109332
 30
0
 11
352.9559056951634
 21
578.7920186109332
 31
0
  0
LINE
  8
1
 62
3
 10
351.6849443772305
 20
578.7920186109332
 30
0
 11
351.6849443772305
 21
581.7920186109332
 31
0
  0
LINE
  8
1
 62
3
 10
352.9559056951634
 20
578.7920186109332
 30
0
 11
353.9651985064635
 21
578.7920186109332
 31
0
  0
LINE
  8
1
 62
3
 10
352.9559056951634
 20
581.7920186109332
 30
0
 11
351.6849443772305
 21
581.7920186109332
 31
0
  0
LINE
  8
1
 62
3
 10
352.9559056951634
 20
581.7920186109332
 30
0
 11
352.9559056951634
 21
578.7920186109332
 31
0
  0
LINE
  8
1
 62
3
 10
351.2363697944306
 20
606.7920186109333
 30
0
 11
347.1838852998704
 21
606.7920186109333
 31
0
  0
LINE
  8
1
 62
3
 10
351.2363697944306
 20
603.7920186109333
 30
0
 11
351.2363697944306
 21
606.7920186109333
 31
0
  0
LINE
  8
1
 62
3
 10
353.9651985064635
 20
603.7920186109333
 30
0
 11
352.9559056951634
 21
603.7920186109333
 31
0
  0
LINE
  8
1
 62
3
 10
353.9651985064635
 20
606.7920186109333
 30
0
 11
352.9559056951634
 21
606.7920186109333
 31
0
  0
LINE
  8
1
 62
3
 10
353.9651985064635
 20
606.7920186109333
 30
0
 11
353.9651985064635
 21
603.7920186109333
 31
0
  0
LINE
  8
1
 62
3
 10
351.2363697944306
 20
578.7920186109332
 30
0
 11
351.6849443772305
 21
578.7920186109332
 31
0
  0
LINE
  8
1
 62
3
 10
351.2363697944306
 20
581.7920186109332
 30
0
 11
351.2363697944306
 21
578.7920186109332
 31
0
  0
LINE
  8
1
 62
3
 10
353.9651985064635
 20
581.7920186109332
 30
0
 11
352.9559056951634
 21
581.7920186109332
 31
0
  0
LINE
  8
1
 62
3
 10
353.9651985064635
 20
578.7920186109332
 30
0
 11
355.0838852998705
 21
578.7920186109332
 31
0
  0
LINE
  8
1
 62
3
 10
353.9651985064635
 20
578.7920186109332
 30
0
 11
353.9651985064635
 21
581.7920186109332
 31
0
  0
LINE
  8
1
 62
3
 10
355.0838852998705
 20
584.8420186109333
 30
0
 11
355.0838852998705
 21
586.8420186109333
 31
0
  0
LINE
  8
1
 62
3
 10
349.7785024003316
 20
584.8420186109333
 30
0
 11
350.3392206288315
 21
584.8420186109333
 31
0
  0
LINE
  8
1
 62
3
 10
349.7785024003316
 20
586.8420186109333
 30
0
 11
349.7785024003316
 21
584.8420186109333
 31
0
  0
LINE
  8
1
 62
3
 10
355.0838852998705
 20
586.8420186109333
 30
0
 11
350.3392206288315
 21
586.8420186109333
 31
0
  0
LINE
  8
1
 62
3
 10
355.0838852998705
 20
586.8420186109333
 30
0
 11
355.0838852998705
 21
598.7420186109333
 31
0
  0
LINE
  8
1
 62
3
 10
355.0838852998705
 20
598.7420186109333
 30
0
 11
355.0838852998705
 21
586.8420186109333
 31
0
  0
LINE
  8
1
 62
3
 10
355.0838852998705
 20
598.7420186109333
 30
0
 11
355.0838852998705
 21
600.7420186109333
 31
0
  0
LINE
  8
1
 62
3
 10
349.7785024003316
 20
598.7420186109333
 30
0
 11
350.3392206288315
 21
598.7420186109333
 31
0
  0
LINE
  8
1
 62
3
 10
349.7785024003316
 20
600.7420186109333
 30
0
 11
349.7785024003316
 21
598.7420186109333
 31
0
  0
LINE
  8
1
 62
3
 10
355.0838852998705
 20
600.7420186109333
 30
0
 11
355.0838852998705
 21
606.7920186109333
 31
0
  0
LINE
  8
1
 62
3
 10
355.0838852998705
 20
600.7420186109333
 30
0
 11
350.3392206288315
 21
600.7420186109333
 31
0
  0
LINE
  8
1
 62
3
 10
355.0838852998705
 20
606.7920186109333
 30
0
 11
353.9651985064635
 21
606.7920186109333
 31
0
  0
LINE
  8
1
 62
3
 10
355.0838852998705
 20
578.7920186109332
 30
0
 11
355.0838852998705
 21
584.8420186109333
 31
0
  0
LINE
  8
1
 62
3
 10
347.1838852998704
 20
578.7920186109332
 30
0
 11
351.2363697944306
 21
578.7920186109332
 31
0
  0
LINE
  8
1
 62
3
 10
347.1838852998704
 20
606.7920186109333
 30
0
 11
347.1838852998704
 21
578.7920186109332
 31
0
  0
LINE
  8
1
 62
3
 10
269.7696061631805
 20
604.2920186109333
 30
0
 11
261.8696061631804
 21
604.2920186109333
 31
0
  0
LINE
  8
1
 62
3
 10
261.8696061631804
 20
581.2920186109332
 30
0
 11
269.7696061631805
 21
581.2920186109332
 31
0
  0
LINE
  8
1
 62
3
 10
261.8696061631804
 20
604.2920186109333
 30
0
 11
261.8696061631804
 21
581.2920186109332
 31
0
  0
LINE
  8
1
 62
3
 10
327.1838852998703
 20
588.2920186109332
 30
0
 11
308.0127248789506
 21
588.2920186109332
 31
0
  0
LINE
  8
1
 62
3
 10
327.1838852998703
 20
589.2920186109332
 30
0
 11
308.5379557844934
 21
589.2920186109332
 31
0
  0
LINE
  8
1
 62
3
 10
327.1838852998703
 20
590.2920186109332
 30
0
 11
308.7663278572616
 21
590.2920186109332
 31
0
  0
LINE
  8
1
 62
3
 10
327.1838852998703
 20
591.2920186109332
 30
0
 11
308.473626345906
 21
591.2920186109332
 31
0
  0
LINE
  8
1
 62
3
 10
327.1838852998703
 20
594.2920186109332
 30
0
 11
306.7926057712086
 21
594.2920186109332
 31
0
  0
LINE
  8
1
 62
3
 10
327.1838852998703
 20
595.2920186109332
 30
0
 11
306.9533584416066
 21
595.2920186109332
 31
0
  0
LINE
  8
1
 62
3
 10
327.1838852998703
 20
596.2920186109332
 30
0
 11
307.5248135566861
 21
596.2920186109332
 31
0
  0
LINE
  8
1
 62
3
 10
327.1838852998703
 20
597.2920186109332
 30
0
 11
308.2998117278306
 21
597.2920186109332
 31
0
  0
LINE
  8
1
 62
3
 10
307.4385511811897
 20
597.2920186109332
 30
0
 11
289.7696061631804
 21
597.2920186109332
 31
0
  0
LINE
  8
1
 62
3
 10
307.1873501884197
 20
588.2920186109332
 30
0
 11
289.7696061631804
 21
588.2920186109332
 31
0
  0
LINE
  8
1
 62
3
 10
306.8427249239185
 20
596.2920186109332
 30
0
 11
289.7696061631804
 21
596.2920186109332
 31
0
  0
LINE
  8
1
 62
3
 10
306.3518951405559
 20
595.2920186109332
 30
0
 11
289.7696061631804
 21
595.2920186109332
 31
0
  0
LINE
  8
1
 62
3
 10
306.0832322188481
 20
594.2920186109332
 30
0
 11
289.7696061631804
 21
594.2920186109332
 31
0
  0
LINE
  8
1
 62
3
 10
306.1825462173376
 20
593.2920186109332
 30
0
 11
286.0960531067515
 21
593.2920186109332
 31
0
  0
LINE
  8
1
 62
3
 10
306.7795836147674
 20
592.2431674175164
 30
0
 11
285.0739328554806
 21
592.1912005842551
 31
0
  0
LINE
  8
1
 62
3
 10
307.4480304474291
 20
591.2920186109332
 30
0
 11
289.7696061631804
 21
591.2920186109332
 31
0
  0
LINE
  8
1
 62
3
 10
307.8332955984006
 20
590.2920186109332
 30
0
 11
289.7696061631804
 21
590.2920186109332
 31
0
  0
LINE
  8
1
 62
3
 10
307.6601866157956
 20
589.2920186109332
 30
0
 11
289.7696061631804
 21
589.2920186109332
 31
0
  0
LINE
  8
1
 62
3
 10
284.5430591349834
 20
485.9352707466994
 30
0
 11
284.5430591349834
 21
484.9352707466994
 31
0
  0
LINE
  8
1
 62
3
 10
305.4433336913502
 20
513.4352707466996
 30
0
 11
306.6436082477163
 21
513.4352707466996
 31
0
  0
LINE
  8
1
 62
3
 10
305.4433336913502
 20
511.3352707466994
 30
0
 11
305.4433336913502
 21
513.4352707466996
 31
0
  0
LINE
  8
1
 62
3
 10
304.943059134984
 20
511.3352707466994
 30
0
 11
305.4433336913502
 21
511.3352707466994
 31
0
  0
LINE
  8
1
 62
3
 10
307.1433336913502
 20
512.9352707466998
 30
0
 11
335.34303369135
 21
512.9352707466994
 31
0
  0
LINE
  8
1
 62
3
 10
304.943059134984
 20
469.9352707466999
 30
0
 11
304.943059134984
 21
455.8852707466997
 31
0
  0
LINE
  8
1
 62
3
 10
304.943059134984
 20
452.5323542574848
 30
0
 11
304.943059134984
 21
455.8852707466997
 31
0
  0
LINE
  8
1
 62
3
 10
304.943059134984
 20
511.3352707466994
 30
0
 11
304.943059134984
 21
452.5323542574848
 31
0
  0
LINE
  8
1
 62
3
 10
304.943059134984
 20
494.9352707466998
 30
0
 11
304.5430336913506
 21
494.9352707466998
 31
0
  0
LINE
  8
1
 62
3
 10
304.943059134984
 20
452.5352707466996
 30
0
 11
305.443059134984
 21
452.5352707466996
 31
0
  0
LINE
  8
1
 62
3
 10
304.5430336913506
 20
468.9352707466993
 30
0
 11
304.943059134984
 21
468.9352707466993
 31
0
  0
LINE
  8
1
 62
3
 10
337.5430336913502
 20
475.9352707466994
 30
0
 11
337.64303369135
 21
475.9352707466994
 31
0
  0
LINE
  8
1
 62
3
 10
337.94303369135
 20
485.7352707466995
 30
0
 11
337.9430336913499
 21
478.1352707466995
 31
0
  0
LINE
  8
1
 62
3
 10
337.9430336913499
 20
476.2352707466994
 30
0
 11
337.64303369135
 21
475.9352707466994
 31
0
  0
LINE
  8
1
 62
3
 10
337.64303369135
 20
487.9352707466998
 30
0
 11
337.9430336913499
 21
487.6352707466996
 31
0
  0
LINE
  8
1
 62
3
 10
337.9430336913499
 20
477.6352707466996
 30
0
 11
337.9430336913499
 21
486.2352707466994
 31
0
  0
LINE
  8
1
 62
3
 10
337.9430336913499
 20
487.6352707466996
 30
0
 11
337.9430336913499
 21
486.2352707466994
 31
0
  0
LINE
  8
1
 62
3
 10
337.64303369135
 20
487.9352707466998
 30
0
 11
337.5430336913502
 21
487.9352707466994
 31
0
  0
LINE
  8
1
 62
3
 10
337.9430336913499
 20
477.6352707466996
 30
0
 11
337.9430336913499
 21
476.2352707466994
 31
0
  0
LINE
  8
1
 62
3
 10
337.5430336913502
 20
475.9352707466994
 30
0
 11
337.5430336913502
 21
481.9352707466994
 31
0
  0
LINE
  8
1
 62
3
 10
335.34303369135
 20
450.9352707466994
 30
0
 11
307.1433336913502
 21
450.9352707466996
 31
0
  0
LINE
  8
1
 62
3
 10
337.5430336913502
 20
475.9352707466994
 30
0
 11
337.5430336913502
 21
453.1352707466995
 31
0
  0
LINE
  8
1
 62
3
 10
337.5430336913502
 20
481.9352707466994
 30
0
 11
337.5430336913502
 21
487.9352707466994
 31
0
  0
LINE
  8
1
 62
3
 10
337.5430336913502
 20
510.7352707466994
 30
0
 11
337.5430336913502
 21
487.9352707466994
 31
0
  0
LINE
  8
1
 62
3
 10
147.9068513433588
 20
441.9352707466994
 30
0
 11
147.9068513433588
 21
439.9352707466994
 31
0
  0
LINE
  8
1
 62
3
 10
175.9068513433588
 20
441.9352707466994
 30
0
 11
175.9068513433588
 21
439.9352707466994
 31
0
  0
LINE
  8
1
 62
3
 10
303.6680413262412
 20
445.573493035854
 30
0
 11
303.8430413262412
 21
445.573493035854
 31
0
  0
LINE
  8
1
 62
3
 10
303.6680413262412
 20
446.2984930358539
 30
0
 11
303.6680413262412
 21
445.573493035854
 31
0
  0
LINE
  8
1
 62
3
 10
303.8430413262412
 20
446.2984930358539
 30
0
 11
303.6680413262412
 21
446.2984930358539
 31
0
  0
LINE
  8
1
 62
3
 10
302.1430336913498
 20
443.835993035854
 30
0
 11
302.9554667883002
 21
443.8359930358541
 31
0
  0
LINE
  8
1
 62
3
 10
302.9554667883003
 20
448.0359930358541
 30
0
 11
302.1430336913498
 21
448.0359930358542
 31
0
  0
LINE
  8
1
 62
3
 10
304.5430336913506
 20
514.0483521933625
 30
0
 11
300.5430336913498
 21
514.0483521933624
 31
0
  0
LINE
  8
1
 62
3
 10
302.1430336913498
 20
450.6352707466992
 30
0
 11
308.0430413262416
 21
450.6352707466992
 31
0
  0
LINE
  8
1
 62
3
 10
308.0430413262416
 20
450.6352707466992
 30
0
 11
308.0430413262416
 21
445.6352707466996
 31
0
  0
LINE
  8
1
 62
3
 10
304.7230413262416
 20
445.9352707466991
 30
0
 11
303.6680413262412
 21
445.9352707466991
 31
0
  0
LINE
  8
1
 62
3
 10
304.7230413262416
 20
445.9352707466991
 30
0
 11
305.3630413262415
 21
445.9352707466991
 31
0
  0
LINE
  8
1
 62
3
 10
306.8276085809763
 20
445.6352707466996
 30
0
 11
306.8276085809763
 21
445.9352707466991
 31
0
  0
LINE
  8
1
 62
3
 10
305.3630413262415
 20
445.6352707466996
 30
0
 11
305.3630413262415
 21
445.9352707466991
 31
0
  0
LINE
  8
1
 62
3
 10
304.7230413262416
 20
445.6352707466996
 30
0
 11
304.7230413262416
 21
445.9352707466991
 31
0
  0
LINE
  8
1
 62
3
 10
305.3630413262415
 20
442.0866507270041
 30
0
 11
305.3630413262415
 21
445.6352707466996
 31
0
  0
LINE
  8
1
 62
3
 10
305.0630413262416
 20
441.7866507270041
 30
0
 11
305.0230413262415
 21
441.7866507270041
 31
0
  0
LINE
  8
1
 62
3
 10
306.8276085809763
 20
445.9352707466991
 30
0
 11
305.3630413262415
 21
445.9352707466991
 31
0
  0
LINE
  8
1
 62
3
 10
304.7230413262416
 20
442.0866507270043
 30
0
 11
304.7230413262416
 21
445.6352707466996
 31
0
  0
LINE
  8
1
 62
3
 10
308.0430413262416
 20
440.9352707466991
 30
0
 11
306.8276085809763
 21
440.9352707466991
 31
0
  0
LINE
  8
1
 62
3
 10
306.8276085809763
 20
440.9352707466991
 30
0
 11
306.8276085809763
 21
445.6352707466996
 31
0
  0
LINE
  8
1
 62
3
 10
308.0430413262416
 20
445.6352707466996
 30
0
 11
308.0430413262416
 21
440.9352707466991
 31
0
  0
LINE
  8
1
 62
3
 10
304.5430336913506
 20
514.0483521933625
 30
0
 11
304.5430336913506
 21
457.1353139369596
 31
0
  0
LINE
  8
1
 62
3
 10
292.5430336913498
 20
518.4352707466993
 30
0
 11
292.5430336913498
 21
445.4352707466993
 31
0
  0
LINE
  8
1
 62
3
 10
175.9068513433588
 20
439.9352707466994
 30
0
 11
147.9068513433588
 21
439.9352707466994
 31
0
  0
LINE
  8
1
 62
3
 10
292.5430336913501
 20
521.9352707466999
 30
0
 11
299.0430336913498
 21
521.9352707466998
 31
0
  0
LINE
  8
1
 62
3
 10
300.5430336913498
 20
513.2126357496253
 30
0
 11
300.5430336913498
 21
519.9352707466995
 31
0
  0
LINE
  8
1
 62
3
 10
289.5430336913498
 20
485.4352707466992
 30
0
 11
289.5430336913498
 21
448.4352707466991
 31
0
  0
LINE
  8
1
 62
3
 10
292.5430336913498
 20
441.9352707466994
 30
0
 11
300.5430336913498
 21
441.9352707466993
 31
0
  0
LINE
  8
1
 62
3
 10
292.5430336913498
 20
445.4352707466993
 30
0
 11
292.5430336913498
 21
441.9352707466994
 31
0
  0
LINE
  8
1
 62
3
 10
289.5430336913498
 20
445.7852707466992
 30
0
 11
289.8930336913497
 21
445.4352707466993
 31
0
  0
LINE
  8
1
 62
3
 10
292.5430336913498
 20
445.4352707466993
 30
0
 11
289.8930336913497
 21
445.4352707466993
 31
0
  0
LINE
  8
1
 62
3
 10
289.5430336913498
 20
448.4352707466991
 30
0
 11
289.5430336913498
 21
445.7852707466992
 31
0
  0
LINE
  8
1
 62
3
 10
292.5430336913501
 20
521.9352707466999
 30
0
 11
292.5430336913498
 21
518.4352707466993
 31
0
  0
LINE
  8
1
 62
3
 10
289.5430336913498
 20
518.0852707466994
 30
0
 11
289.8930336913497
 21
518.4352707466993
 31
0
  0
LINE
  8
1
 62
3
 10
289.8930336913497
 20
518.4352707466993
 30
0
 11
292.5430336913498
 21
518.4352707466993
 31
0
  0
LINE
  8
1
 62
3
 10
289.5430336913498
 20
518.0852707466994
 30
0
 11
289.5430336913498
 21
515.4352707466993
 31
0
  0
LINE
  8
1
 62
3
 10
289.5430336913498
 20
515.4352707466993
 30
0
 11
289.5430336913498
 21
485.4352707466992
 31
0
  0
LINE
  8
1
 62
1
 10
255.5430591349834
 20
481.9352707466994
 30
0
 11
342.9430336913499
 21
481.9352707466994
 31
0
  0
LINE
  8
1
 62
1
 10
161.9068513433588
 20
434.9352707466994
 30
0
 11
161.9068513433588
 21
481.9352707466994
 31
0
  0
LINE
  8
1
 62
1
 10
116.9068513433588
 20
481.9352707466994
 30
0
 11
206.9068513433588
 21
481.9352707466994
 31
0
  0
LINE
  8
1
 62
1
 10
161.9068513433588
 20
481.9352707466994
 30
0
 11
161.9068513433588
 21
526.9352707466994
 31
0
  0
LINE
  8
1
 62
3
 10
201.9068513433588
 20
514.9352707466994
 30
0
 11
201.9068513433588
 21
481.9352707466994
 31
0
  0
LINE
  8
1
 62
3
 10
121.9068513433588
 20
514.9352707466994
 30
0
 11
121.9068513433588
 21
481.9352707466994
 31
0
  0
LINE
  8
1
 62
1
 10
128.6568513433588
 20
510.7450946599379
 30
0
 11
128.6568513433588
 21
519.625446833461
 31
0
  0
LINE
  8
1
 62
1
 10
133.0970274301204
 20
515.1852707466994
 30
0
 11
124.2166752565974
 21
515.1852707466994
 31
0
  0
LINE
  8
1
 62
1
 10
190.7166752565973
 20
515.1852707466994
 30
0
 11
199.5970274301202
 21
515.1852707466994
 31
0
  0
LINE
  8
1
 62
1
 10
195.1568513433588
 20
510.7450946599378
 30
0
 11
195.1568513433588
 21
519.6254468334608
 31
0
  0
LINE
  8
1
 62
3
 10
128.9068513433588
 20
521.9352707466994
 30
0
 11
194.9068513433588
 21
521.9352707466994
 31
0
  0
LINE
  8
1
 62
3
 10
201.9068513433588
 20
481.9352707466994
 30
0
 11
201.9068513433588
 21
448.9352707466994
 31
0
  0
LINE
  8
1
 62
3
 10
121.9068513433588
 20
481.9352707466994
 30
0
 11
121.9068513433588
 21
448.9352707466994
 31
0
  0
LINE
  8
1
 62
1
 10
128.6568513433588
 20
444.2450946599379
 30
0
 11
128.6568513433588
 21
453.125446833461
 31
0
  0
LINE
  8
1
 62
1
 10
124.2166752565974
 20
448.6852707466994
 30
0
 11
133.0970274301204
 21
448.6852707466994
 31
0
  0
LINE
  8
1
 62
1
 10
199.5970274301202
 20
448.6852707466992
 30
0
 11
190.7166752565973
 21
448.6852707466994
 31
0
  0
LINE
  8
1
 62
1
 10
195.1568513433588
 20
444.2450946599379
 30
0
 11
195.1568513433588
 21
453.1254468334608
 31
0
  0
LINE
  8
1
 62
3
 10
194.9068513433588
 20
441.9352707466994
 30
0
 11
128.9068513433588
 21
441.9352707466994
 31
0
  0
LINE
  8
1
 62
3
 10
300.5430336913498
 20
441.9352707466993
 30
0
 11
300.5430336913498
 21
513.2126357496253
 31
0
  0
LINE
  8
1
 62
3
 10
300.5430336913498
 20
457.13531393696
 30
0
 11
304.5430336913506
 21
457.1353139369596
 31
0
  0
LINE
  8
1
 62
3
 10
159.2611000322942
 20
484.9352707466994
 30
0
 11
164.5361186014381
 21
484.9352707466994
 31
0
  0
LINE
  8
1
 62
3
 10
160.0768513433588
 20
475.2352707466994
 30
0
 11
160.9068513433588
 21
475.2352707466994
 31
0
  0
LINE
  8
1
 62
3
 10
165.4068513433588
 20
476.9052707466994
 30
0
 11
165.4068513433588
 21
478.7983933184278
 31
0
  0
LINE
  8
1
 62
3
 10
160.0968513433589
 20
477.6230313994647
 30
0
 11
160.9068513433588
 21
477.6230313994647
 31
0
  0
LINE
  8
1
 62
3
 10
164.4068513433588
 20
476.9330313994648
 30
0
 11
164.4068513433588
 21
476.9252707466994
 31
0
  0
LINE
  8
1
 62
3
 10
163.7168513433589
 20
476.2352707466994
 30
0
 11
162.9068513433588
 21
476.2352707466994
 31
0
  0
LINE
  8
1
 62
3
 10
159.4068513433588
 20
476.9252707466994
 30
0
 11
159.4068513433588
 21
476.9330313994648
 31
0
  0
LINE
  8
1
 62
3
 10
158.4068513433588
 20
478.7983933184278
 30
0
 11
158.4068513433588
 21
476.9052707466994
 31
0
  0
LINE
  8
1
 62
3
 10
160.9068513433588
 20
478.062287400492
 30
0
 11
160.9068513433588
 21
477.6230313994647
 31
0
  0
LINE
  8
1
 62
3
 10
162.9068513433588
 20
478.062287400492
 30
0
 11
162.9068513433588
 21
477.6230313994647
 31
0
  0
LINE
  8
1
 62
3
 10
160.9068513433588
 20
476.2352707466994
 30
0
 11
160.9068513433588
 21
475.2352707466994
 31
0
  0
LINE
  8
1
 62
3
 10
162.9068513433588
 20
476.2352707466994
 30
0
 11
162.9068513433588
 21
475.2352707466994
 31
0
  0
LINE
  8
1
 62
3
 10
162.9068513433588
 20
477.6230313994647
 30
0
 11
163.7168513433588
 21
477.6230313994647
 31
0
  0
LINE
  8
1
 62
3
 10
160.9068513433588
 20
476.2352707466994
 30
0
 11
160.0968513433588
 21
476.2352707466994
 31
0
  0
LINE
  8
1
 62
3
 10
162.9068513433588
 20
475.2352707466994
 30
0
 11
163.7368513433589
 21
475.2352707466994
 31
0
  0
LINE
  8
1
 62
3
 10
289.5430336913498
 20
485.9352707466994
 30
0
 11
284.5430591349834
 21
485.9352707466994
 31
0
  0
LINE
  8
1
 62
3
 10
260.5430591349834
 20
481.9352707466994
 30
0
 11
260.5430591349834
 21
484.9352707466994
 31
0
  0
LINE
  8
1
 62
3
 10
261.0430591349834
 20
477.9352707466995
 30
0
 11
289.5430336913498
 21
477.9352707466994
 31
0
  0
LINE
  8
1
 62
3
 10
260.5430591349834
 20
484.9352707466994
 30
0
 11
260.5430591349835
 21
478.4352707466995
 31
0
  0
LINE
  8
1
 62
3
 10
261.0430591349834
 20
477.9352707466995
 30
0
 11
260.5430591349835
 21
478.4352707466995
 31
0
  0
LINE
  8
1
 62
3
 10
261.0430591349834
 20
484.9352707466998
 30
0
 11
260.5430591349834
 21
484.9352707466994
 31
0
  0
LINE
  8
1
 62
2
 10
261.0430591349834
 20
484.9352707466998
 30
0
 11
261.0430591349834
 21
477.9352707466995
 31
0
  0
LINE
  8
1
 62
3
 10
284.5430591349834
 20
484.9352707466994
 30
0
 11
261.0430591349834
 21
484.9352707466998
 31
0
  0
LINE
  8
1
 62
3
 10
300.5430336913498
 20
442.3825998024046
 30
0
 11
302.1430336913498
 21
442.3825998024046
 31
0
  0
LINE
  8
1
 62
3
 10
302.1430336913498
 20
442.3825998024046
 30
0
 11
302.1430336913498
 21
457.1353139369599
 31
0
  0
LINE
  8
1
 62
3
 10
299.0430336913498
 20
521.9352707466998
 30
0
 11
299.0430336913498
 21
519.9352707466995
 31
0
  0
LINE
  8
1
 62
3
 10
300.5430336913498
 20
519.9352707466995
 30
0
 11
299.0430336913498
 21
519.9352707466995
 31
0
  0
LINE
  8
1
 62
3
 10
299.0430336913498
 20
519.9352707466995
 30
0
 11
299.0430336913498
 21
441.9352707466993
 31
0
  0
LINE
  8
1
 62
3
 10
299.0430336913498
 20
519.1852707466995
 30
0
 11
300.5430336913498
 21
519.1852707466995
 31
0
  0
LINE
  8
1
 62
3
 10
299.0430336913498
 20
511.1852707466995
 30
0
 11
300.5430336913498
 21
511.1852707466995
 31
0
  0
LINE
  8
1
 62
3
 10
299.0430336913498
 20
507.9352707466995
 30
0
 11
300.5430336913498
 21
507.9352707466995
 31
0
  0
LINE
  8
1
 62
3
 10
299.0430336913498
 20
455.935270746699
 30
0
 11
300.5430336913498
 21
455.935270746699
 31
0
  0
LINE
  8
1
 62
3
 10
299.0430336913498
 20
452.6852707466995
 30
0
 11
300.5430336913498
 21
452.6852707466995
 31
0
  0
LINE
  8
1
 62
3
 10
299.0430336913498
 20
444.6852707466995
 30
0
 11
300.5430336913498
 21
444.6852707466995
 31
0
  0
LINE
  8
1
 62
3
 10
305.4433336913502
 20
450.6352707466992
 30
0
 11
305.4433336913502
 21
511.3352707466994
 31
0
  0
ARC
  8
1
 62
3
 10
301.2538336169132
 20
385.853368730868
 30
0
 40
2.982960852905337
 50
37.11575597786673
 51
55.21831468209344
  0
ARC
  8
1
 62
3
 10
299.0567490503769
 20
386.2033687308681
 30
0
 40
4.799999999999915
 50
342.4172239915744
 51
355.6688512692123
  0
ARC
  8
1
 62
3
 10
301.253833616913
 20
386.553368730868
 30
0
 40
2.982960852905305
 50
304.781685317911
 51
322.8842440221396
  0
ARC
  8
1
 62
3
 10
299.0567490503769
 20
386.2033687308681
 30
0
 40
4.799999999999818
 50
4.331148730789072
 51
17.58277600842688
  0
ARC
  8
1
 62
3
 10
301.2538336169132
 20
351.353368730868
 30
0
 40
2.982960852905143
 50
304.7816853179066
 51
322.8842440221333
  0
ARC
  8
1
 62
3
 10
299.0567490503769
 20
351.0033687308679
 30
0
 40
4.79999999999981
 50
4.331148730787718
 51
17.58277600842559
  0
ARC
  8
1
 62
3
 10
301.253833616913
 20
350.653368730868
 30
0
 40
2.982960852905301
 50
37.1157559778604
 51
55.21831468208897
  0
ARC
  8
1
 62
3
 10
299.0567490503769
 20
351.0033687308679
 30
0
 40
4.799999999999949
 50
342.4172239915731
 51
355.668851269211
  0
ARC
  8
1
 62
3
 10
424.3166447628867
 20
484.9352707466995
 30
0
 40
1.500000000000228
 50
52.81924421854342
 51
247.1807557814588
  0
ARC
  8
1
 62
3
 10
429.5127971855933
 20
481.9352707466995
 30
0
 40
6.000000000000014
 50
284.3615115629171
 51
0
  0
ARC
  8
1
 62
3
 10
429.5127971855933
 20
481.9352707466995
 30
0
 40
6.000000000000114
 50
44.3615115629183
 51
135.638488437081
  0
ARC
  8
1
 62
3
 10
429.5127971855933
 20
475.9352707466995
 30
0
 40
1.500000000000055
 50
172.819244218542
 51
7.180755781458018
  0
ARC
  8
1
 62
3
 10
434.7089496083
 20
484.9352707466995
 30
0
 40
1.499999999999934
 50
292.8192442185431
 51
127.1807557814566
  0
ARC
  8
1
 62
3
 10
429.5127971855933
 20
481.9352707466995
 30
0
 40
5.99999999999992
 50
164.3615115629156
 51
255.6384884370829
  0
ARC
  8
1
 62
3
 10
429.5127971855933
 20
481.9352707466995
 30
0
 40
6
 50
0
 51
15.63848843708396
  0
ARC
  8
1
 62
3
 10
411.912798733262
 20
445.9359930358541
 30
0
 40
0.4571999999999119
 50
172.5415509436758
 51
187.4584490563242
  0
ARC
  8
1
 62
3
 10
411.912798733262
 20
445.9359930358541
 30
0
 40
1.043999999999998
 50
120.2161982852397
 51
149.7838017147412
  0
ARC
  8
1
 62
3
 10
411.912798733262
 20
445.9359930358541
 30
0
 40
0.4571999999999562
 50
82.54155094363347
 51
97.45844905626058
  0
ARC
  8
1
 62
3
 10
411.912798733262
 20
445.9359930358541
 30
0
 40
1.04400000000028
 50
30.21619828524152
 51
59.78380171474141
  0
ARC
  8
1
 62
3
 10
411.912798733262
 20
445.9359930358541
 30
0
 40
0.4572000000003065
 50
352.5415509436823
 51
7.458449056317686
  0
ARC
  8
1
 62
3
 10
411.912798733262
 20
445.9359930358541
 30
0
 40
1.044000000000198
 50
300.2161982852586
 51
329.7838017147585
  0
ARC
  8
1
 62
3
 10
411.912798733262
 20
445.9359930358541
 30
0
 40
0.4571999999998455
 50
262.5415509437394
 51
277.4584490563665
  0
ARC
  8
1
 62
3
 10
411.912798733262
 20
445.9359930358541
 30
0
 40
1.04399999999974
 50
210.2161982852588
 51
239.7838017147603
  0
ARC
  8
1
 62
3
 10
447.1127956379245
 20
445.935993035854
 30
0
 40
0.4571999999999119
 50
172.5415509436758
 51
187.4584490563242
  0
ARC
  8
1
 62
3
 10
447.1127956379245
 20
445.935993035854
 30
0
 40
1.044000000000076
 50
120.2161982852408
 51
149.7838017147416
  0
ARC
  8
1
 62
3
 10
447.1127956379245
 20
445.935993035854
 30
0
 40
0.4571999999999414
 50
82.54155094364758
 51
97.45844905627472
  0
ARC
  8
1
 62
3
 10
447.1127956379245
 20
445.935993035854
 30
0
 40
1.04400000000026
 50
30.21619828524578
 51
59.78380171473759
  0
ARC
  8
1
 62
3
 10
447.1127956379245
 20
445.935993035854
 30
0
 40
0.4572000000003065
 50
352.5415509436823
 51
7.458449056317686
  0
ARC
  8
1
 62
3
 10
447.1127956379245
 20
445.935993035854
 30
0
 40
1.044000000000255
 50
300.216198285264
 51
329.7838017147569
  0
ARC
  8
1
 62
3
 10
447.1127956379245
 20
445.935993035854
 30
0
 40
0.4571999999998603
 50
262.5415509437253
 51
277.4584490563524
  0
ARC
  8
1
 62
3
 10
447.1127956379245
 20
445.935993035854
 30
0
 40
1.043999999999838
 50
210.2161982852556
 51
239.7838017147576
  0
ARC
  8
1
 62
3
 10
429.5127971855933
 20
481.9352707466995
 30
0
 40
32.50000000000028
 50
210.0576211967898
 51
210.58827421423
  0
ARC
  8
1
 62
4
 10
429.5127971855933
 20
481.9352707466995
 30
0
 40
32.50000000000028
 50
210.0576211967898
 51
210.58827421423
  0
ARC
  8
1
 62
3
 10
429.5127971855933
 20
481.9352707466995
 30
0
 40
32.49999999999983
 50
101.8322690484968
 51
180
  0
ARC
  8
1
 62
3
 10
429.5127971855933
 20
481.9352707466995
 30
0
 40
32.5
 50
180
 51
228.2704652751674
  0
ARC
  8
1
 62
3
 10
429.5127971855933
 20
481.9352707466995
 30
0
 40
32.50000000000003
 50
313.3451802810877
 51
78.16773095150302
  0
ARC
  8
1
 62
3
 10
429.5127971855933
 20
481.9352707466995
 30
0
 40
32.5
 50
180
 51
228.2704652751674
  0
ARC
  8
1
 62
3
 10
301.2538336169132
 20
446.2859930358541
 30
0
 40
2.982960852905189
 50
304.781685317906
 51
322.8842440221324
  0
ARC
  8
1
 62
3
 10
299.0567490503769
 20
445.935993035854
 30
0
 40
4.79999999999981
 50
4.331148730787718
 51
17.58277600842624
  0
ARC
  8
1
 62
3
 10
301.253833616913
 20
445.5859930358541
 30
0
 40
2.982960852905336
 50
37.11575597786128
 51
55.21831468208958
  0
ARC
  8
1
 62
3
 10
299.0567490503769
 20
445.935993035854
 30
0
 40
4.799999999999949
 50
342.4172239915731
 51
355.6688512692116
  0
ARC
  8
1
 62
3
 10
161.9882203370125
 20
482.429151073082
 30
0
 40
4.806808424543346
 50
90.96994142320932
 51
185.8973193016913
  0
ARC
  8
1
 62
3
 10
161.8254823497052
 20
482.429151073082
 30
0
 40
4.806808424543241
 50
354.1026806983087
 51
89.03005857679203
  0
ARC
  8
1
 62
3
 10
161.9068513433588
 20
481.9352707466994
 30
0
 40
4.699999999999903
 50
180
 51
221.8683062262925
  0
ARC
  8
1
 62
3
 10
161.9068513433588
 20
481.9352707466994
 30
0
 40
4.699999999999976
 50
318.1316937737075
 51
0
  0
ARC
  8
1
 62
3
 10
161.9068513433588
 20
481.9352707466994
 30
0
 40
4
 50
0
 51
255.5224878140701
  0
ARC
  8
1
 62
3
 10
161.9068513433588
 20
481.9352707466994
 30
0
 40
4.000000000000016
 50
284.4775121859299
 51
0
  0
ARC
  8
1
 62
3
 10
161.9068513433588
 20
481.9352707466994
 30
0
 40
4.000000000000016
 50
255.5224878140701
 51
284.4775121859299
  0
CIRCLE
  8
1
 62
3
 10
429.5134109583269
 20
481.9352707466995
 30
0
 40
4
  0
CIRCLE
  8
1
 62
3
 10
429.5134109583269
 20
481.9352707466995
 30
0
 40
5.999388762663992
  0
CIRCLE
  8
1
 62
3
 10
305.0131414639285
 20
378.603368730868
 30
0
 40
0.3499999999997954
  0
CIRCLE
  8
1
 62
3
 10
305.0131414639285
 20
376.103368730868
 30
0
 40
0.3499999999996817
  0
CIRCLE
  8
1
 62
3
 10
305.0131414639285
 20
373.603368730868
 30
0
 40
0.3499999999996817
  0
CIRCLE
  8
1
 62
3
 10
305.0131414639285
 20
371.103368730868
 30
0
 40
0.3499999999996817
  0
CIRCLE
  8
1
 62
3
 10
305.0131414639285
 20
358.603368730868
 30
0
 40
0.3499999999996817
  0
CIRCLE
  8
1
 62
3
 10
305.0131414639285
 20
361.103368730868
 30
0
 40
0.3499999999996817
  0
CIRCLE
  8
1
 62
3
 10
305.0131414639285
 20
363.603368730868
 30
0
 40
0.3499999999996817
  0
CIRCLE
  8
1
 62
3
 10
305.0131414639285
 20
366.103368730868
 30
0
 40
0.3499999999996817
  0
CIRCLE
  8
1
 62
3
 10
305.0131414639285
 20
368.603368730868
 30
0
 40
0.3499999999996817
  0
CIRCLE
  8
1
 62
3
 10
305.0131414639285
 20
356.103368730868
 30
0
 40
0.3499999999996817
  0
CIRCLE
  8
1
 62
3
 10
305.0131414639285
 20
381.103368730868
 30
0
 40
0.3499999999997954
  0
CIRCLE
  8
1
 62
3
 10
429.5134109583269
 20
481.9352707466995
 30
0
 40
31.00000000000006
  0
CIRCLE
  8
1
 62
3
 10
411.912798733262
 20
445.9359930358541
 30
0
 40
2.015999999999679
  0
CIRCLE
  8
1
 62
3
 10
447.1127956379245
 20
445.935993035854
 30
0
 40
2.015999999999679
  0
CIRCLE
  8
1
 62
3
 10
396.2627971855932
 20
515.1852707466994
 30
0
 40
4
  0
CIRCLE
  8
1
 62
3
 10
396.2627971855932
 20
448.6852707466996
 30
0
 40
4
  0
CIRCLE
  8
1
 62
3
 10
462.7627971855933
 20
448.6852707466995
 30
0
 40
4.000000000000171
  0
CIRCLE
  8
1
 62
3
 10
462.7627971855933
 20
515.1852707466994
 30
0
 40
4.000000000000171
  0
CIRCLE
  8
1
 62
3
 10
462.7627971855933
 20
515.1852707466994
 30
0
 40
2.599999999999846
  0
CIRCLE
  8
1
 62
3
 10
462.7627971855933
 20
448.6852707466995
 30
0
 40
2.599999999999896
  0
CIRCLE
  8
1
 62
3
 10
396.2627971855932
 20
515.1852707466994
 30
0
 40
2.599999999999945
  0
CIRCLE
  8
1
 62
3
 10
396.2627971855932
 20
448.6852707466996
 30
0
 40
2.599999999999867
  0
CIRCLE
  8
1
 62
3
 10
161.9068513433588
 20
481.9352707466994
 30
0
 40
11.85000000000002
  0
CIRCLE
  8
1
 62
3
 10
161.9068513433588
 20
481.9352707466994
 30
0
 40
36.65000000000001
  0
CIRCLE
  8
1
 62
3
 10
161.9068513433588
 20
481.9352707466994
 30
0
 40
33.5
  0
CIRCLE
  8
1
 62
3
 10
161.9068513433588
 20
481.9352707466994
 30
0
 40
11
  0
CIRCLE
  8
1
 62
3
 10
128.6568513433588
 20
515.1852707466994
 30
0
 40
2.750000000000097
  0
CIRCLE
  8
1
 62
3
 10
195.1568513433588
 20
515.1852707466994
 30
0
 40
2.750000000000086
  0
CIRCLE
  8
1
 62
3
 10
128.6568513433588
 20
448.6852707466994
 30
0
 40
2.749999999999956
  0
CIRCLE
  8
1
 62
3
 10
195.1568513433588
 20
448.6852707466994
 30
0
 40
2.749999999999901
  0
POLYLINE
  8
1
 62
3
 66
1
  0
VERTEX
  8
1
 10
331.8795586075702
 20
592.1912005842551
 30
0
 42
-0.001154420490650917
  0
VERTEX
  8
1
 10
332.611150258426
 20
592.1125855596112
 30
0
 42
-0.003468734099913302
  0
VERTEX
  8
1
 10
333.3414073263807
 20
592.0272794125879
 30
0
 42
-0.005796547176567474
  0
VERTEX
  8
1
 10
334.0689952285334
 20
591.9285910208058
 30
0
 42
-0.00813697755876559
  0
VERTEX
  8
1
 10
334.7925793819829
 20
591.8098292618859
 30
0
 42
-0.01756846700855243
  0
VERTEX
  8
1
 10
335.9887325694593
 20
591.5498074871923
 30
0
 42
-0.003142605946857949
  0
VERTEX
  8
1
 10
336.4648436222669
 20
591.4262528044692
 30
0
 42
-5.559773129193292e-005
  0
VERTEX
  8
1
 10
336.9403583612863
 20
591.2996022471456
 30
0
 42
0.003030683839578921
  0
VERTEX
  8
1
 10
337.4164767855529
 20
591.1758190970883
 30
0
 42
0.006125008534520743
  0
VERTEX
  8
1
 10
337.8943988941015
 20
591.0608666361643
 30
0
 42
0.009595418813159918
  0
VERTEX
  8
1
 10
338.5427170107018
 20
590.9263371683792
 30
0
 42
0.003443420274749246
  0
VERTEX
  8
1
 10
339.1946116563943
 20
590.8087055673134
 30
0
 42
0.001921277061648236
  0
VERTEX
  8
1
 10
339.8482028875203
 20
590.6979950624117
 30
0
 42
-0.003059807641500883
  0
VERTEX
  8
1
 10
340.5016107604206
 20
590.5842288831187
 30
0
 42
-0.006880434131622386
  0
VERTEX
  8
1
 10
341.1529553314364
 20
590.4574302588794
 30
0
 42
-0.005683946695785323
  0
VERTEX
  8
1
 10
341.7384791110547
 20
590.3263936105456
 30
0
 42
-0.001199148558015242
  0
VERTEX
  8
1
 10
342.3223464608064
 20
590.1872646735851
 30
0
 42
0.003285732452794015
  0
VERTEX
  8
1
 10
342.9061185637316
 20
590.0507262389245
 30
0
 42
0.007799462787766988
  0
VERTEX
  8
1
 10
343.4913566028708
 20
589.9274610974912
 30
0
 42
0.01237618344499716
  0
VERTEX
  8
1
 10
344.0796217612644
 20
589.828152040212
 30
0
 42
0.01495152526754259
  0
VERTEX
  8
1
 10
344.6945443116563
 20
589.7586250740919
 30
0
 42
0.009328849676349697
  0
VERTEX
  8
1
 10
345.3134203002676
 20
589.7189441477128
 30
0
 42
0.008782865383119213
  0
VERTEX
  8
1
 10
345.9352613675437
 20
589.7016477511394
 30
0
 42
0.003218905574622928
  0
VERTEX
  8
1
 10
346.5590791539296
 20
589.6992743744364
 30
0
 42
0.00275508248304233
  0
VERTEX
  8
1
 10
347.1838852998704
 20
589.7043625076688
 30
0
  0
SEQEND
  8
1
  0
POLYLINE
  8
1
 62
3
 66
1
  0
VERTEX
  8
1
 10
330.8574383562994
 20
593.2920186109332
 30
0
 42
-7.052380747153585e-005
  0
VERTEX
  8
1
 10
331.1479387187611
 20
593.2686433326869
 30
0
 42
-0.0002115044986875789
  0
VERTEX
  8
1
 10
331.4384718034397
 20
593.2451004627069
 30
0
 42
-0.0003522839052785697
  0
VERTEX
  8
1
 10
331.7290703325524
 20
593.2212224092596
 30
0
 42
-0.0004927261345615002
  0
VERTEX
  8
1
 10
332.0197670283161
 20
593.1968415806111
 30
0
 42
-0.0006326927685789802
  0
VERTEX
  8
1
 10
332.3105946129479
 20
593.1717903850281
 30
0
 42
-0.002829224898584892
  0
VERTEX
  8
1
 10
332.9802045224242
 20
593.1099522887113
 30
0
 42
-0.005262177555090637
  0
VERTEX
  8
1
 10
333.6488911114453
 20
593.0372724155824
 30
0
 42
-0.007717915863633462
  0
VERTEX
  8
1
 10
334.3148645323621
 20
592.9473470375924
 30
0
 42
-0.01019790816382617
  0
VERTEX
  8
1
 10
334.9763349375253
 20
592.8337724266918
 30
0
 42
-0.02165487244676995
  0
VERTEX
  8
1
 10
336.0972146939353
 20
592.5667969984538
 30
0
 42
-0.003174607387777929
  0
VERTEX
  8
1
 10
336.5605716631362
 20
592.433218566597
 30
0
 42
0.001341736711078682
  0
VERTEX
  8
1
 10
337.0234005302665
 20
592.2979532433142
 30
0
 42
0.00586761784359136
  0
VERTEX
  8
1
 10
337.4875184387047
 20
592.1695447126587
 30
0
 42
0.01043616403266877
  0
VERTEX
  8
1
 10
337.9547425318295
 20
592.0565366586834
 30
0
 42
0.01572676402645671
  0
VERTEX
  8
1
 10
338.595880682449
 20
591.936560129523
 30
0
 42
0.004938296709406169
  0
VERTEX
  8
1
 10
339.2426896350361
 20
591.8429926409892
 30
0
 42
0.001884020282913965
  0
VERTEX
  8
1
 10
339.8917679741606
 20
591.7581213249666
 30
0
 42
-0.006909369922142808
  0
VERTEX
  8
1
 10
340.5397142843922
 20
591.6642333133393
 30
0
 42
-0.01379629701636966
  0
VERTEX
  8
1
 10
341.1831271503004
 20
591.5436157379914
 30
0
 42
-0.01224550147391546
  0
VERTEX
  8
1
 10
341.7830643547152
 20
591.3953165709951
 30
0
 42
-0.004376625229451188
  0
VERTEX
  8
1
 10
342.3788462043088
 20
591.2268699982478
 30
0
 42
0.003443735131377433
  0
VERTEX
  8
1
 10
342.9733604584509
 20
591.0575764595865
 30
0
 42
0.01135075692995979
  0
VERTEX
  8
1
 10
343.5694948765106
 20
590.9067363948473
 30
0
 42
0.01951810480802635
  0
VERTEX
  8
1
 10
344.1701372178575
 20
590.7936502438672
 30
0
 42
0.02289053426887993
  0
VERTEX
  8
1
 10
344.7643875417803
 20
590.7332504068843
 30
0
 42
0.0138558526381783
  0
VERTEX
  8
1
 10
345.3643040606895
 20
590.7165627067411
 30
0
 42
0.01336861782271193
  0
VERTEX
  8
1
 10
345.9684702258387
 20
590.7326591092277
 30
0
 42
0.004535915094614365
  0
VERTEX
  8
1
 10
346.5754694884812
 20
590.7706115801341
 30
0
 42
0.004326632835030371
  0
VERTEX
  8
1
 10
347.1838852998704
 20
590.8194920852504
 30
0
  0
SEQEND
  8
1
  0
POLYLINE
  8
1
 62
3
 66
1
  0
VERTEX
  8
1
 10
347.1838852998704
 20
579.7920186109332
 30
0
 42
-0.001607743817705167
  0
VERTEX
  8
1
 10
346.2757563809352
 20
579.7956840237811
 30
0
 42
-0.004839459238416201
  0
VERTEX
  8
1
 10
345.3692735686222
 20
579.8110232915326
 30
0
 42
-0.008112118624257415
  0
VERTEX
  8
1
 10
344.4660829695536
 20
579.8497102690916
 30
0
 42
-0.01142630948624497
  0
VERTEX
  8
1
 10
343.5678306903517
 20
579.9234188113617
 30
0
 42
-0.0147403478344277
  0
VERTEX
  8
1
 10
342.6761628376386
 20
580.0438227732464
 30
0
 42
-0.01091907975219224
  0
VERTEX
  8
1
 10
342.0620277720348
 20
580.1599767139101
 30
0
 42
-0.01003733773344003
  0
VERTEX
  8
1
 10
341.4521683543543
 20
580.3020232067173
 30
0
 42
-0.009167219348167359
  0
VERTEX
  8
1
 10
340.8468958898105
 20
580.4677404879062
 30
0
 42
-0.008316733795721938
  0
VERTEX
  8
1
 10
340.2465216836163
 20
580.6549067937143
 30
0
 42
-0.02049271564601999
  0
VERTEX
  8
1
 10
338.6327724869714
 20
581.2619800060282
 30
0
 42
-0.01613454575087867
  0
VERTEX
  8
1
 10
337.6404292562418
 20
581.7220207536282
 30
0
 42
-0.01882779289652845
  0
VERTEX
  8
1
 10
336.6839304386945
 20
582.2495342657774
 30
0
 42
-0.02154182287538281
  0
VERTEX
  8
1
 10
335.7728791242283
 20
582.8526322050743
 30
0
 42
-0.02412403713657924
  0
VERTEX
  8
1
 10
334.9168784027424
 20
583.5394262341174
 30
0
 42
-0.01837071847592506
  0
VERTEX
  8
1
 10
334.0992933774284
 20
584.3273788927335
 30
0
 42
-0.00382483841902807
  0
VERTEX
  8
1
 10
333.3140053801671
 20
585.1541650955528
 30
0
 42
0.01068385427295064
  0
VERTEX
  8
1
 10
332.5254349029751
 20
585.9622342067457
 30
0
 42
0.02605597401756065
  0
VERTEX
  8
1
 10
331.6980024378692
 20
586.6940355904824
 30
0
 42
0.04330280254885466
  0
VERTEX
  8
1
 10
330.7961284768655
 20
587.2920186109332
 30
0
 42
0.03453843384912081
  0
VERTEX
  8
1
 10
330.1333893955234
 20
587.5958765761801
 30
0
 42
0.01926728948021173
  0
VERTEX
  8
1
 10
329.4308439448099
 20
587.830495897929
 30
0
 42
0.0196670467458393
  0
VERTEX
  8
1
 10
328.6984437170681
 20
588.0131862370546
 30
0
 42
0.005391877216936154
  0
VERTEX
  8
1
 10
327.9461403046406
 20
588.1612572544311
 30
0
 42
0.006832092944367731
  0
VERTEX
  8
1
 10
327.1838852998703
 20
588.2920186109332
 30
0
  0
SEQEND
  8
1
  0
POLYLINE
  8
1
 62
3
 66
1
  0
VERTEX
  8
1
 10
347.1838852998704
 20
580.7920186109332
 30
0
 42
-0.001607743817955523
  0
VERTEX
  8
1
 10
346.2757563809352
 20
580.7956840237811
 30
0
 42
-0.004839459238666895
  0
VERTEX
  8
1
 10
345.3692735686222
 20
580.8110232915326
 30
0
 42
-0.008112118624257415
  0
VERTEX
  8
1
 10
344.4660829695536
 20
580.8497102690916
 30
0
 42
-0.01142630948586806
  0
VERTEX
  8
1
 10
343.5678306903517
 20
580.9234188113616
 30
0
 42
-0.01474034783430277
  0
VERTEX
  8
1
 10
342.6761628376386
 20
581.0438227732464
 30
0
 42
-0.01091907975219224
  0
VERTEX
  8
1
 10
342.0620277720348
 20
581.1599767139101
 30
0
 42
-0.01003733773326288
  0
VERTEX
  8
1
 10
341.4521683543543
 20
581.3020232067172
 30
0
 42
-0.009167219347816166
  0
VERTEX
  8
1
 10
340.8468958898105
 20
581.4677404879061
 30
0
 42
-0.008316733795547954
  0
VERTEX
  8
1
 10
340.2465216836163
 20
581.6549067937143
 30
0
 42
-0.02049271564601999
  0
VERTEX
  8
1
 10
338.6327724869714
 20
582.2619800060282
 30
0
 42
-0.01613454575087867
  0
VERTEX
  8
1
 10
337.6404292562418
 20
582.7220207536282
 30
0
 42
-0.01882779289652845
  0
VERTEX
  8
1
 10
336.6839304386945
 20
583.2495342657774
 30
0
 42
-0.02154182287547095
  0
VERTEX
  8
1
 10
335.7728791242283
 20
583.8526322050744
 30
0
 42
-0.02412403713665853
  0
VERTEX
  8
1
 10
334.9168784027424
 20
584.5394262341174
 30
0
 42
-0.01837071847592506
  0
VERTEX
  8
1
 10
334.0992933774284
 20
585.3273788927335
 30
0
 42
-0.00382483841902807
  0
VERTEX
  8
1
 10
333.3140053801671
 20
586.1541650955528
 30
0
 42
0.01068385427295064
  0
VERTEX
  8
1
 10
332.5254349029751
 20
586.9622342067457
 30
0
 42
0.02605597401756065
  0
VERTEX
  8
1
 10
331.6980024378692
 20
587.6940355904824
 30
0
 42
0.04330280254885466
  0
VERTEX
  8
1
 10
330.7961284768655
 20
588.2920186109332
 30
0
 42
0.03453843384912081
  0
VERTEX
  8
1
 10
330.1333893955234
 20
588.5958765761801
 30
0
 42
0.01926728948021173
  0
VERTEX
  8
1
 10
329.4308439448099
 20
588.830495897929
 30
0
 42
0.0196670467458393
  0
VERTEX
  8
1
 10
328.6984437170681
 20
589.0131862370546
 30
0
 42
0.005391877216936154
  0
VERTEX
  8
1
 10
327.9461403046406
 20
589.1612572544311
 30
0
 42
0.006832092944367731
  0
VERTEX
  8
1
 10
327.1838852998703
 20
589.2920186109332
 30
0
  0
SEQEND
  8
1
  0
POLYLINE
  8
1
 62
3
 66
1
  0
VERTEX
  8
1
 10
347.1838852998704
 20
582.2920186109332
 30
0
 42
-0.001902789264414824
  0
VERTEX
  8
1
 10
346.4418194641928
 20
582.2462242505682
 30
0
 42
-0.005745277525817267
  0
VERTEX
  8
1
 10
345.7015298412334
 20
582.2118784802944
 30
0
 42
-0.009686512557537212
  0
VERTEX
  8
1
 10
344.9647926437105
 20
582.2004298902032
 30
0
 42
-0.0137492844426171
  0
VERTEX
  8
1
 10
344.2333840843425
 20
582.2233270703857
 30
0
 42
-0.01788295130656405
  0
VERTEX
  8
1
 10
343.5090803758475
 20
582.2920186109332
 30
0
 42
-0.01866086244680271
  0
VERTEX
  8
1
 10
342.7491238555792
 20
582.4230253929021
 30
0
 42
-0.01353317069764561
  0
VERTEX
  8
1
 10
341.9956565936727
 20
582.6035242435302
 30
0
 42
-0.008418840654082004
  0
VERTEX
  8
1
 10
341.2451628114478
 20
582.8185197031737
 30
0
 42
-0.003422876774929824
  0
VERTEX
  8
1
 10
340.494126730224
 20
583.0530163121892
 30
0
 42
0.001454396476875486
  0
VERTEX
  8
1
 10
339.7390325713214
 20
583.2920186109332
 30
0
 42
0.002341100075023319
  0
VERTEX
  8
1
 10
338.8956544083153
 20
583.5519378395226
 30
0
 42
-0.008094591874728874
  0
VERTEX
  8
1
 10
338.0589966008125
 20
583.8243262077507
 30
0
 42
-0.01670365432658155
  0
VERTEX
  8
1
 10
337.2451042117759
 20
584.1345675490578
 30
0
 42
-0.02578314228297386
  0
VERTEX
  8
1
 10
336.470022304168
 20
584.5080456968846
 30
0
 42
-0.07276438933760775
  0
VERTEX
  8
1
 10
335.0354918433733
 20
585.5904786355592
 30
0
 42
-0.01438878185770443
  0
VERTEX
  8
1
 10
334.3710826537227
 20
586.2868941896866
 30
0
 42
0.002813176268292536
  0
VERTEX
  8
1
 10
333.721890944544
 20
586.9994846523115
 30
0
 42
0.0203732498658532
  0
VERTEX
  8
1
 10
333.053239288381
 20
587.6683435286924
 30
0
 42
0.04059420823352884
  0
VERTEX
  8
1
 10
332.3304502577774
 20
588.2335643240874
 30
0
 42
0.05710425916600525
  0
VERTEX
  8
1
 10
331.4328337475981
 20
588.6877625644129
 30
0
 42
0.03290429397094453
  0
VERTEX
  8
1
 10
330.4474195831506
 20
588.9802892161008
 30
0
 42
0.0306512378844076
  0
VERTEX
  8
1
 10
329.3961571780022
 20
589.1515621763106
 30
0
 42
0.008913767507564807
  0
VERTEX
  8
1
 10
328.3009959457198
 20
589.2419993422016
 30
0
 42
0.009909907619693088
  0
VERTEX
  8
1
 10
327.1838852998703
 20
589.2920186109332
 30
0
  0
SEQEND
  8
1
  0
POLYLINE
  8
1
 62
3
 66
1
  0
VERTEX
  8
1
 10
347.1838852998704
 20
583.2920186109332
 30
0
 42
-0.001829921716717323
  0
VERTEX
  8
1
 10
346.4426702535432
 20
583.24809184582
 30
0
 42
-0.005521412245441356
  0
VERTEX
  8
1
 10
345.7030187225967
 20
583.215146771985
 30
0
 42
-0.009297014988717283
  0
VERTEX
  8
1
 10
344.9664942224114
 20
583.2041650807067
 30
0
 42
-0.01317426561348762
  0
VERTEX
  8
1
 10
344.2346602683681
 20
583.2261284632633
 30
0
 42
-0.01710602726070544
  0
VERTEX
  8
1
 10
343.5090803758475
 20
583.2920186109332
 30
0
 42
-0.01816776250878477
  0
VERTEX
  8
1
 10
342.7468385772329
 20
583.4180089044062
 30
0
 42
-0.01395037294211253
  0
VERTEX
  8
1
 10
341.9910583166206
 20
583.5934304166801
 30
0
 42
-0.009739958315540243
  0
VERTEX
  8
1
 10
341.239394174863
 20
583.8058567822174
 30
0
 42
-0.00562389847496112
  0
VERTEX
  8
1
 10
340.4895007328125
 20
584.0428616354808
 30
0
 42
-0.001607917713949417
  0
VERTEX
  8
1
 10
339.7390325713214
 20
584.2920186109332
 30
0
 42
-0.003035046829888503
  0
VERTEX
  8
1
 10
338.8917534960548
 20
584.5786484100485
 30
0
 42
-0.01003263971687009
  0
VERTEX
  8
1
 10
338.0549743426006
 20
584.886258852168
 30
0
 42
-0.01731546574576697
  0
VERTEX
  8
1
 10
337.2429110637428
 20
585.2361795694774
 30
0
 42
-0.0248735948983366
  0
VERTEX
  8
1
 10
336.4697796122652
 20
585.6497401941624
 30
0
 42
-0.03223808317310117
  0
VERTEX
  8
1
 10
335.7497959409515
 20
586.1482703584088
 30
0
 42
-0.0288870004225981
  0
VERTEX
  8
1
 10
335.0438406347903
 20
586.7881428169203
 30
0
 42
-0.01142416437686377
  0
VERTEX
  8
1
 10
334.3822142185401
 20
587.4921786867042
 30
0
 42
0.005159818166402283
  0
VERTEX
  8
1
 10
333.7316308870529
 20
588.2020663106373
 30
0
 42
0.02241317470663242
  0
VERTEX
  8
1
 10
333.0588048351813
 20
588.8594940315961
 30
0
 42
0.04260597243946899
  0
VERTEX
  8
1
 10
332.3304502577774
 20
589.4061501924577
 30
0
 42
0.05849288245870188
  0
VERTEX
  8
1
 10
331.4314430272339
 20
589.8313977751506
 30
0
 42
0.03363910028909836
  0
VERTEX
  8
1
 10
330.4455652893317
 20
590.0912627585116
 30
0
 42
0.03098575730260417
  0
VERTEX
  8
1
 10
329.3945346709107
 20
590.2270907923737
 30
0
 42
0.009028684574828362
  0
VERTEX
  8
1
 10
328.3000687988103
 20
590.2802275265699
 30
0
 42
0.009946353456308779
  0
VERTEX
  8
1
 10
327.1838852998703
 20
590.2920186109332
 30
0
  0
SEQEND
  8
1
  0
POLYLINE
  8
1
 62
3
 66
1
  0
VERTEX
  8
1
 10
347.1838852998704
 20
584.7920186109332
 30
0
 42
-0.001399310508234151
  0
VERTEX
  8
1
 10
346.5517058101651
 20
584.7718697238872
 30
0
 42
-0.004208486187271
  0
VERTEX
  8
1
 10
345.9201336057863
 20
584.7588243042877
 30
0
 42
-0.007044180568925263
  0
VERTEX
  8
1
 10
345.2897759720606
 20
584.7599858195811
 30
0
 42
-0.009906475772806782
  0
VERTEX
  8
1
 10
344.6612401943145
 20
584.7824577372136
 30
0
 42
-0.01276798874511679
  0
VERTEX
  8
1
 10
344.0351335578745
 20
584.8333435246318
 30
0
 42
-0.01604707638813082
  0
VERTEX
  8
1
 10
343.284647329229
 20
584.9393891227614
 30
0
 42
-0.01397860901133167
  0
VERTEX
  8
1
 10
342.539869446661
 20
585.090679806086
 30
0
 42
-0.01197752447247866
  0
VERTEX
  8
1
 10
341.8020974509969
 20
585.2808671004898
 30
0
 42
-0.01006527445185389
  0
VERTEX
  8
1
 10
341.0726288830633
 20
585.5036025318566
 30
0
 42
-0.008241774927161124
  0
VERTEX
  8
1
 10
340.3527612836865
 20
585.7525376260703
 30
0
 42
-0.003838553974152811
  0
VERTEX
  8
1
 10
339.8866158399309
 20
585.9264884830695
 30
0
 42
-0.001856704054896212
  0
VERTEX
  8
1
 10
339.4231752414872
 20
586.1054733976737
 30
0
 42
0.000137193647900992
  0
VERTEX
  8
1
 10
338.9604672095263
 20
586.2860072373136
 30
0
 42
0.002130188905854979
  0
VERTEX
  8
1
 10
338.4965194652185
 20
586.4646048694201
 30
0
 42
0.004105463468188118
  0
VERTEX
  8
1
 10
338.0293597297344
 20
586.6377811614237
 30
0
 42
0.004136423689796808
  0
VERTEX
  8
1
 10
337.4505948170519
 20
586.8415432921318
 30
0
 42
-0.004610467601193262
  0
VERTEX
  8
1
 10
336.8723341891836
 20
587.0477367450314
 30
0
 42
-0.01190343574387777
  0
VERTEX
  8
1
 10
336.3028943205756
 20
587.2722140285929
 30
0
 42
-0.01931776423039551
  0
VERTEX
  8
1
 10
335.7505916856738
 20
587.530827651286
 30
0
 42
-0.02658956512585372
  0
VERTEX
  8
1
 10
335.2237427589245
 20
587.8394301215808
 30
0
 42
-0.0246502926762074
  0
VERTEX
  8
1
 10
334.6654215785028
 20
588.2557711135761
 30
0
 42
-0.007303506873307451
  0
VERTEX
  8
1
 10
334.1292478278502
 20
588.7113012793622
 30
0
 42
0.00958337217169322
  0
VERTEX
  8
1
 10
333.5944735412249
 20
589.1615771087345
 30
0
 42
0.02737041927759129
  0
VERTEX
  8
1
 10
333.0403507528845
 20
589.5621550914885
 30
0
 42
0.04757618206213238
  0
VERTEX
  8
1
 10
332.4461314970865
 20
589.8685917174198
 30
0
 42
0.03703160076157136
  0
VERTEX
  8
1
 10
332.0320251893465
 20
589.9998799622687
 30
0
 42
0.01980714862045283
  0
VERTEX
  8
1
 10
331.5983701600933
 20
590.0848000643274
 30
0
 42
0.02086257843957938
  0
VERTEX
  8
1
 10
331.1511427676114
 20
590.1351221459451
 30
0
 42
0.00497652205938402
  0
VERTEX
  8
1
 10
330.6963193701852
 20
590.1626163294707
 30
0
 42
0.007214920840159573
  0
VERTEX
  8
1
 10
330.2398763260987
 20
590.179052737253
 30
0
 42
-0.0005860077344893987
  0
VERTEX
  8
1
 10
329.6188287151885
 20
590.2000354793286
 30
0
 42
-0.0004655068746527296
  0
VERTEX
  8
1
 10
329.0043473747213
 20
590.2220918431779
 30
0
 42
-0.0003378585556196396
  0
VERTEX
  8
1
 10
328.3947907370864
 20
590.2449534233573
 30
0
 42
-0.0002048992800026619
  0
VERTEX
  8
1
 10
327.788517234673
 20
590.2683518144236
 30
0
 42
-6.866814274588158e-005
  0
VERTEX
  8
1
 10
327.1838852998703
 20
590.2920186109332
 30
0
  0
SEQEND
  8
1
  0
POLYLINE
  8
1
 62
3
 66
1
  0
VERTEX
  8
1
 10
347.1838852998704
 20
585.7920186109332
 30
0
 42
-0.001437466415113906
  0
VERTEX
  8
1
 10
346.5513007701435
 20
585.7710595400206
 30
0
 42
-0.004324802430707339
  0
VERTEX
  8
1
 10
345.9194247857486
 20
585.757406482521
 30
0
 42
-0.0072438086533997
  0
VERTEX
  8
1
 10
345.2889658920175
 20
585.7583654518477
 30
0
 42
-0.01019656978470304
  0
VERTEX
  8
1
 10
344.6606326342821
 20
585.7812424614135
 30
0
 42
-0.01315520811113466
  0
VERTEX
  8
1
 10
344.0351335578745
 20
585.8333435246318
 30
0
 42
-0.01633930251789494
  0
VERTEX
  8
1
 10
343.2859178658109
 20
585.9419305216006
 30
0
 42
-0.01378166540648203
  0
VERTEX
  8
1
 10
342.5424606190526
 20
586.0958628150625
 30
0
 42
-0.01127931597948297
  0
VERTEX
  8
1
 10
341.8053739909075
 20
586.2874210201837
 30
0
 42
-0.008860671032433872
  0
VERTEX
  8
1
 10
341.0752701546829
 20
586.5088857521309
 30
0
 42
-0.006521860467440394
  0
VERTEX
  8
1
 10
340.3527612836865
 20
586.7525376260703
 30
0
 42
-0.003263998879169667
  0
VERTEX
  8
1
 10
339.8837183020526
 20
586.9206926645894
 30
0
 42
-0.002743206220392125
  0
VERTEX
  8
1
 10
339.4175270457398
 20
587.094175558381
 30
0
 42
-0.002214346597256809
  0
VERTEX
  8
1
 10
338.9535171248486
 20
587.2721052864484
 30
0
 42
-0.001680038633704228
  0
VERTEX
  8
1
 10
338.49101814948
 20
587.453600827795
 30
0
 42
-0.001142648290656483
  0
VERTEX
  8
1
 10
338.0293597297344
 20
587.6377811614237
 30
0
 42
-0.003025283606270743
  0
VERTEX
  8
1
 10
337.4499498025198
 20
587.8735672510433
 30
0
 42
-0.006884513991892708
  0
VERTEX
  8
1
 10
336.8752460487814
 20
588.1208216977655
 30
0
 42
-0.01075366762071617
  0
VERTEX
  8
1
 10
336.3096855615693
 20
588.3881605830675
 30
0
 42
-0.01459082984961482
  0
VERTEX
  8
1
 10
335.7577054339337
 20
588.6841999884261
 30
0
 42
-0.01827915716353417
  0
VERTEX
  8
1
 10
335.2237427589245
 20
589.0175559953185
 30
0
 42
-0.01457721295502483
  0
VERTEX
  8
1
 10
334.6752539031859
 20
589.4170252268517
 30
0
 42
-0.001460479569337705
  0
VERTEX
  8
1
 10
334.137803096303
 20
589.8353550571156
 30
0
 42
0.01170481162215893
  0
VERTEX
  8
1
 10
333.5968355911055
 20
590.2390538438232
 30
0
 42
0.02559818686947572
  0
VERTEX
  8
1
 10
333.0377966404234
 20
590.5946299446869
 30
0
 42
0.04086222631759785
  0
VERTEX
  8
1
 10
332.4461314970865
 20
590.8685917174198
 30
0
 42
0.03180568557344879
  0
VERTEX
  8
1
 10
332.0273795731109
 20
590.9928105701838
 30
0
 42
0.01804985857780232
  0
VERTEX
  8
1
 10
331.592492409779
 20
591.0758556919468
 30
0
 42
0.01830108516290679
  0
VERTEX
  8
1
 10
331.1463556913361
 20
591.1278374893111
 30
0
 42
0.00546478330344676
  0
VERTEX
  8
1
 10
330.6938551020276
 20
591.158866368879
 30
0
 42
0.006549699693463669
  0
VERTEX
  8
1
 10
330.2398763260987
 20
591.179052737253
 30
0
 42
0.0004093587786407904
  0
VERTEX
  8
1
 10
329.6209746441707
 20
591.2033010123798
 30
0
 42
0.0003245172122119513
  0
VERTEX
  8
1
 10
329.0072086133642
 20
591.2264458872462
 30
0
 42
0.000234054904030561
  0
VERTEX
  8
1
 10
328.3972943208989
 20
591.2487632119171
 30
0
 42
0.0001422883525624932
  0
VERTEX
  8
1
 10
327.7899478539944
 20
591.2705288364577
 30
0
 42
4.708687564941026e-005
  0
VERTEX
  8
1
 10
327.1838852998703
 20
591.2920186109332
 30
0
  0
SEQEND
  8
1
  0
POLYLINE
  8
1
 62
3
 66
1
  0
VERTEX
  8
1
 10
347.1838852998704
 20
587.2920186109332
 30
0
 42
-0.001358152088143635
  0
VERTEX
  8
1
 10
346.5519690562029
 20
587.2668028573057
 30
0
 42
-0.004084509566503773
  0
VERTEX
  8
1
 10
345.9205942863525
 20
587.248485549781
 30
0
 42
-0.006836327826035709
  0
VERTEX
  8
1
 10
345.2903024641363
 20
587.2439651344619
 30
0
 42
-0.009614512800669947
  0
VERTEX
  8
1
 10
344.6616350633713
 20
587.2601400574513
 30
0
 42
-0.01239487570143773
  0
VERTEX
  8
1
 10
344.0351335578745
 20
587.3039087648519
 30
0
 42
-0.01720460201211187
  0
VERTEX
  8
1
 10
343.2076771833837
 20
587.4125879188964
 30
0
 42
-0.01506268212953976
  0
VERTEX
  8
1
 10
342.3866010197297
 20
587.5748555266289
 30
0
 42
-0.01298929339472794
  0
VERTEX
  8
1
 10
341.573512969693
 20
587.7835002230253
 30
0
 42
-0.01101450300629815
  0
VERTEX
  8
1
 10
340.7700209360535
 20
588.031310643061
 30
0
 42
-0.009143100764477363
  0
VERTEX
  8
1
 10
339.9777328215915
 20
588.3110754217117
 30
0
 42
-0.003751510980182653
  0
VERTEX
  8
1
 10
339.5420625991162
 20
588.4776492249824
 30
0
 42
-0.002072865825069415
  0
VERTEX
  8
1
 10
339.1090665861422
 20
588.6490098976738
 30
0
 42
-0.0003846956457039014
  0
VERTEX
  8
1
 10
338.677452257057
 20
588.8222835017255
 30
0
 42
0.001309348898025551
  0
VERTEX
  8
1
 10
338.2459270862482
 20
588.9945960990768
 30
0
 42
0.003005986052189174
  0
VERTEX
  8
1
 10
337.8131985481032
 20
589.1630737516678
 30
0
 42
0.003951844711383813
  0
VERTEX
  8
1
 10
337.3491874989476
 20
589.3363346974129
 30
0
 42
0.001611805710296341
  0
VERTEX
  8
1
 10
336.8830308531635
 20
589.5045107630738
 30
0
 42
0.001288536036976745
  0
VERTEX
  8
1
 10
336.4154231327584
 20
589.6701512193564
 30
0
 42
-0.0005425218243692398
  0
VERTEX
  8
1
 10
335.9470588597399
 20
589.8358053369669
 30
0
 42
-0.001862584057293303
  0
VERTEX
  8
1
 10
335.4786325561154
 20
590.0040223866113
 30
0
 42
-0.001452496948317347
  0
VERTEX
  8
1
 10
334.8257243433877
 20
590.2447299127528
 30
0
 42
0.002656236824331322
  0
VERTEX
  8
1
 10
334.1721075521575
 20
590.4839135622385
 30
0
 42
0.006791582524975906
  0
VERTEX
  8
1
 10
333.5158426640284
 20
590.7101002096449
 30
0
 42
0.0110355809407796
  0
VERTEX
  8
1
 10
332.8549901606039
 20
590.9118167295484
 30
0
 42
0.01535980820484902
  0
VERTEX
  8
1
 10
332.1876105234875
 20
591.0775899965256
 30
0
 42
0.02443126800995438
  0
VERTEX
  8
1
 10
331.2081320561091
 20
591.239576406088
 30
0
 42
0.01606205456730502
  0
VERTEX
  8
1
 10
330.2144758705007
 20
591.3221623578629
 30
0
 42
0.01393493870844233
  0
VERTEX
  8
1
 10
329.2101863962197
 20
591.3451979662976
 30
0
 42
0.005770450064713322
  0
VERTEX
  8
1
 10
328.1988080628237
 20
591.3285333458388
 30
0
 42
0.003972978688413814
  0
VERTEX
  8
1
 10
327.1838852998703
 20
591.2920186109332
 30
0
  0
SEQEND
  8
1
  0
POLYLINE
  8
1
 62
3
 66
1
  0
VERTEX
  8
1
 10
347.1838852998704
 20
588.2920186109332
 30
0
 42
-0.001362471609942318
  0
VERTEX
  8
1
 10
346.5519412983617
 20
588.2667124306403
 30
0
 42
-0.004097610774330237
  0
VERTEX
  8
1
 10
345.9205457101305
 20
588.2483273031164
 30
0
 42
-0.006858595752377544
  0
VERTEX
  8
1
 10
345.290246948454
 20
588.2437842811311
 30
0
 42
-0.009646437364223267
  0
VERTEX
  8
1
 10
344.6615934266095
 20
588.2600044174532
 30
0
 42
-0.01243679960316616
  0
VERTEX
  8
1
 10
344.0351335578745
 20
588.3039087648519
 30
0
 42
-0.01723934499797371
  0
VERTEX
  8
1
 10
343.2077753544705
 20
588.4129077306559
 30
0
 42
-0.01504120646991136
  0
VERTEX
  8
1
 10
342.3868033997814
 20
588.5755148197316
 30
0
 42
-0.01291158192507643
  0
VERTEX
  8
1
 10
341.5737704731661
 20
588.7843390915912
 30
0
 42
-0.01088102849124378
  0
VERTEX
  8
1
 10
340.7702293539832
 20
589.0319896057472
 30
0
 42
-0.008953596705600095
  0
VERTEX
  8
1
 10
339.9777328215915
 20
589.3110754217117
 30
0
 42
-0.003703781418411933
  0
VERTEX
  8
1
 10
339.5418723375243
 20
589.4770294101629
 30
0
 42
-0.002172491294656616
  0
VERTEX
  8
1
 10
339.108700428965
 20
589.6478170681464
 30
0
 42
-0.0006319289791700293
  0
VERTEX
  8
1
 10
338.6770053350905
 20
589.8208275649001
 30
0
 42
0.0009139763724582956
  0
VERTEX
  8
1
 10
338.2455752950776
 20
589.9934500696613
 30
0
 42
0.002461932441230966
  0
VERTEX
  8
1
 10
337.8131985481032
 20
590.1630737516678
 30
0
 42
0.003473150353882968
  0
VERTEX
  8
1
 10
337.3498603273749
 20
590.3385265692781
 30
0
 42
0.002008603979491279
  0
VERTEX
  8
1
 10
336.8844002838007
 20
590.5089719546097
 30
0
 42
0.002047564780985893
  0
VERTEX
  8
1
 10
336.4171527513919
 20
590.6757857946307
 30
0
 42
0.000582476922160216
  0
VERTEX
  8
1
 10
335.9484520641597
 20
590.8403439763085
 30
0
 42
0.0006242501455420635
  0
VERTEX
  8
1
 10
335.4786325561154
 20
591.0040223866113
 30
0
 42
0.000336367665534184
  0
VERTEX
  8
1
 10
334.8273423912029
 20
591.2295203671602
 30
0
 42
0.005230759131862087
  0
VERTEX
  8
1
 10
334.1735734332601
 20
591.4477557847188
 30
0
 42
0.006236406618213796
  0
VERTEX
  8
1
 10
333.5163473545109
 20
591.6505171703266
 30
0
 42
0.01123059924284851
  0
VERTEX
  8
1
 10
332.8546858271787
 20
591.829593055023
 30
0
 42
0.01235024403593109
  0
VERTEX
  8
1
 10
332.1876105234875
 20
591.9767719698475
 30
0
 42
0.02178204566580045
  0
VERTEX
  8
1
 10
331.2032056832647
 20
592.1244404927983
 30
0
 42
0.01290993169238816
  0
VERTEX
  8
1
 10
330.2079073733748
 20
592.2037559269134
 30
0
 42
0.01287933557248028
  0
VERTEX
  8
1
 10
329.2044389612346
 20
592.2318065444017
 30
0
 42
0.004130453162677906
  0
VERTEX
  8
1
 10
328.1955238142608
 20
592.2256806174721
 30
0
 42
0.004305287326096191
  0
VERTEX
  8
1
 10
327.1838852998703
 20
592.2024664183338
 30
0
  0
SEQEND
  8
1
  0
POLYLINE
  8
1
 62
3
 66
1
  0
VERTEX
  8
1
 10
347.1838852998704
 20
592.2920186109332
 30
0
 42
-0.001888937841198224
  0
VERTEX
  8
1
 10
346.5501193073594
 20
592.2533219818191
 30
0
 42
-0.005694027757115815
  0
VERTEX
  8
1
 10
345.9173572258763
 20
592.2242995099836
 30
0
 42
-0.009568406320264731
  0
VERTEX
  8
1
 10
345.2866029664492
 20
592.2146253527051
 30
0
 42
-0.01351495323532597
  0
VERTEX
  8
1
 10
344.6588604401059
 20
592.233973667262
 30
0
 42
-0.04014634871232114
  0
VERTEX
  8
1
 10
343.2213011401638
 20
592.434031438537
 30
0
 42
-0.009124304350970182
  0
VERTEX
  8
1
 10
342.4124013329813
 20
592.6242461705951
 30
0
 42
0.001534250010583383
  0
VERTEX
  8
1
 10
341.6046776610258
 20
592.8271326072437
 30
0
 42
0.01220105072960266
  0
VERTEX
  8
1
 10
340.7943736489963
 20
593.0071605486182
 30
0
 42
0.02318308017405989
  0
VERTEX
  8
1
 10
339.9777328215915
 20
593.1287997948544
 30
0
 42
0.01529747283839393
  0
VERTEX
  8
1
 10
339.5473783285771
 20
593.1593688634215
 30
0
 42
0.00565669675697857
  0
VERTEX
  8
1
 10
339.1150073696748
 20
593.1719143221261
 30
0
 42
0.006368138960309735
  0
VERTEX
  8
1
 10
338.681360229931
 20
593.1740643539462
 30
0
 42
-0.0006029030483456735
  0
VERTEX
  8
1
 10
338.2471771943917
 20
593.1734471418598
 30
0
 42
-0.005000141995049346
  0
VERTEX
  8
1
 10
337.8131985481032
 20
593.1776908688451
 30
0
 42
-0.006579526751653309
  0
VERTEX
  8
1
 10
337.3453188235686
 20
593.1941734409089
 30
0
 42
-0.004151305535848561
  0
VERTEX
  8
1
 10
336.8782318038167
 20
593.2206762469659
 30
0
 42
-0.001715361460686194
  0
VERTEX
  8
1
 10
336.4116280471335
 20
593.252648528483
 30
0
 42
0.0007228359944315448
  0
VERTEX
  8
1
 10
335.9451981118044
 20
593.2855395269272
 30
0
 42
0.003162479870856211
  0
VERTEX
  8
1
 10
335.4786325561154
 20
593.3147984837653
 30
0
 42
0.006187227354348094
  0
VERTEX
  8
1
 10
334.8213460634387
 20
593.3436917350609
 30
0
 42
0.003818458238965181
  0
VERTEX
  8
1
 10
334.1633893138566
 20
593.3594323553374
 30
0
 42
0.003855524039039746
  0
VERTEX
  8
1
 10
333.5049736073502
 20
593.365075798304
 30
0
 42
0.001491465785926622
  0
VERTEX
  8
1
 10
332.8463102439002
 20
593.3636775176701
 30
0
 42
0.001534251241632212
  0
VERTEX
  8
1
 10
332.1876105234875
 20
593.3582929671452
 30
0
 42
0.0004844600514496838
  0
VERTEX
  8
1
 10
331.1863801863323
 20
593.3476201826493
 30
0
 42
0.00037706402508047
  0
VERTEX
  8
1
 10
330.1854733774649
 20
593.3352260069889
 30
0
 42
0.0002694207363718935
  0
VERTEX
  8
1
 10
329.1848092148134
 20
593.3215407879555
 30
0
 42
0.0001617307303595484
  0
VERTEX
  8
1
 10
328.1843068163059
 20
593.3069948733398
 30
0
 42
5.389327191873374e-005
  0
VERTEX
  8
1
 10
327.1838852998703
 20
593.2920186109332
 30
0
  0
SEQEND
  8
1
  0
POLYLINE
  8
1
 62
3
 66
1
  0
VERTEX
  8
1
 10
347.1838852998704
 20
593.2920186109332
 30
0
 42
-0.001888937841198224
  0
VERTEX
  8
1
 10
346.5501193073594
 20
593.2533219818191
 30
0
 42
-0.005694027756936397
  0
VERTEX
  8
1
 10
345.9173572258763
 20
593.2242995099834
 30
0
 42
-0.009568406319904153
  0
VERTEX
  8
1
 10
345.2866029664492
 20
593.214625352705
 30
0
 42
-0.01351495323550692
  0
VERTEX
  8
1
 10
344.6588604401059
 20
593.233973667262
 30
0
 42
-0.04014634871260287
  0
VERTEX
  8
1
 10
343.2213011401638
 20
593.4340314385371
 30
0
 42
-0.009124304351236547
  0
VERTEX
  8
1
 10
342.4124013329813
 20
593.6242461705953
 30
0
 42
0.001534250010450822
  0
VERTEX
  8
1
 10
341.6046776610258
 20
593.8271326072437
 30
0
 42
0.01220105072966884
  0
VERTEX
  8
1
 10
340.7943736489963
 20
594.0071605486182
 30
0
 42
0.02318308017399324
  0
VERTEX
  8
1
 10
339.9777328215915
 20
594.1287997948544
 30
0
 42
0.01529747283833174
  0
VERTEX
  8
1
 10
339.5473783285771
 20
594.1593688634216
 30
0
 42
0.005656696757437551
  0
VERTEX
  8
1
 10
339.1150073696748
 20
594.171914322126
 30
0
 42
0.00636813895958784
  0
VERTEX
  8
1
 10
338.681360229931
 20
594.1740643539461
 30
0
 42
-0.0006029030478220366
  0
VERTEX
  8
1
 10
338.2471771943917
 20
594.1734471418597
 30
0
 42
-0.005000141994525474
  0
VERTEX
  8
1
 10
337.8131985481032
 20
594.1776908688449
 30
0
 42
-0.006579526751895903
  0
VERTEX
  8
1
 10
337.3453188235686
 20
594.1941734409087
 30
0
 42
-0.004151305534878042
  0
VERTEX
  8
1
 10
336.8782318038167
 20
594.2206762469657
 30
0
 42
-0.001715361460686194
  0
VERTEX
  8
1
 10
336.4116280471335
 20
594.252648528483
 30
0
 42
0.000722835994189072
  0
VERTEX
  8
1
 10
335.9451981118044
 20
594.2855395269271
 30
0
 42
0.003162479870855989
  0
VERTEX
  8
1
 10
335.4786325561154
 20
594.3147984837653
 30
0
 42
0.006187227354383401
  0
VERTEX
  8
1
 10
334.8213460634387
 20
594.343691735061
 30
0
 42
0.003818458239016474
  0
VERTEX
  8
1
 10
334.1633893138566
 20
594.3594323553375
 30
0
 42
0.003855524039075496
  0
VERTEX
  8
1
 10
333.5049736073502
 20
594.365075798304
 30
0
 42
0.001491465785804719
  0
VERTEX
  8
1
 10
332.8463102439002
 20
594.3636775176701
 30
0
 42
0.001534251241753893
  0
VERTEX
  8
1
 10
332.1876105234875
 20
594.3582929671452
 30
0
 42
0.0004844600514503499
  0
VERTEX
  8
1
 10
331.1863801863323
 20
594.3476201826493
 30
0
 42
0.0003770640250800259
  0
VERTEX
  8
1
 10
330.1854733774649
 20
594.3352260069889
 30
0
 42
0.0002694207363725596
  0
VERTEX
  8
1
 10
329.1848092148134
 20
594.3215407879555
 30
0
 42
0.0001617307303586603
  0
VERTEX
  8
1
 10
328.1843068163059
 20
594.3069948733398
 30
0
 42
5.389327191962192e-005
  0
VERTEX
  8
1
 10
327.1838852998703
 20
594.2920186109332
 30
0
  0
SEQEND
  8
1
  0
POLYLINE
  8
1
 62
3
 66
1
  0
VERTEX
  8
1
 10
347.1838852998704
 20
594.7920186109332
 30
0
 42
-0.001012204111204361
  0
VERTEX
  8
1
 10
346.5526454589686
 20
594.7726996046603
 30
0
 42
-0.003041506933661132
  0
VERTEX
  8
1
 10
345.9217779911926
 20
594.758508331024
 30
0
 42
-0.005083541123434956
  0
VERTEX
  8
1
 10
345.2916552696678
 20
594.7545725226612
 30
0
 42
-0.007140173251012245
  0
VERTEX
  8
1
 10
344.6626496675199
 20
594.7660199122086
 30
0
 42
-0.0201510382416111
  0
VERTEX
  8
1
 10
343.2980629790899
 20
594.8654379509501
 30
0
 42
-0.005713191267203374
  0
VERTEX
  8
1
 10
342.5624332069366
 20
594.9560626608114
 30
0
 42
-0.001504699508887836
  0
VERTEX
  8
1
 10
341.8271014967568
 20
595.0574407785509
 30
0
 42
0.002686391856223182
  0
VERTEX
  8
1
 10
341.0909251038927
 20
595.1571607208331
 30
0
 42
0.006874857216693582
  0
VERTEX
  8
1
 10
340.3527612836865
 20
595.2428109043221
 30
0
 42
0.006540794940928199
  0
VERTEX
  8
1
 10
339.8887266008402
 20
595.2840715576083
 30
0
 42
0.006046787787838813
  0
VERTEX
  8
1
 10
339.423915748044
 20
595.3136310360317
 30
0
 42
0.007915314743194296
  0
VERTEX
  8
1
 10
338.9587820812758
 20
595.3301899882544
 30
0
 42
0.007448605157942611
  0
VERTEX
  8
1
 10
338.4937789565133
 20
595.3324490629387
 30
0
 42
0.01990100913036389
  0
VERTEX
  8
1
 10
337.4659355887494
 20
595.2811834802014
 30
0
 42
0.006705255687704783
  0
VERTEX
  8
1
 10
336.9038534074331
 20
595.2230591963203
 30
0
 42
0.00695179005982596
  0
VERTEX
  8
1
 10
336.3429215995283
 20
595.1495211977874
 30
0
 42
0.002464144041026158
  0
VERTEX
  8
1
 10
335.7829485787778
 20
595.0653546252873
 30
0
 42
0.00273769309279386
  0
VERTEX
  8
1
 10
335.2237427589245
 20
594.9753446195045
 30
0
 42
-0.0001339878576005063
  0
VERTEX
  8
1
 10
334.6688579365776
 20
594.8845741925998
 30
0
 42
-0.001401259120932401
  0
VERTEX
  8
1
 10
334.1140976725884
 20
594.7955717120727
 30
0
 42
-0.002671166501068157
  0
VERTEX
  8
1
 10
333.5590186935888
 20
594.7111491076728
 30
0
 42
-0.003942555143024106
  0
VERTEX
  8
1
 10
333.0031777262109
 20
594.6341183091491
 30
0
 42
-0.005212195614868044
  0
VERTEX
  8
1
 10
332.4461314970865
 20
594.5672912462513
 30
0
 42
-0.004276427741555718
  0
VERTEX
  8
1
 10
332.0061163458844
 20
594.5232413646556
 30
0
 42
-0.00361896028077575
  0
VERTEX
  8
1
 10
331.5652804152771
 20
594.4861294939407
 30
0
 42
-0.002963333241547868
  0
VERTEX
  8
1
 10
331.1238265431722
 20
594.4548118878599
 30
0
 42
-0.00230990775908053
  0
VERTEX
  8
1
 10
330.6819575674768
 20
594.4281448001665
 30
0
 42
-0.001658437888916184
  0
VERTEX
  8
1
 10
330.2398763260987
 20
594.4049844846138
 30
0
 42
-0.001659181814068207
  0
VERTEX
  8
1
 10
329.6286997396785
 20
594.3769726568715
 30
0
 42
-0.001291066999949345
  0
VERTEX
  8
1
 10
329.017508740708
 20
594.3525732644667
 30
0
 42
-0.0009224660059022299
  0
VERTEX
  8
1
 10
328.4063069323247
 20
594.3308831985651
 30
0
 42
-0.0005535777015982842
  0
VERTEX
  8
1
 10
327.7950979176663
 20
594.3109993503319
 30
0
 42
-0.0001845410469040673
  0
VERTEX
  8
1
 10
327.1838852998703
 20
594.2920186109332
 30
0
  0
SEQEND
  8
1
  0
POLYLINE
  8
1
 62
3
 66
1
  0
VERTEX
  8
1
 10
347.1838852998704
 20
595.7920186109332
 30
0
 42
-0.001012204111204361
  0
VERTEX
  8
1
 10
346.5526454589686
 20
595.7726996046603
 30
0
 42
-0.003041506933661132
  0
VERTEX
  8
1
 10
345.9217779911926
 20
595.758508331024
 30
0
 42
-0.005083541123434956
  0
VERTEX
  8
1
 10
345.2916552696678
 20
595.7545725226612
 30
0
 42
-0.007140173251192887
  0
VERTEX
  8
1
 10
344.6626496675199
 20
595.7660199122084
 30
0
 42
-0.02015103824119626
  0
VERTEX
  8
1
 10
343.2980629790899
 20
595.8654379509501
 30
0
 42
-0.005713191267203374
  0
VERTEX
  8
1
 10
342.5624332069366
 20
595.9560626608114
 30
0
 42
-0.001504699508887836
  0
VERTEX
  8
1
 10
341.8271014967568
 20
596.0574407785509
 30
0
 42
0.002686391856071747
  0
VERTEX
  8
1
 10
341.0909251038927
 20
596.157160720833
 30
0
 42
0.006874857216693582
  0
VERTEX
  8
1
 10
340.3527612836865
 20
596.2428109043221
 30
0
 42
0.00654079494100503
  0
VERTEX
  8
1
 10
339.8887266008402
 20
596.2840715576083
 30
0
 42
0.006046787787762649
  0
VERTEX
  8
1
 10
339.423915748044
 20
596.3136310360317
 30
0
 42
0.007915314743270684
  0
VERTEX
  8
1
 10
338.9587820812758
 20
596.3301899882544
 30
0
 42
0.007448605157988133
  0
VERTEX
  8
1
 10
338.4937789565133
 20
596.3324490629386
 30
0
 42
0.01990100913019485
  0
VERTEX
  8
1
 10
337.4659355887494
 20
596.2811834802013
 30
0
 42
0.006705255687872656
  0
VERTEX
  8
1
 10
336.9038534074331
 20
596.2230591963202
 30
0
 42
0.006951790059558606
  0
VERTEX
  8
1
 10
336.3429215995283
 20
596.1495211977874
 30
0
 42
0.0024641440413932
  0
VERTEX
  8
1
 10
335.7829485787778
 20
596.0653546252873
 30
0
 42
0.002737693092426595
  0
VERTEX
  8
1
 10
335.2237427589245
 20
595.9753446195045
 30
0
 42
-0.0001339878579995759
  0
VERTEX
  8
1
 10
334.6688579365776
 20
595.8845741925998
 30
0
 42
-0.00140125912073245
  0
VERTEX
  8
1
 10
334.1140976725884
 20
595.7955717120726
 30
0
 42
-0.002671166500668086
  0
VERTEX
  8
1
 10
333.5590186935888
 20
595.7111491076727
 30
0
 42
-0.003942555143225114
  0
VERTEX
  8
1
 10
333.0031777262109
 20
595.6341183091491
 30
0
 42
-0.005212195614868044
  0
VERTEX
  8
1
 10
332.4461314970865
 20
595.5672912462513
 30
0
 42
-0.004276427741555718
  0
VERTEX
  8
1
 10
332.0061163458844
 20
595.5232413646556
 30
0
 42
-0.003618960281032049
  0
VERTEX
  8
1
 10
331.5652804152771
 20
595.4861294939408
 30
0
 42
-0.002963333241804166
  0
VERTEX
  8
1
 10
331.1238265431722
 20
595.4548118878599
 30
0
 42
-0.00230990775908053
  0
VERTEX
  8
1
 10
330.6819575674768
 20
595.4281448001665
 30
0
 42
-0.001658437888916184
  0
VERTEX
  8
1
 10
330.2398763260987
 20
595.4049844846138
 30
0
 42
-0.001659181814439467
  0
VERTEX
  8
1
 10
329.6286997396785
 20
595.3769726568715
 30
0
 42
-0.001291066999949345
  0
VERTEX
  8
1
 10
329.017508740708
 20
595.3525732644667
 30
0
 42
-0.0009224660059022299
  0
VERTEX
  8
1
 10
328.4063069323247
 20
595.3308831985651
 30
0
 42
-0.0005535777015982842
  0
VERTEX
  8
1
 10
327.7950979176663
 20
595.3109993503319
 30
0
 42
-0.0001845410469040673
  0
VERTEX
  8
1
 10
327.1838852998703
 20
595.2920186109332
 30
0
  0
SEQEND
  8
1
  0
POLYLINE
  8
1
 62
3
 66
1
  0
VERTEX
  8
1
 10
347.1838852998704
 20
599.7920186109332
 30
0
 42
0.002401515546247868
  0
VERTEX
  8
1
 10
346.4394082378915
 20
599.8503267914857
 30
0
 42
0.00724884075338077
  0
VERTEX
  8
1
 10
345.6973101952062
 20
599.8940579269
 30
0
 42
0.0122987980857593
  0
VERTEX
  8
1
 10
344.959970191108
 20
599.908634972038
 30
0
 42
0.01753962731819319
  0
VERTEX
  8
1
 10
344.2297672448906
 20
599.8794808817619
 30
0
 42
0.02289826929966912
  0
VERTEX
  8
1
 10
343.5090803758475
 20
599.7920186109332
 30
0
 42
0.02623792913356303
  0
VERTEX
  8
1
 10
342.7394072365205
 20
599.6206954679167
 30
0
 42
0.01533451021680805
  0
VERTEX
  8
1
 10
341.9806559573831
 20
599.3841960825303
 30
0
 42
0.01262719633992947
  0
VERTEX
  8
1
 10
341.2297364674566
 20
599.1031999907359
 30
0
 42
0.002243745492779763
  0
VERTEX
  8
1
 10
340.4835586957624
 20
598.7983867284949
 30
0
 42
-0.002052424583913062
  0
VERTEX
  8
1
 10
339.7390325713214
 20
598.490435831769
 30
0
 42
-0.004718784384260101
  0
VERTEX
  8
1
 10
338.9424907783194
 20
598.1760029092557
 30
0
 42
-0.002952234778292873
  0
VERTEX
  8
1
 10
338.1448013623376
 20
597.8751934207194
 30
0
 42
-0.001148070354401698
  0
VERTEX
  8
1
 10
337.3464591798199
 20
597.5816003934397
 30
0
 42
0.0006697605107691157
  0
VERTEX
  8
1
 10
336.54795908721
 20
597.2888168546964
 30
0
 42
0.002482044596778302
  0
VERTEX
  8
1
 10
335.7497959409515
 20
596.990435831769
 30
0
 42
0.001978882974975305
  0
VERTEX
  8
1
 10
335.0724513675694
 20
596.7303100363108
 30
0
 42
-0.002424872976248627
  0
VERTEX
  8
1
 10
334.3937754046052
 20
596.4717424323289
 30
0
 42
-0.005965402688376889
  0
VERTEX
  8
1
 10
333.7118371600148
 20
596.2249431436037
 30
0
 42
-0.009563208241552747
  0
VERTEX
  8
1
 10
333.0247057417536
 20
596.0001222939153
 30
0
 42
-0.01321986738185981
  0
VERTEX
  8
1
 10
332.3304502577774
 20
595.8074900070444
 30
0
 42
-0.01938778054360987
  0
VERTEX
  8
1
 10
331.3233424969996
 20
595.6004225623282
 30
0
 42
-0.01499239441268709
  0
VERTEX
  8
1
 10
330.3014312490193
 20
595.4626705612745
 30
0
 42
-0.01059728124996697
  0
VERTEX
  8
1
 10
329.2684173856374
 20
595.376905142968
 30
0
 42
-0.006296230251619265
  0
VERTEX
  8
1
 10
328.2280017786541
 20
595.3257974464927
 30
0
 42
-0.002086734309482812
  0
VERTEX
  8
1
 10
327.1838852998703
 20
595.2920186109332
 30
0
  0
SEQEND
  8
1
  0
POLYLINE
  8
1
 62
3
 66
1
  0
VERTEX
  8
1
 10
347.1838852998704
 20
600.7920186109332
 30
0
 42
0.002401515546247868
  0
VERTEX
  8
1
 10
346.4394082378915
 20
600.8503267914857
 30
0
 42
0.007248840753456936
  0
VERTEX
  8
1
 10
345.6973101952062
 20
600.8940579268999
 30
0
 42
0.01229879808545306
  0
VERTEX
  8
1
 10
344.959970191108
 20
600.9086349720382
 30
0
 42
0.01753962731873114
  0
VERTEX
  8
1
 10
344.2297672448906
 20
600.8794808817619
 30
0
 42
0.02289826929905352
  0
VERTEX
  8
1
 10
343.5090803758475
 20
600.7920186109332
 30
0
 42
0.02623792913417874
  0
VERTEX
  8
1
 10
342.7394072365205
 20
600.6206954679167
 30
0
 42
0.01533451021619084
  0
VERTEX
  8
1
 10
341.9806559573831
 20
600.3841960825303
 30
0
 42
0.0126271963405453
  0
VERTEX
  8
1
 10
341.2297364674566
 20
600.1031999907359
 30
0
 42
0.002243745492098971
  0
VERTEX
  8
1
 10
340.4835586957624
 20
599.798386728495
 30
0
 42
-0.002052424584042959
  0
VERTEX
  8
1
 10
339.7390325713214
 20
599.490435831769
 30
0
 42
-0.004718784384260101
  0
VERTEX
  8
1
 10
338.9424907783194
 20
599.1760029092557
 30
0
 42
-0.002952234778292873
  0
VERTEX
  8
1
 10
338.1448013623376
 20
598.8751934207194
 30
0
 42
-0.001148070354401698
  0
VERTEX
  8
1
 10
337.3464591798199
 20
598.5816003934397
 30
0
 42
0.0006697605107691157
  0
VERTEX
  8
1
 10
336.54795908721
 20
598.2888168546964
 30
0
 42
0.002482044596778302
  0
VERTEX
  8
1
 10
335.7497959409515
 20
597.990435831769
 30
0
 42
0.001978882974975305
  0
VERTEX
  8
1
 10
335.0724513675694
 20
597.7303100363108
 30
0
 42
-0.002424872976102465
  0
VERTEX
  8
1
 10
334.3937754046052
 20
597.4717424323288
 30
0
 42
-0.005965402688230501
  0
VERTEX
  8
1
 10
333.7118371600148
 20
597.2249431436037
 30
0
 42
-0.009563208241552747
  0
VERTEX
  8
1
 10
333.0247057417536
 20
597.0001222939153
 30
0
 42
-0.0132198673821639
  0
VERTEX
  8
1
 10
332.3304502577774
 20
596.8074900070444
 30
0
 42
-0.01938778054350014
  0
VERTEX
  8
1
 10
331.3233424969996
 20
596.6004225623281
 30
0
 42
-0.01499239441257838
  0
VERTEX
  8
1
 10
330.3014312490193
 20
596.4626705612745
 30
0
 42
-0.01059728124996697
  0
VERTEX
  8
1
 10
329.2684173856374
 20
596.376905142968
 30
0
 42
-0.006296230251619265
  0
VERTEX
  8
1
 10
328.2280017786541
 20
596.3257974464927
 30
0
 42
-0.002086734309482812
  0
VERTEX
  8
1
 10
327.1838852998703
 20
596.2920186109332
 30
0
  0
SEQEND
  8
1
  0
POLYLINE
  8
1
 62
3
 66
1
  0
VERTEX
  8
1
 10
347.1838852998704
 20
604.7920186109333
 30
0
 42
0.004358729398410492
  0
VERTEX
  8
1
 10
346.2147712491972
 20
604.7874914257473
 30
0
 42
0.0133758448350932
  0
VERTEX
  8
1
 10
345.2625495880807
 20
604.7492497255862
 30
0
 42
0.02383563990217036
  0
VERTEX
  8
1
 10
344.3441127060777
 20
604.6435789954751
 30
0
 42
0.03589190169521721
  0
VERTEX
  8
1
 10
343.4763529927447
 20
604.436764720439
 30
0
 42
0.04895632414659945
  0
VERTEX
  8
1
 10
342.6761628376385
 20
604.095092385503
 30
0
 42
0.0457632685364942
  0
VERTEX
  8
1
 10
342.0183793902754
 20
603.6519481732412
 30
0
 42
0.02110922930106047
  0
VERTEX
  8
1
 10
341.4084234005625
 20
603.1098918147577
 30
0
 42
0.01598160533321143
  0
VERTEX
  8
1
 10
340.8248785548659
 20
602.5082106859326
 30
0
 42
-0.001092134691064729
  0
VERTEX
  8
1
 10
340.2463285395513
 20
601.8861921626462
 30
0
 42
-0.01369804711991392
  0
VERTEX
  8
1
 10
339.6513570409845
 20
601.2831236207788
 30
0
 42
-0.02555441647296241
  0
VERTEX
  8
1
 10
338.7954332858129
 20
600.5501520199944
 30
0
 42
-0.02143501596003163
  0
VERTEX
  8
1
 10
337.882328548999
 20
599.9065197858192
 30
0
 42
-0.01692967819396073
  0
VERTEX
  8
1
 10
336.9237378259467
 20
599.3355570767523
 30
0
 42
-0.01233822321839488
  0
VERTEX
  8
1
 10
335.9313561120599
 20
598.8205940512921
 30
0
 42
-0.007800748263474238
  0
VERTEX
  8
1
 10
334.9168784027424
 20
598.3449608679377
 30
0
 42
-0.005362192224300118
  0
VERTEX
  8
1
 10
334.1100061590461
 20
597.9901851148173
 30
0
 42
-0.00736662721384725
  0
VERTEX
  8
1
 10
333.2955978482028
 20
597.656555921596
 30
0
 42
-0.00941235629072611
  0
VERTEX
  8
1
 10
332.4725506666199
 20
597.3512041039505
 30
0
 42
-0.0114936811926434
  0
VERTEX
  8
1
 10
331.639761810705
 20
597.0812604775572
 30
0
 42
-0.02517093435363232
  0
VERTEX
  8
1
 10
330.0836567148177
 20
596.7000103930293
 30
0
 42
-0.008504618118802357
  0
VERTEX
  8
1
 10
329.3645337038691
 20
596.573816938387
 30
0
 42
-0.006047552492840805
  0
VERTEX
  8
1
 10
328.6404222562449
 20
596.4683624915604
 30
0
 42
-0.003614339530341377
  0
VERTEX
  8
1
 10
327.9129851841702
 20
596.3767340499442
 30
0
 42
-0.001202089796769047
  0
VERTEX
  8
1
 10
327.1838852998703
 20
596.2920186109332
 30
0
  0
SEQEND
  8
1
  0
POLYLINE
  8
1
 62
3
 66
1
  0
VERTEX
  8
1
 10
347.1838852998704
 20
605.7920186109333
 30
0
 42
0.004358729398410492
  0
VERTEX
  8
1
 10
346.2147712491972
 20
605.7874914257473
 30
0
 42
0.0133758448350932
  0
VERTEX
  8
1
 10
345.2625495880807
 20
605.7492497255862
 30
0
 42
0.02383563990210926
  0
VERTEX
  8
1
 10
344.3441127060777
 20
605.6435789954752
 30
0
 42
0.03589190169539886
  0
VERTEX
  8
1
 10
343.4763529927447
 20
605.436764720439
 30
0
 42
0.04895632414635216
  0
VERTEX
  8
1
 10
342.6761628376385
 20
605.095092385503
 30
0
 42
0.04576326853674408
  0
VERTEX
  8
1
 10
342.0183793902754
 20
604.6519481732412
 30
0
 42
0.02110922930086232
  0
VERTEX
  8
1
 10
341.4084234005625
 20
604.1098918147576
 30
0
 42
0.01598160533326474
  0
VERTEX
  8
1
 10
340.8248785548659
 20
603.5082106859327
 30
0
 42
-0.00109213469115599
  0
VERTEX
  8
1
 10
340.2463285395513
 20
602.8861921626462
 30
0
 42
-0.01369804712010236
  0
VERTEX
  8
1
 10
339.6513570409845
 20
602.2831236207788
 30
0
 42
-0.02555441647296241
  0
VERTEX
  8
1
 10
338.7954332858129
 20
601.5501520199944
 30
0
 42
-0.02143501595994466
  0
VERTEX
  8
1
 10
337.882328548999
 20
600.9065197858191
 30
0
 42
-0.01692967819396229
  0
VERTEX
  8
1
 10
336.9237378259467
 20
600.3355570767524
 30
0
 42
-0.01233822321839266
  0
VERTEX
  8
1
 10
335.9313561120599
 20
599.8205940512922
 30
0
 42
-0.007800748263381417
  0
VERTEX
  8
1
 10
334.9168784027424
 20
599.3449608679377
 30
0
 42
-0.005362192224300118
  0
VERTEX
  8
1
 10
334.1100061590461
 20
598.9901851148173
 30
0
 42
-0.007366627213608151
  0
VERTEX
  8
1
 10
333.2955978482028
 20
598.656555921596
 30
0
 42
-0.00941235629072611
  0
VERTEX
  8
1
 10
332.4725506666199
 20
598.3512041039505
 30
0
 42
-0.0114936811926434
  0
VERTEX
  8
1
 10
331.639761810705
 20
598.0812604775572
 30
0
 42
-0.02517093435363232
  0
VERTEX
  8
1
 10
330.0836567148177
 20
597.7000103930293
 30
0
 42
-0.008504618118802357
  0
VERTEX
  8
1
 10
329.3645337038691
 20
597.573816938387
 30
0
 42
-0.006047552492840805
  0
VERTEX
  8
1
 10
328.6404222562449
 20
597.4683624915604
 30
0
 42
-0.003614339530341377
  0
VERTEX
  8
1
 10
327.9129851841702
 20
597.3767340499442
 30
0
 42
-0.001202089796769047
  0
VERTEX
  8
1
 10
327.1838852998703
 20
597.2920186109332
 30
0
  0
SEQEND
  8
1
  0
POLYLINE
  8
1
 62
3
 66
1
  0
VERTEX
  8
1
 10
285.0739328554806
 20
592.1912005842551
 30
0
 42
-0.0002943625235800185
  0
VERTEX
  8
1
 10
284.350951234762
 20
592.0793540235246
 30
0
 42
-0.0008817296299720283
  0
VERTEX
  8
1
 10
283.6271516894101
 20
591.9691242244364
 30
0
 42
-0.001464990072543099
  0
VERTEX
  8
1
 10
282.9017162947917
 20
591.8621279486329
 30
0
 42
-0.002041299421588678
  0
VERTEX
  8
1
 10
282.1738271262736
 20
591.7599819577561
 30
0
 42
-0.00260766312017092
  0
VERTEX
  8
1
 10
281.4426662592225
 20
591.6643030134485
 30
0
 42
-0.003565789051793178
  0
VERTEX
  8
1
 10
280.9652033984069
 20
591.6073532859274
 30
0
 42
-0.006974058786732613
  0
VERTEX
  8
1
 10
280.4870626264112
 20
591.5605109945498
 30
0
 42
-0.01046734541317583
  0
VERTEX
  8
1
 10
280.0092959157961
 20
591.5304641776768
 30
0
 42
-0.01406324816676204
  0
VERTEX
  8
1
 10
279.532955239122
 20
591.5239008736695
 30
0
 42
-0.04238687832013095
  0
VERTEX
  8
1
 10
278.4041858078905
 20
591.6361144093507
 30
0
 42
-0.01275655711047386
  0
VERTEX
  8
1
 10
277.7535029729262
 20
591.771248590365
 30
0
 42
-0.003311590302335381
  0
VERTEX
  8
1
 10
277.1044178747579
 20
591.9279125282416
 30
0
 42
0.006018803926409569
  0
VERTEX
  8
1
 10
276.4543043240869
 20
592.0811070872904
 30
0
 42
0.01543555656003222
  0
VERTEX
  8
1
 10
275.8005361316145
 20
592.2058331318214
 30
0
 42
0.01835179206118517
  0
VERTEX
  8
1
 10
275.220067909815
 20
592.2763832206449
 30
0
 42
0.01056861445996914
  0
VERTEX
  8
1
 10
274.6359469296398
 20
592.3132966128455
 30
0
 42
0.01150728188651698
  0
VERTEX
  8
1
 10
274.0493934173816
 20
592.324419504042
 30
0
 42
0.003776246101589587
  0
VERTEX
  8
1
 10
273.4616275993329
 20
592.3175980898523
 30
0
 42
0.004810538920823826
  0
VERTEX
  8
1
 10
272.8738697017865
 20
592.3006785658949
 30
0
 42
0.0009324995727458661
  0
VERTEX
  8
1
 10
272.2513580320819
 20
592.2789625107184
 30
0
 42
0.000728029478195647
  0
VERTEX
  8
1
 10
271.6299523370329
 20
592.2552185546538
 30
0
 42
0.0005209755888233479
  0
VERTEX
  8
1
 10
271.0093761229756
 20
592.2299536729231
 30
0
 42
0.0003134104115193443
  0
VERTEX
  8
1
 10
270.3893528962461
 20
592.2036748407484
 30
0
 42
0.000104296904635015
  0
VERTEX
  8
1
 10
269.7696061631805
 20
592.1768890333517
 30
0
  0
SEQEND
  8
1
  0
POLYLINE
  8
1
 62
3
 66
1
  0
VERTEX
  8
1
 10
286.0960531067515
 20
593.2920186109332
 30
0
 42
0.0003148701003386575
  0
VERTEX
  8
1
 10
285.8048658909416
 20
593.2708820252494
 30
0
 42
0.0009449789258520113
  0
VERTEX
  8
1
 10
285.5138176662517
 20
593.2490181746914
 30
0
 42
0.001576883993855773
  0
VERTEX
  8
1
 10
285.223047423802
 20
593.2256997943847
 30
0
 42
0.002211090619698227
  0
VERTEX
  8
1
 10
284.9326941547124
 20
593.200199619455
 30
0
 42
0.002848557154540103
  0
VERTEX
  8
1
 10
284.6428968501031
 20
593.1717903850281
 30
0
 42
0.006756412268915651
  0
VERTEX
  8
1
 10
283.9782672132371
 20
593.0937198581945
 30
0
 42
0.003949607810528692
  0
VERTEX
  8
1
 10
283.3155894257849
 20
593.0014552230271
 30
0
 42
0.002819681199769439
  0
VERTEX
  8
1
 10
282.653134670132
 20
592.9000612982569
 30
0
 42
0.0004244089957666658
  0
VERTEX
  8
1
 10
281.9891741286638
 20
592.7946029026148
 30
0
 42
-0.00152677981370428
  0
VERTEX
  8
1
 10
281.3219789837655
 20
592.6901448548315
 30
0
 42
-0.003828713700412966
  0
VERTEX
  8
1
 10
280.8566473588552
 20
592.6220285401421
 30
0
 42
-0.008077299979770211
  0
VERTEX
  8
1
 10
280.3902928382001
 20
592.5650524201283
 30
0
 42
-0.01246650744845048
  0
VERTEX
  8
1
 10
279.9242811247458
 20
592.5274378863169
 30
0
 42
-0.01702945909627001
  0
VERTEX
  8
1
 10
279.4599779214377
 20
592.5174063302346
 30
0
 42
-0.05240043144375961
  0
VERTEX
  8
1
 10
278.3488774721533
 20
592.6482989758169
 30
0
 42
-0.01461122410702529
  0
VERTEX
  8
1
 10
277.7045540599236
 20
592.8091965501288
 30
0
 42
-0.002053019632161457
  0
VERTEX
  8
1
 10
277.0623279153808
 20
592.9924181549891
 30
0
 42
0.01039734553693
  0
VERTEX
  8
1
 10
276.4187482593736
 20
593.1645100790423
 30
0
 42
0.02316068791135827
  0
VERTEX
  8
1
 10
275.7703643127504
 20
593.2920186109332
 30
0
 42
0.02682260581739914
  0
VERTEX
  8
1
 10
275.1796748805801
 20
593.3478461421075
 30
0
 42
0.01284867864534116
  0
VERTEX
  8
1
 10
274.5839540476293
 20
593.3567255911228
 30
0
 42
0.0126401866451386
  0
VERTEX
  8
1
 10
273.984876924008
 20
593.3351070904126
 30
0
 42
0.00239380469785313
  0
VERTEX
  8
1
 10
273.3841186198261
 20
593.2994407724106
 30
0
 42
-0.004389826406849457
  0
VERTEX
  8
1
 10
272.7833542451934
 20
593.2661767695499
 30
0
 42
-0.007114942061717296
  0
VERTEX
  8
1
 10
272.1785657667071
 20
593.2483154031311
 30
0
 42
-0.005563552050954528
  0
VERTEX
  8
1
 10
271.57513652961
 20
593.2458071931758
 30
0
 42
-0.003986604090544108
  0
VERTEX
  8
1
 10
270.9727267235547
 20
593.2548138505684
 30
0
 42
-0.002396062566140112
  0
VERTEX
  8
1
 10
270.3709965381939
 20
593.2714970861928
 30
0
 42
-0.0007992743058781212
  0
VERTEX
  8
1
 10
269.7696061631805
 20
593.2920186109332
 30
0
  0
SEQEND
  8
1
  0
POLYLINE
  8
1
 62
3
 66
1
  0
VERTEX
  8
1
 10
269.7696061631805
 20
582.2920186109332
 30
0
 42
0.0001520563532039313
  0
VERTEX
  8
1
 10
270.6700368752166
 20
582.3379299444921
 30
0
 42
0.0004559430651896271
  0
VERTEX
  8
1
 10
271.5707460323553
 20
582.384953652777
 30
0
 42
0.0007586958598115591
  0
VERTEX
  8
1
 10
272.472012079699
 20
582.4342021105138
 30
0
 42
0.001059843562983637
  0
VERTEX
  8
1
 10
273.3741134623506
 20
582.4867876924283
 30
0
 42
0.001358440646110628
  0
VERTEX
  8
1
 10
274.2773286254125
 20
582.5438227732464
 30
0
 42
0.001876121247759602
  0
VERTEX
  8
1
 10
274.8871205724091
 20
582.5862913582373
 30
0
 42
0.005028464223429699
  0
VERTEX
  8
1
 10
275.4960215943846
 20
582.6371557144489
 30
0
 42
0.006786548224488003
  0
VERTEX
  8
1
 10
276.1025072225273
 20
582.702280636281
 30
0
 42
0.01000373869054652
  0
VERTEX
  8
1
 10
276.7050529880251
 20
582.7875309181326
 30
0
 42
0.01181943118306091
  0
VERTEX
  8
1
 10
277.3021344220664
 20
582.898771354403
 30
0
 42
0.02260296103127138
  0
VERTEX
  8
1
 10
278.2925642182107
 20
583.1548700020439
 30
0
 42
0.01776829577962228
  0
VERTEX
  8
1
 10
279.2621913416957
 20
583.4910726672879
 30
0
 42
0.01769407884953239
  0
VERTEX
  8
1
 10
280.2100514309329
 20
583.8970603538425
 30
0
 42
0.01304024145708251
  0
VERTEX
  8
1
 10
281.1351801243333
 20
584.3625140654156
 30
0
 42
0.01325209981311334
  0
VERTEX
  8
1
 10
282.0366130603084
 20
584.8771148057151
 30
0
 42
0.006507225468790569
  0
VERTEX
  8
1
 10
282.8556688751932
 20
585.3886173632313
 30
0
 42
0.0003492312925051437
  0
VERTEX
  8
1
 10
283.6653151031482
 20
585.9098103514712
 30
0
 42
-0.006990503468241471
  0
VERTEX
  8
1
 10
284.4775084162485
 20
586.4167424414748
 30
0
 42
-0.01414273780458173
  0
VERTEX
  8
1
 10
285.3042054865692
 20
586.885462304282
 30
0
 42
-0.02139598757947617
  0
VERTEX
  8
1
 10
286.1573629861854
 20
587.2920186109332
 30
0
 42
-0.0175698636521982
  0
VERTEX
  8
1
 10
286.8514219875507
 20
587.5556561573925
 30
0
 42
-0.01351685745464919
  0
VERTEX
  8
1
 10
287.564407411605
 20
587.7768686728789
 30
0
 42
-0.009528745765771776
  0
VERTEX
  8
1
 10
288.2915876526764
 20
587.9662624151357
 30
0
 42
-0.005654478827338839
  0
VERTEX
  8
1
 10
289.0282311050922
 20
588.1344436419061
 30
0
 42
-0.001873214915928977
  0
VERTEX
  8
1
 10
289.7696061631804
 20
588.2920186109332
 30
0
  0
SEQEND
  8
1
  0
POLYLINE
  8
1
 62
3
 66
1
  0
VERTEX
  8
1
 10
269.7696061631805
 20
583.2920186109332
 30
0
 42
0.0001520563532039313
  0
VERTEX
  8
1
 10
270.6700368752166
 20
583.3379299444921
 30
0
 42
0.0004559430651896271
  0
VERTEX
  8
1
 10
271.5707460323553
 20
583.384953652777
 30
0
 42
0.0007586958598115591
  0
VERTEX
  8
1
 10
272.472012079699
 20
583.4342021105138
 30
0
 42
0.001059843562983637
  0
VERTEX
  8
1
 10
273.3741134623506
 20
583.4867876924283
 30
0
 42
0.001358440646110628
  0
VERTEX
  8
1
 10
274.2773286254125
 20
583.5438227732464
 30
0
 42
0.001876121247759602
  0
VERTEX
  8
1
 10
274.8871205724091
 20
583.5862913582373
 30
0
 42
0.00502846422352235
  0
VERTEX
  8
1
 10
275.4960215943846
 20
583.637155714449
 30
0
 42
0.00678654822430281
  0
VERTEX
  8
1
 10
276.1025072225273
 20
583.7022806362811
 30
0
 42
0.01000373869063929
  0
VERTEX
  8
1
 10
276.7050529880251
 20
583.7875309181326
 30
0
 42
0.01181943118305952
  0
VERTEX
  8
1
 10
277.3021344220664
 20
583.898771354403
 30
0
 42
0.02260296103127471
  0
VERTEX
  8
1
 10
278.2925642182107
 20
584.1548700020439
 30
0
 42
0.01776829577956592
  0
VERTEX
  8
1
 10
279.2621913416957
 20
584.4910726672878
 30
0
 42
0.01769407884969115
  0
VERTEX
  8
1
 10
280.2100514309329
 20
584.8970603538425
 30
0
 42
0.01304024145687364
  0
VERTEX
  8
1
 10
281.1351801243333
 20
585.3625140654156
 30
0
 42
0.01325209981332177
  0
VERTEX
  8
1
 10
282.0366130603084
 20
585.8771148057151
 30
0
 42
0.006507225468582949
  0
VERTEX
  8
1
 10
282.8556688751932
 20
586.3886173632313
 30
0
 42
0.0003492312927134216
  0
VERTEX
  8
1
 10
283.6653151031482
 20
586.9098103514712
 30
0
 42
-0.006990503468241471
  0
VERTEX
  8
1
 10
284.4775084162485
 20
587.4167424414748
 30
0
 42
-0.01414273780458173
  0
VERTEX
  8
1
 10
285.3042054865692
 20
587.885462304282
 30
0
 42
-0.02139598757925891
  0
VERTEX
  8
1
 10
286.1573629861854
 20
588.2920186109332
 30
0
 42
-0.0175698636521982
  0
VERTEX
  8
1
 10
286.8514219875507
 20
588.5556561573925
 30
0
 42
-0.01351685745494013
  0
VERTEX
  8
1
 10
287.564407411605
 20
588.7768686728789
 30
0
 42
-0.009528745765917449
  0
VERTEX
  8
1
 10
288.2915876526764
 20
588.9662624151356
 30
0
 42
-0.005654478827485393
  0
VERTEX
  8
1
 10
289.0282311050922
 20
589.1344436419061
 30
0
 42
-0.001873214916222299
  0
VERTEX
  8
1
 10
289.7696061631804
 20
589.2920186109332
 30
0
  0
SEQEND
  8
1
  0
POLYLINE
  8
1
 62
3
 66
1
  0
VERTEX
  8
1
 10
269.7696061631805
 20
584.7920186109332
 30
0
 42
0.001250144812355447
  0
VERTEX
  8
1
 10
270.5076889284119
 20
584.762318451374
 30
0
 42
0.003757595866996088
  0
VERTEX
  8
1
 10
271.2449912485366
 20
584.7400433317046
 30
0
 42
0.006297950553622985
  0
VERTEX
  8
1
 10
271.9807326784478
 20
584.7326182918147
 30
0
 42
0.008870900991353558
  0
VERTEX
  8
1
 10
272.714132773039
 20
584.7474683715943
 30
0
 42
0.01147156471189547
  0
VERTEX
  8
1
 10
273.4444110872034
 20
584.7920186109332
 30
0
 42
0.01254792155307072
  0
VERTEX
  8
1
 10
274.1995620060864
 20
584.8746313163276
 30
0
 42
0.00704253910990945
  0
VERTEX
  8
1
 10
274.9523208340643
 20
584.9869718054233
 30
0
 42
0.005557307952849518
  0
VERTEX
  8
1
 10
275.7045089830535
 20
585.1186812161689
 30
0
 42
9.171228462368693e-005
  0
VERTEX
  8
1
 10
276.4579478649699
 20
585.2594006865124
 30
0
 42
-0.002321053770589901
  0
VERTEX
  8
1
 10
277.2144588917295
 20
585.398771354403
 30
0
 42
-0.001201310525881331
  0
VERTEX
  8
1
 10
278.031494714761
 20
585.5406486909092
 30
0
 42
0.005027277254577288
  0
VERTEX
  8
1
 10
278.8465604598808
 20
585.6886040917825
 30
0
 42
0.01135044803581025
  0
VERTEX
  8
1
 10
279.6520319565221
 20
585.8622428415997
 30
0
 42
0.01794427143860224
  0
VERTEX
  8
1
 10
280.4402850341173
 20
586.0811702249372
 30
0
 42
0.04827825323452558
  0
VERTEX
  8
1
 10
281.9014488387453
 20
586.7045900890257
 30
0
 42
0.008490223132456872
  0
VERTEX
  8
1
 10
282.5811011635111
 20
587.0907940970709
 30
0
 42
0.003152034215749848
  0
VERTEX
  8
1
 10
283.2538113982713
 20
587.4940561035608
 30
0
 42
-0.009118567119184023
  0
VERTEX
  8
1
 10
283.9307384449006
 20
587.8848286615485
 30
0
 42
-0.01940348389083588
  0
VERTEX
  8
1
 10
284.6230412052735
 20
588.2335643240874
 30
0
 42
-0.03006721513046663
  0
VERTEX
  8
1
 10
285.5944581573441
 20
588.6014454943417
 30
0
 42
-0.02315593798530228
  0
VERTEX
  8
1
 10
286.6044724690885
 20
588.8651997893392
 30
0
 42
-0.01618042258602249
  0
VERTEX
  8
1
 10
287.6434348005884
 20
589.0508589278942
 30
0
 42
-0.009504695469693365
  0
VERTEX
  8
1
 10
288.7016958119252
 20
589.1844546288207
 30
0
 42
-0.003129060246830788
  0
VERTEX
  8
1
 10
289.7696061631804
 20
589.2920186109332
 30
0
  0
SEQEND
  8
1
  0
POLYLINE
  8
1
 62
3
 66
1
  0
VERTEX
  8
1
 10
269.7696061631805
 20
585.7920186109332
 30
0
 42
0.001152801735422788
  0
VERTEX
  8
1
 10
270.5070527097746
 20
585.7646849604721
 30
0
 42
0.003463756523333725
  0
VERTEX
  8
1
 10
271.2438778659213
 20
585.7441847226262
 30
0
 42
0.005799164164997974
  0
VERTEX
  8
1
 10
271.9794602411732
 20
585.7373513100109
 30
0
 42
0.008158172994187253
  0
VERTEX
  8
1
 10
272.713178445083
 20
585.7510181352415
 30
0
 42
0.01053592694625168
  0
VERTEX
  8
1
 10
273.4444110872034
 20
585.7920186109332
 30
0
 42
0.01177436222898408
  0
VERTEX
  8
1
 10
274.2012277050036
 20
585.8684355034242
 30
0
 42
0.007768041546499974
  0
VERTEX
  8
1
 10
274.9556651629628
 20
585.9745320806161
 30
0
 42
0.006923755484340999
  0
VERTEX
  8
1
 10
275.7086990924744
 20
586.1030954859094
 30
0
 42
0.002936010793001311
  0
VERTEX
  8
1
 10
276.4613051249322
 20
586.2469128627049
 30
0
 42
0.002137160403563972
  0
VERTEX
  8
1
 10
277.2144588917295
 20
586.398771354403
 30
0
 42
0.0005152325850399071
  0
VERTEX
  8
1
 10
278.0335253361121
 20
586.5684463219907
 30
0
 42
0.008980172019988415
  0
VERTEX
  8
1
 10
278.8481866994684
 20
586.7534090186405
 30
0
 42
0.009777534549196689
  0
VERTEX
  8
1
 10
279.6522385036705
 20
586.967968836067
 30
0
 42
0.01845505424843744
  0
VERTEX
  8
1
 10
280.4394762705903
 20
587.2264351659851
 30
0
 42
0.03922143116309249
  0
VERTEX
  8
1
 10
281.8968936323536
 20
587.8993246461286
 30
0
 42
0.006762279807142791
  0
VERTEX
  8
1
 10
282.5748962039762
 20
588.2915557013404
 30
0
 42
-0.001664850240571874
  0
VERTEX
  8
1
 10
283.2482342887892
 20
588.6919864127775
 30
0
 42
-0.01113972042359188
  0
VERTEX
  8
1
 10
283.9274389386143
 20
589.0727926274724
 30
0
 42
-0.02096863254705563
  0
VERTEX
  8
1
 10
284.6230412052735
 20
589.4061501924577
 30
0
 42
-0.03144394759790959
  0
VERTEX
  8
1
 10
285.5942334003928
 20
589.7457869856155
 30
0
 42
-0.02411662718852538
  0
VERTEX
  8
1
 10
286.6041727931535
 20
589.9771150391315
 30
0
 42
-0.01677980776407575
  0
VERTEX
  8
1
 10
287.6431725841452
 20
590.1272115379161
 30
0
 42
-0.009824377807877149
  0
VERTEX
  8
1
 10
288.7015459739576
 20
590.2231536668799
 30
0
 42
-0.003228644692732767
  0
VERTEX
  8
1
 10
289.7696061631804
 20
590.2920186109332
 30
0
  0
SEQEND
  8
1
  0
POLYLINE
  8
1
 62
3
 66
1
  0
VERTEX
  8
1
 10
269.7696061631805
 20
587.2920186109332
 30
0
 42
-0.0006197544450199264
  0
VERTEX
  8
1
 10
270.3984833813166
 20
587.3127403473064
 30
0
 42
-0.00185853465916576
  0
VERTEX
  8
1
 10
271.0275788820185
 20
587.3303478952713
 30
0
 42
-0.003094675196063461
  0
VERTEX
  8
1
 10
271.657110947852
 20
587.3417270664195
 30
0
 42
-0.004324913475808218
  0
VERTEX
  8
1
 10
272.2872978613827
 20
587.3437636723423
 30
0
 42
-0.005543773682724004
  0
VERTEX
  8
1
 10
272.9183579051764
 20
587.3333435246318
 30
0
 42
-0.004520796364858562
  0
VERTEX
  8
1
 10
273.6574551923704
 20
587.3046388852587
 30
0
 42
0.0007805678299752925
  0
VERTEX
  8
1
 10
274.3966430784399
 20
587.2703967659644
 30
0
 42
0.006092705141680607
  0
VERTEX
  8
1
 10
275.1345195483312
 20
587.246374474987
 30
0
 42
0.01150964957818935
  0
VERTEX
  8
1
 10
275.8696825869906
 20
587.248329320564
 30
0
 42
0.01700876146767666
  0
VERTEX
  8
1
 10
276.6007301793644
 20
587.2920186109332
 30
0
 42
0.01240697077925098
  0
VERTEX
  8
1
 10
277.0657572480494
 20
587.3473924343817
 30
0
 42
0.006037178883193082
  0
VERTEX
  8
1
 10
277.5295689709118
 20
587.4200571843195
 30
0
 42
0.005589350942275752
  0
VERTEX
  8
1
 10
277.9932073148268
 20
587.5037826683438
 30
0
 42
0.0007533041592390216
  0
VERTEX
  8
1
 10
278.4577142466699
 20
587.5923386940517
 30
0
 42
-0.002573584257941893
  0
VERTEX
  8
1
 10
278.9241317333165
 20
587.6794950690405
 30
0
 42
-0.00180476392913436
  0
VERTEX
  8
1
 10
279.498901428349
 20
587.7797136673174
 30
0
 42
0.004933510209165038
  0
VERTEX
  8
1
 10
280.072478975294
 20
587.8834182778265
 30
0
 42
0.01176870411042053
  0
VERTEX
  8
1
 10
280.6392333718037
 20
588.0055657046621
 30
0
 42
0.01888827476052639
  0
VERTEX
  8
1
 10
281.1935336155304
 20
588.1611127519186
 30
0
 42
0.05449544957785256
  0
VERTEX
  8
1
 10
282.2921046617014
 20
588.6520175876497
 30
0
 42
0.00592494679380636
  0
VERTEX
  8
1
 10
282.8385706156072
 20
588.9803068678426
 30
0
 42
5.930991559992528e-005
  0
VERTEX
  8
1
 10
283.3816197169093
 20
589.3154530154291
 30
0
 42
-0.01842206213820026
  0
VERTEX
  8
1
 10
283.9337251166731
 20
589.6230249815683
 30
0
 42
-0.03355665101518126
  0
VERTEX
  8
1
 10
284.5073599659644
 20
589.8685917174198
 30
0
 42
-0.02601541318575843
  0
VERTEX
  8
1
 10
284.9303420719251
 20
589.9894091469396
 30
0
 42
-0.01999312491737494
  0
VERTEX
  8
1
 10
285.3663511857408
 20
590.0715521258471
 30
0
 42
-0.0141554265674979
  0
VERTEX
  8
1
 10
285.8114947636749
 20
590.1243324919782
 30
0
 42
-0.00863273980384093
  0
VERTEX
  8
1
 10
286.2618802619909
 20
590.1570620831684
 30
0
 42
-0.003342474864119194
  0
VERTEX
  8
1
 10
286.7136151369521
 20
590.179052737253
 30
0
 42
-0.0009058135987001147
  0
VERTEX
  8
1
 10
287.3305627896058
 20
590.2048722167909
 30
0
 42
-0.0007135431986684516
  0
VERTEX
  8
1
 10
287.9436774773207
 20
590.2285408264609
 30
0
 42
-0.0005145810281690657
  0
VERTEX
  8
1
 10
288.5539174413318
 20
590.2505962837299
 30
0
 42
-0.0003107331200460995
  0
VERTEX
  8
1
 10
289.1622409228734
 20
590.2715763060651
 30
0
 42
-0.0001039106374639102
  0
VERTEX
  8
1
 10
289.7696061631804
 20
590.2920186109332
 30
0
  0
SEQEND
  8
1
  0
POLYLINE
  8
1
 62
3
 66
1
  0
VERTEX
  8
1
 10
269.7696061631805
 20
588.2920186109332
 30
0
 42
-0.0005686270056098892
  0
VERTEX
  8
1
 10
270.3988045580729
 20
588.3117264719689
 30
0
 42
-0.001705583658070721
  0
VERTEX
  8
1
 10
271.028140941342
 20
588.3285736134305
 30
0
 42
-0.002841296066373297
  0
VERTEX
  8
1
 10
271.6577533013644
 20
588.3396993157443
 30
0
 42
-0.003973764666339502
  0
VERTEX
  8
1
 10
272.287779626517
 20
588.3422428593359
 30
0
 42
-0.005099253580780698
  0
VERTEX
  8
1
 10
272.9183579051764
 20
588.3333435246318
 30
0
 42
-0.004222463661785176
  0
VERTEX
  8
1
 10
273.6564843759421
 20
588.3077035118695
 30
0
 42
0.0005439850101511095
  0
VERTEX
  8
1
 10
274.3946696242728
 20
588.2766264711686
 30
0
 42
0.005315690746497646
  0
VERTEX
  8
1
 10
275.1320288646394
 20
588.2542369454791
 30
0
 42
0.01014946503160229
  0
VERTEX
  8
1
 10
275.867677311513
 20
588.2546594777506
 30
0
 42
0.01502468512805564
  0
VERTEX
  8
1
 10
276.6007301793644
 20
588.2920186109332
 30
0
 42
0.01137546385986146
  0
VERTEX
  8
1
 10
277.0678944349738
 20
588.3406458654841
 30
0
 42
0.007443944908833522
  0
VERTEX
  8
1
 10
277.533725758194
 20
588.4069352381421
 30
0
 42
0.007896505749462475
  0
VERTEX
  8
1
 10
277.9983151090048
 20
588.4876586293351
 30
0
 42
0.003997182847511532
  0
VERTEX
  8
1
 10
278.4617534473858
 20
588.5795879394919
 30
0
 42
0.004492470941874645
  0
VERTEX
  8
1
 10
278.9241317333165
 20
588.6794950690405
 30
0
 42
0.002764412574417704
  0
VERTEX
  8
1
 10
279.4985674400097
 20
588.812369192814
 30
0
 42
0.009311519232032828
  0
VERTEX
  8
1
 10
280.0689224973567
 20
588.9588956420478
 30
0
 42
0.008520636602021707
  0
VERTEX
  8
1
 10
280.6326213984381
 20
589.1253497322335
 30
0
 42
0.01512273039530484
  0
VERTEX
  8
1
 10
281.1870886363345
 20
589.3180067788632
 30
0
 42
0.01430393938712748
  0
VERTEX
  8
1
 10
281.7297487041265
 20
589.5431420974282
 30
0
 42
0.01731454526633964
  0
VERTEX
  8
1
 10
282.285014286835
 20
589.8158272125509
 30
0
 42
0.003504480622577032
  0
VERTEX
  8
1
 10
282.8324395472738
 20
590.1079118828723
 30
0
 42
-0.006277921058196068
  0
VERTEX
  8
1
 10
283.3799931425422
 20
590.3961989576317
 30
0
 42
-0.01631292714564969
  0
VERTEX
  8
1
 10
283.9356437297394
 20
590.6574912860679
 30
0
 42
-0.02662680848194901
  0
VERTEX
  8
1
 10
284.5073599659644
 20
590.8685917174198
 30
0
 42
-0.0207443617567437
  0
VERTEX
  8
1
 10
284.9348017952316
 20
590.9795846026948
 30
0
 42
-0.01631089988906999
  0
VERTEX
  8
1
 10
285.3719937396534
 20
591.059121865771
 30
0
 42
-0.01199063797499518
  0
VERTEX
  8
1
 10
285.8160902865404
 20
591.1142087881929
 30
0
 42
-0.007845844435771939
  0
VERTEX
  8
1
 10
286.2642459232031
 20
591.1518506515054
 30
0
 42
-0.003838265878771305
  0
VERTEX
  8
1
 10
286.7136151369521
 20
591.179052737253
 30
0
 42
-0.002306500364991173
  0
VERTEX
  8
1
 10
287.328502729323
 20
591.2094104251065
 30
0
 42
-0.001809730331393046
  0
VERTEX
  8
1
 10
287.9409307302771
 20
591.2345917708817
 30
0
 42
-0.001301101934872939
  0
VERTEX
  8
1
 10
288.5515140376685
 20
591.2558908600981
 30
0
 42
-0.0007840297044813543
  0
VERTEX
  8
1
 10
289.1608675493516
 20
591.2746017782755
 30
0
 42
-0.0002619039522320207
  0
VERTEX
  8
1
 10
289.7696061631804
 20
591.2920186109332
 30
0
  0
SEQEND
  8
1
  0
POLYLINE
  8
1
 62
3
 66
1
  0
VERTEX
  8
1
 10
269.7696061631805
 20
589.7920186109332
 30
0
 42
-0.0002378208917387218
  0
VERTEX
  8
1
 10
270.3991206901113
 20
589.7991853525172
 30
0
 42
-0.0007133573778257447
  0
VERTEX
  8
1
 10
271.0286941724091
 20
589.8051549164011
 30
0
 42
-0.00118855228716657
  0
VERTEX
  8
1
 10
271.6583855654412
 20
589.808730124885
 30
0
 42
-0.001663092466878691
  0
VERTEX
  8
1
 10
272.2882538245746
 20
589.8087138002686
 30
0
 42
-0.002136537293387555
  0
VERTEX
  8
1
 10
272.9183579051764
 20
589.8039087648519
 30
0
 42
-0.001865631803496593
  0
VERTEX
  8
1
 10
273.7306393692872
 20
589.7904385268473
 30
0
 42
0.0005141892359767397
  0
VERTEX
  8
1
 10
274.5429652300422
 20
589.7747718127841
 30
0
 42
0.002895590790665581
  0
VERTEX
  8
1
 10
275.3548904323701
 20
589.7646512023315
 30
0
 42
0.005289608783760502
  0
VERTEX
  8
1
 10
276.1659699211996
 20
589.7678192751583
 30
0
 42
0.007694918188084305
  0
VERTEX
  8
1
 10
276.9757586414594
 20
589.7920186109332
 30
0
 42
0.004343499979878093
  0
VERTEX
  8
1
 10
277.4077748791934
 20
589.8153490048802
 30
0
 42
0.0002859975223724363
  0
VERTEX
  8
1
 10
277.8397660720739
 20
589.8426916134229
 30
0
 42
-0.001341803219913012
  0
VERTEX
  8
1
 10
278.2722025734362
 20
589.8698466939135
 30
0
 42
-0.003766903632329022
  0
VERTEX
  8
1
 10
278.7055547366156
 20
589.8926145037044
 30
0
 42
-0.006169435875737522
  0
VERTEX
  8
1
 10
279.1402929149476
 20
589.9067953001475
 30
0
 42
-0.004876619092655604
  0
VERTEX
  8
1
 10
279.6106027076581
 20
589.9104128931091
 30
0
 42
0.001180039295826229
  0
VERTEX
  8
1
 10
280.0811419278076
 20
589.9105581583424
 30
0
 42
0.007259670784940895
  0
VERTEX
  8
1
 10
280.5499828508005
 20
589.9186173357413
 30
0
 42
0.01351855179286613
  0
VERTEX
  8
1
 10
281.0151977520417
 20
589.9459766651996
 30
0
 42
0.01992093400985228
  0
VERTEX
  8
1
 10
281.4748589069354
 20
590.0040223866113
 30
0
 42
0.03139252909787513
  0
VERTEX
  8
1
 10
282.1435119790129
 20
590.1593249824882
 30
0
 42
0.0133661253953893
  0
VERTEX
  8
1
 10
282.8013423551016
 20
590.3756528596232
 30
0
 42
0.008041575925549094
  0
VERTEX
  8
1
 10
283.4539483984141
 20
590.6216861998113
 30
0
 42
-0.006199739084885996
  0
VERTEX
  8
1
 10
284.1069284721638
 20
590.8661051848471
 30
0
 42
-0.01768287072620042
  0
VERTEX
  8
1
 10
284.7658809395634
 20
591.0775899965256
 30
0
 42
-0.03095415732670787
  0
VERTEX
  8
1
 10
285.7375625016727
 20
591.281869203755
 30
0
 42
-0.02393841117519087
  0
VERTEX
  8
1
 10
286.7286197188581
 20
591.3785527547525
 30
0
 42
-0.01676213531423603
  0
VERTEX
  8
1
 10
287.7342086773505
 20
591.394539563576
 30
0
 42
-0.009855059173450436
  0
VERTEX
  8
1
 10
288.749485463381
 20
591.3567285442836
 30
0
 42
-0.003245338130007474
  0
VERTEX
  8
1
 10
289.7696061631804
 20
591.2920186109332
 30
0
  0
SEQEND
  8
1
  0
POLYLINE
  8
1
 62
3
 66
1
  0
VERTEX
  8
1
 10
269.7696061631805
 20
590.7920186109332
 30
0
 42
-0.0002335519104040711
  0
VERTEX
  8
1
 10
270.3991474142251
 20
590.799099863002
 30
0
 42
-0.000700566386162848
  0
VERTEX
  8
1
 10
271.0287409396083
 20
590.8050053097495
 30
0
 42
-0.001167288473660987
  0
VERTEX
  8
1
 10
271.6584390136687
 20
590.8085591458545
 30
0
 42
-0.001633442215368907
  0
VERTEX
  8
1
 10
272.2882939107453
 20
590.8085855659957
 30
0
 42
-0.002098630678169885
  0
VERTEX
  8
1
 10
272.9183579051764
 20
590.8039087648519
 30
0
 42
-0.001836296502163158
  0
VERTEX
  8
1
 10
273.730548310915
 20
590.7907298194286
 30
0
 42
0.0004944346747798744
  0
VERTEX
  8
1
 10
274.5427781447006
 20
590.7753702923178
 30
0
 42
0.002826535781168384
  0
VERTEX
  8
1
 10
275.3546528492451
 20
590.7654112225267
 30
0
 42
0.005169687816600516
  0
VERTEX
  8
1
 10
276.1657778672607
 20
590.7684336490628
 30
0
 42
0.007522252505460432
  0
VERTEX
  8
1
 10
276.9757586414594
 20
590.7920186109332
 30
0
 42
0.004271185294160596
  0
VERTEX
  8
1
 10
277.4079420728473
 20
590.8148141581675
 30
0
 42
0.0004085886506457228
  0
VERTEX
  8
1
 10
277.8400867757504
 20
590.8416656934598
 30
0
 42
-0.00111884849439195
  0
VERTEX
  8
1
 10
278.2725931903084
 20
590.8685971240567
 30
0
 42
-0.003415133681197049
  0
VERTEX
  8
1
 10
278.705861756661
 20
590.8916323572038
 30
0
 42
-0.005694717497398748
  0
VERTEX
  8
1
 10
279.1402929149476
 20
590.9067953001475
 30
0
 42
-0.004574985681026283
  0
VERTEX
  8
1
 10
279.6100089183805
 20
590.9123124044596
 30
0
 42
0.0009489473353747581
  0
VERTEX
  8
1
 10
280.0799323640184
 20
590.914427511046
 30
0
 42
0.006488725918750079
  0
VERTEX
  8
1
 10
280.5484544071387
 20
590.9235067741228
 30
0
 42
0.01215971397500197
  0
VERTEX
  8
1
 10
281.0139662030186
 20
590.9499163479059
 30
0
 42
0.01793657943283968
  0
VERTEX
  8
1
 10
281.4748589069354
 20
591.0040223866113
 30
0
 42
0.02806143278918274
  0
VERTEX
  8
1
 10
282.1416419644687
 20
591.1453313731068
 30
0
 42
0.01206734519995144
  0
VERTEX
  8
1
 10
282.7995631875837
 20
591.3410032167443
 30
0
 42
0.007302900516351116
  0
VERTEX
  8
1
 10
283.4531950851949
 20
591.5632955254577
 30
0
 42
-0.005441792991494139
  0
VERTEX
  8
1
 10
284.1071101662168
 20
591.7844659071807
 30
0
 42
-0.01567352639388599
  0
VERTEX
  8
1
 10
284.7658809395634
 20
591.9767719698475
 30
0
 42
-0.02763614220692149
  0
VERTEX
  8
1
 10
285.7425245721294
 20
592.1666152035684
 30
0
 42
-0.02140139376491728
  0
VERTEX
  8
1
 10
286.7352358128002
 20
592.2599888746069
 30
0
 42
-0.0150476925577313
  0
VERTEX
  8
1
 10
287.7399977595499
 20
592.2810103736335
 30
0
 42
-0.008883408330637308
  0
VERTEX
  8
1
 10
288.752793510352
 20
592.2537970913189
 30
0
 42
-0.00293242685089646
  0
VERTEX
  8
1
 10
289.7696061631804
 20
592.2024664183338
 30
0
  0
SEQEND
  8
1
  0
POLYLINE
  8
1
 62
3
 66
1
  0
VERTEX
  8
1
 10
269.7696061631805
 20
594.7608564642744
 30
0
 42
-0.001460442418303929
  0
VERTEX
  8
1
 10
270.4026346793111
 20
594.7969560990043
 30
0
 42
-0.004397959821638198
  0
VERTEX
  8
1
 10
271.0348436535089
 20
594.8255889323846
 30
0
 42
-0.007379722782311327
  0
VERTEX
  8
1
 10
271.6654135438409
 20
594.8392881630659
 30
0
 42
-0.01041556889178634
  0
VERTEX
  8
1
 10
272.2935248083744
 20
594.8305869896985
 30
0
 42
-0.01348354552003585
  0
VERTEX
  8
1
 10
272.9183579051764
 20
594.7920186109332
 30
0
 42
-0.0185217485377096
  0
VERTEX
  8
1
 10
273.7415231174518
 20
594.6863871989358
 30
0
 42
-0.01562583280004502
  0
VERTEX
  8
1
 10
274.5581587999346
 20
594.5242889498522
 30
0
 42
-0.01270868136969335
  0
VERTEX
  8
1
 10
275.3689519499079
 20
594.3150064067675
 30
0
 42
-0.009851910915066662
  0
VERTEX
  8
1
 10
276.1745895646551
 20
594.0678221127662
 30
0
 42
-0.007085593377478065
  0
VERTEX
  8
1
 10
276.9757586414594
 20
593.7920186109332
 30
0
 42
-0.0001477941853299087
  0
VERTEX
  8
1
 10
277.4057228268912
 20
593.6365020049382
 30
0
 42
0.005767172918848065
  0
VERTEX
  8
1
 10
277.8358745206086
 20
593.4863451874185
 30
0
 42
0.01182779522993368
  0
VERTEX
  8
1
 10
278.2674975489591
 20
593.3525138986877
 30
0
 42
0.01824629362177353
  0
VERTEX
  8
1
 10
278.7018757382897
 20
593.2459738790586
 30
0
 42
0.02476807313301943
  0
VERTEX
  8
1
 10
279.1402929149476
 20
593.1776908688451
 30
0
 42
0.02753061669579351
  0
VERTEX
  8
1
 10
279.6011585728091
 20
593.1546587482092
 30
0
 42
0.01481336586050316
  0
VERTEX
  8
1
 10
280.0664111612304
 20
593.1708270374036
 30
0
 42
0.01190430324239323
  0
VERTEX
  8
1
 10
280.5346875199196
 20
593.2122221484083
 30
0
 42
0.002183927244968512
  0
VERTEX
  8
1
 10
281.0046244885851
 20
593.2648704932024
 30
0
 42
-0.005081831715223618
  0
VERTEX
  8
1
 10
281.4748589069354
 20
593.3147984837653
 30
0
 42
-0.01107023940342139
  0
VERTEX
  8
1
 10
282.135261440379
 20
593.3612463719182
 30
0
 42
-0.008484735428289855
  0
VERTEX
  8
1
 10
282.7940589887323
 20
593.3817237457245
 30
0
 42
-0.005824984950496886
  0
VERTEX
  8
1
 10
283.4517574736266
 20
593.383326623792
 30
0
 42
-0.003132588015246233
  0
VERTEX
  8
1
 10
284.1088628166933
 20
593.3731510247293
 30
0
 42
-0.0004300197768392865
  0
VERTEX
  8
1
 10
284.7658809395634
 20
593.3582929671452
 30
0
 42
0.001259723772489901
  0
VERTEX
  8
1
 10
285.7654645053109
 20
593.3383428733291
 30
0
 42
0.0009782375386082308
  0
VERTEX
  8
1
 10
286.7658223903758
 20
593.3228562612288
 30
0
 42
0.000698168922261036
  0
VERTEX
  8
1
 10
287.7667610149285
 20
593.3107172604153
 30
0
 42
0.000418432913498207
  0
VERTEX
  8
1
 10
288.7680867991398
 20
593.3008100004597
 30
0
 42
0.0001395634117045962
  0
VERTEX
  8
1
 10
289.7696061631804
 20
593.2920186109332
 30
0
  0
SEQEND
  8
1
  0
POLYLINE
  8
1
 62
3
 66
1
  0
VERTEX
  8
1
 10
269.7696061631805
 20
595.7920186109332
 30
0
 42
-0.001393915121848782
  0
VERTEX
  8
1
 10
270.4026414792886
 20
595.8204599157598
 30
0
 42
-0.004196304012241367
  0
VERTEX
  8
1
 10
271.0348555534694
 20
595.8417908943798
 30
0
 42
-0.007037433262233536
  0
VERTEX
  8
1
 10
271.6654271437957
 20
595.8489012205865
 30
0
 42
-0.00992602446920356
  0
VERTEX
  8
1
 10
272.2935350083405
 20
595.8346805681732
 30
0
 42
-0.01284330496735996
  0
VERTEX
  8
1
 10
272.9183579051764
 20
595.7920186109332
 30
0
 42
-0.01770265890839527
  0
VERTEX
  8
1
 10
273.7415376602847
 20
595.6834811423202
 30
0
 42
-0.01507171499069655
  0
VERTEX
  8
1
 10
274.5581764110487
 20
595.5207697665542
 30
0
 42
-0.01241504341048084
  0
VERTEX
  8
1
 10
275.3689653578868
 20
595.3123271250946
 30
0
 42
-0.009804710123062039
  0
VERTEX
  8
1
 10
276.1745957012175
 20
595.0665958594011
 30
0
 42
-0.00727083057697644
  0
VERTEX
  8
1
 10
276.9757586414594
 20
594.7920186109332
 30
0
 42
-0.0002864829083163976
  0
VERTEX
  8
1
 10
277.4057212914334
 20
594.6368088314875
 30
0
 42
0.005668233751030328
  0
VERTEX
  8
1
 10
277.835872607334
 20
594.4867275121407
 30
0
 42
0.01176641970728277
  0
VERTEX
  8
1
 10
278.2674960255964
 20
594.3528183083079
 30
0
 42
0.01822351206823442
  0
VERTEX
  8
1
 10
278.7018749826559
 20
594.2461248754041
 30
0
 42
0.02478922320324899
  0
VERTEX
  8
1
 10
279.1402929149476
 20
594.1776908688449
 30
0
 42
0.02758139801139863
  0
VERTEX
  8
1
 10
279.6011590173428
 20
594.154569918205
 30
0
 42
0.01483379378795601
  0
VERTEX
  8
1
 10
280.0664117220255
 20
594.1707149751508
 30
0
 42
0.01193127750229965
  0
VERTEX
  8
1
 10
280.5346879747095
 20
594.2121312689084
 30
0
 42
0.002190478925229352
  0
VERTEX
  8
1
 10
281.0046247211083
 20
594.2648240287044
 30
0
 42
-0.005086201687384401
  0
VERTEX
  8
1
 10
281.4748589069354
 20
594.3147984837653
 30
0
 42
-0.01108267781612257
  0
VERTEX
  8
1
 10
282.1352612428922
 20
594.3612858351752
 30
0
 42
-0.008493923054689446
  0
VERTEX
  8
1
 10
282.7940587379579
 20
594.38177385732
 30
0
 42
-0.005830763332959619
  0
VERTEX
  8
1
 10
283.4517572683079
 20
594.383367652098
 30
0
 42
-0.003134911106270791
  0
VERTEX
  8
1
 10
284.1088627101179
 20
594.373172321407
 30
0
 42
-0.0004288851267208833
  0
VERTEX
  8
1
 10
284.7658809395634
 20
594.3582929671452
 30
0
 42
0.001263637240786632
  0
VERTEX
  8
1
 10
285.7654646096791
 20
594.338322017709
 30
0
 42
0.0009812774419892178
  0
VERTEX
  8
1
 10
286.7658225295333
 20
594.3228284537352
 30
0
 42
0.0007003385918928816
  0
VERTEX
  8
1
 10
287.7667611366913
 20
594.3106929288584
 30
0
 42
0.0004197335021923884
  0
VERTEX
  8
1
 10
288.7680868687186
 20
594.3007960967129
 30
0
 42
0.000139997076806183
  0
VERTEX
  8
1
 10
289.7696061631804
 20
594.2920186109332
 30
0
  0
SEQEND
  8
1
  0
POLYLINE
  8
1
 62
3
 66
1
  0
VERTEX
  8
1
 10
269.7696061631805
 20
597.2860589895641
 30
0
 42
-0.001487848289170115
  0
VERTEX
  8
1
 10
270.4016995575796
 20
597.3175369201834
 30
0
 42
-0.004476505034066032
  0
VERTEX
  8
1
 10
271.0332071904786
 20
597.3414433492164
 30
0
 42
-0.007497884543505631
  0
VERTEX
  8
1
 10
271.6635433003777
 20
597.3502067750766
 30
0
 42
-0.01055265308887286
  0
VERTEX
  8
1
 10
272.292122125777
 20
597.3362556961777
 30
0
 42
-0.01360823765803798
  0
VERTEX
  8
1
 10
272.9183579051764
 20
597.2920186109332
 30
0
 42
-0.01778042054226882
  0
VERTEX
  8
1
 10
273.6730383763182
 20
597.189764872388
 30
0
 42
-0.01672861272989912
  0
VERTEX
  8
1
 10
274.4210168416352
 20
597.0352773721736
 30
0
 42
-0.01573533131195777
  0
VERTEX
  8
1
 10
275.1598922988
 20
596.8319167412318
 30
0
 42
-0.01482389590192998
  0
VERTEX
  8
1
 10
275.8872637454855
 20
596.5830436105043
 30
0
 42
-0.0140093933349906
  0
VERTEX
  8
1
 10
276.6007301793644
 20
596.2920186109332
 30
0
 42
-0.005755986491435337
  0
VERTEX
  8
1
 10
277.0637023407647
 20
596.0803979544021
 30
0
 42
0.0007264045256057387
  0
VERTEX
  8
1
 10
277.5235487059519
 20
595.8645849540826
 30
0
 42
0.00726623580359087
  0
VERTEX
  8
1
 10
277.9842491458341
 20
595.6572913118101
 30
0
 42
0.01402911607767871
  0
VERTEX
  8
1
 10
278.4497835313196
 20
595.4712287294198
 30
0
 42
0.02092265011918723
  0
VERTEX
  8
1
 10
278.9241317333165
 20
595.3191089087466
 30
0
 42
0.02585205553202312
  0
VERTEX
  8
1
 10
279.4702028608884
 20
595.1988308588083
 30
0
 42
0.01307870543547824
  0
VERTEX
  8
1
 10
280.0280923173158
 20
595.1208090575817
 30
0
 42
0.01031549261542004
  0
VERTEX
  8
1
 10
280.5935079070383
 20
595.0685498524
 30
0
 42
0.0004827589533747246
  0
VERTEX
  8
1
 10
281.1621574344953
 20
595.0255595905965
 30
0
 42
-0.006885535425796487
  0
VERTEX
  8
1
 10
281.7297487041265
 20
594.9753446195045
 30
0
 42
-0.008649353238227339
  0
VERTEX
  8
1
 10
282.2891810027222
 20
594.9061552621751
 30
0
 42
-0.00480572994050829
  0
VERTEX
  8
1
 10
282.8449967349407
 20
594.8221617431126
 30
0
 42
-0.0009220831191181783
  0
VERTEX
  8
1
 10
283.3988574440452
 20
594.7319575653897
 30
0
 42
0.002980105104859299
  0
VERTEX
  8
1
 10
283.9524246732988
 20
594.6441362320785
 30
0
 42
0.006887240875836191
  0
VERTEX
  8
1
 10
284.5073599659644
 20
594.5672912462513
 30
0
 42
0.007194387540858188
  0
VERTEX
  8
1
 10
284.9464900483547
 20
594.5190410718861
 30
0
 42
0.004252160957131729
  0
VERTEX
  8
1
 10
285.3870909485532
 20
594.4808138115959
 30
0
 42
0.004734714785717432
  0
VERTEX
  8
1
 10
285.8287523246555
 20
594.4504809623247
 30
0
 42
0.001808389311781275
  0
VERTEX
  8
1
 10
286.2710638347567
 20
594.4259140210161
 30
0
 42
0.002305351000520321
  0
VERTEX
  8
1
 10
286.7136151369521
 20
594.4049844846138
 30
0
 42
3.675170155520872e-005
  0
VERTEX
  8
1
 10
287.3252044298473
 20
594.3789312481125
 30
0
 42
0.001837690898765212
  0
VERTEX
  8
1
 10
287.9365329976428
 20
594.3551847194547
 30
0
 42
0.0005865993101173449
  0
VERTEX
  8
1
 10
288.5476660216135
 20
594.3331682216794
 30
0
 42
0.0003522223081723937
  0
VERTEX
  8
1
 10
289.1586686830344
 20
594.3123050778258
 30
0
 42
0.0001173843011954803
  0
VERTEX
  8
1
 10
289.7696061631804
 20
594.2920186109332
 30
0
  0
SEQEND
  8
1
  0
POLYLINE
  8
1
 62
3
 66
1
  0
VERTEX
  8
1
 10
269.7696061631805
 20
598.2860589895641
 30
0
 42
-0.001487848289170115
  0
VERTEX
  8
1
 10
270.4016995575796
 20
598.3175369201834
 30
0
 42
-0.004476505034066032
  0
VERTEX
  8
1
 10
271.0332071904786
 20
598.3414433492164
 30
0
 42
-0.007497884543505631
  0
VERTEX
  8
1
 10
271.6635433003777
 20
598.3502067750766
 30
0
 42
-0.01055265308887286
  0
VERTEX
  8
1
 10
272.292122125777
 20
598.3362556961777
 30
0
 42
-0.01360823765839932
  0
VERTEX
  8
1
 10
272.9183579051764
 20
598.2920186109332
 30
0
 42
-0.01778042054226882
  0
VERTEX
  8
1
 10
273.6730383763182
 20
598.189764872388
 30
0
 42
-0.01672861273004549
  0
VERTEX
  8
1
 10
274.4210168416352
 20
598.0352773721735
 30
0
 42
-0.01573533131210059
  0
VERTEX
  8
1
 10
275.1598922988
 20
597.8319167412318
 30
0
 42
-0.01482389590192998
  0
VERTEX
  8
1
 10
275.8872637454855
 20
597.5830436105043
 30
0
 42
-0.0140093933349906
  0
VERTEX
  8
1
 10
276.6007301793644
 20
597.2920186109332
 30
0
 42
-0.00575598649184147
  0
VERTEX
  8
1
 10
277.0637023407647
 20
597.0803979544021
 30
0
 42
0.0007264045256057387
  0
VERTEX
  8
1
 10
277.5235487059519
 20
596.8645849540826
 30
0
 42
0.00726623580359087
  0
VERTEX
  8
1
 10
277.9842491458341
 20
596.6572913118101
 30
0
 42
0.01402911607767871
  0
VERTEX
  8
1
 10
278.4497835313196
 20
596.4712287294198
 30
0
 42
0.02092265011918723
  0
VERTEX
  8
1
 10
278.9241317333165
 20
596.3191089087466
 30
0
 42
0.02585205553202312
  0
VERTEX
  8
1
 10
279.4702028608884
 20
596.1988308588083
 30
0
 42
0.01307870543547824
  0
VERTEX
  8
1
 10
280.0280923173158
 20
596.1208090575817
 30
0
 42
0.01031549261542004
  0
VERTEX
  8
1
 10
280.5935079070383
 20
596.0685498524
 30
0
 42
0.000482758953573399
  0
VERTEX
  8
1
 10
281.1621574344953
 20
596.0255595905966
 30
0
 42
-0.006885535425598192
  0
VERTEX
  8
1
 10
281.7297487041265
 20
595.9753446195045
 30
0
 42
-0.008649353238227339
  0
VERTEX
  8
1
 10
282.2891810027222
 20
595.9061552621751
 30
0
 42
-0.00480572994050829
  0
VERTEX
  8
1
 10
282.8449967349407
 20
595.8221617431126
 30
0
 42
-0.0009220831191181783
  0
VERTEX
  8
1
 10
283.3988574440452
 20
595.7319575653897
 30
0
 42
0.002980105105259982
  0
VERTEX
  8
1
 10
283.9524246732988
 20
595.6441362320785
 30
0
 42
0.006887240875435493
  0
VERTEX
  8
1
 10
284.5073599659644
 20
595.5672912462513
 30
0
 42
0.007194387541260165
  0
VERTEX
  8
1
 10
284.9464900483547
 20
595.5190410718861
 30
0
 42
0.004252160956730043
  0
VERTEX
  8
1
 10
285.3870909485532
 20
595.4808138115959
 30
0
 42
0.004734714786119009
  0
VERTEX
  8
1
 10
285.8287523246555
 20
595.4504809623247
 30
0
 42
0.001808389311507549
  0
VERTEX
  8
1
 10
286.2710638347567
 20
595.4259140210162
 30
0
 42
0.002305351000537696
  0
VERTEX
  8
1
 10
286.7136151369521
 20
595.4049844846138
 30
0
 42
3.675170166589795e-005
  0
VERTEX
  8
1
 10
287.3252044298473
 20
595.3789312481125
 30
0
 42
0.001837690898747226
  0
VERTEX
  8
1
 10
287.9365329976428
 20
595.3551847194548
 30
0
 42
0.0005865993103030854
  0
VERTEX
  8
1
 10
288.5476660216135
 20
595.3331682216794
 30
0
 42
0.0003522223080795235
  0
VERTEX
  8
1
 10
289.1586686830344
 20
595.3123050778258
 30
0
 42
0.0001173843012883505
  0
VERTEX
  8
1
 10
289.7696061631804
 20
595.2920186109332
 30
0
  0
SEQEND
  8
1
  0
POLYLINE
  8
1
 62
3
 66
1
  0
VERTEX
  8
1
 10
269.7696061631805
 20
599.7920186109332
 30
0
 42
-0.002401515546248756
  0
VERTEX
  8
1
 10
270.5140832251594
 20
599.8503267914857
 30
0
 42
-0.007270061773778955
  0
VERTEX
  8
1
 10
271.2561812678447
 20
599.8940579269
 30
0
 42
-0.012311492837111
  0
VERTEX
  8
1
 10
271.9935212719429
 20
599.908634972038
 30
0
 42
-0.01755354876944954
  0
VERTEX
  8
1
 10
272.7237242181603
 20
599.8794808817619
 30
0
 42
-0.02286882021850832
  0
VERTEX
  8
1
 10
273.4444110872034
 20
599.7920186109332
 30
0
 42
-0.02422950548649232
  0
VERTEX
  8
1
 10
274.2140842265305
 20
599.6206954679165
 30
0
 42
-0.01734588071493603
  0
VERTEX
  8
1
 10
274.9728355056677
 20
599.3841960825303
 30
0
 42
-0.01066198829471843
  0
VERTEX
  8
1
 10
275.7237549955942
 20
599.1031999907359
 30
0
 42
-0.004244675796663186
  0
VERTEX
  8
1
 10
276.4699327672885
 20
598.7983867284949
 30
0
 42
0.002052424583912618
  0
VERTEX
  8
1
 10
277.2144588917295
 20
598.490435831769
 30
0
 42
0.006058712418569165
  0
VERTEX
  8
1
 10
278.0110006847316
 20
598.1760029092557
 30
0
 42
0.001620781603893764
  0
VERTEX
  8
1
 10
278.8086901007133
 20
597.8751934207194
 30
0
 42
0.002483729581395132
  0
VERTEX
  8
1
 10
279.607032283231
 20
597.5816003934397
 30
0
 42
-0.0006697605109174416
  0
VERTEX
  8
1
 10
280.4055323758411
 20
597.2888168546963
 30
0
 42
-0.002478661273063648
  0
VERTEX
  8
1
 10
281.2036955220995
 20
596.990435831769
 30
0
 42
-0.001095647322579398
  0
VERTEX
  8
1
 10
281.8810400954816
 20
596.7303100363108
 30
0
 42
0.002424872975956359
  0
VERTEX
  8
1
 10
282.5597160584457
 20
596.4717424323289
 30
0
 42
0.005958294520634191
  0
VERTEX
  8
1
 10
283.2416543030361
 20
596.2249431436037
 30
0
 42
0.009559540633558839
  0
VERTEX
  8
1
 10
283.9287857212973
 20
596.0001222939154
 30
0
 42
0.01321742970659297
  0
VERTEX
  8
1
 10
284.6230412052735
 20
595.8074900070444
 30
0
 42
0.02072492854085364
  0
VERTEX
  8
1
 10
285.6301489660513
 20
595.6004225623282
 30
0
 42
0.01367359041621282
  0
VERTEX
  8
1
 10
286.6520602140315
 20
595.4626705612745
 30
0
 42
0.01190594914420615
  0
VERTEX
  8
1
 10
287.6850740774135
 20
595.376905142968
 30
0
 42
0.004970428984251945
  0
VERTEX
  8
1
 10
288.7254896843966
 20
595.3257974464927
 30
0
 42
0.003400932166337356
  0
VERTEX
  8
1
 10
289.7696061631804
 20
595.2920186109332
 30
0
  0
SEQEND
  8
1
  0
POLYLINE
  8
1
 62
3
 66
1
  0
VERTEX
  8
1
 10
269.7696061631805
 20
600.7920186109332
 30
0
 42
-0.002401515546248756
  0
VERTEX
  8
1
 10
270.5140832251594
 20
600.8503267914857
 30
0
 42
-0.007270061773931731
  0
VERTEX
  8
1
 10
271.2561812678447
 20
600.8940579268999
 30
0
 42
-0.01231149283711011
  0
VERTEX
  8
1
 10
271.9935212719429
 20
600.9086349720382
 30
0
 42
-0.01755354876898333
  0
VERTEX
  8
1
 10
272.7237242181603
 20
600.8794808817619
 30
0
 42
-0.02286882021850832
  0
VERTEX
  8
1
 10
273.4444110872034
 20
600.7920186109332
 30
0
 42
-0.02422950548635391
  0
VERTEX
  8
1
 10
274.2140842265305
 20
600.6206954679166
 30
0
 42
-0.01734588071479987
  0
VERTEX
  8
1
 10
274.9728355056677
 20
600.3841960825303
 30
0
 42
-0.01066198829471843
  0
VERTEX
  8
1
 10
275.7237549955942
 20
600.1031999907359
 30
0
 42
-0.0042446757965324
  0
VERTEX
  8
1
 10
276.4699327672885
 20
599.798386728495
 30
0
 42
0.002052424584042959
  0
VERTEX
  8
1
 10
277.2144588917295
 20
599.490435831769
 30
0
 42
0.006058712418503825
  0
VERTEX
  8
1
 10
278.0110006847316
 20
599.1760029092557
 30
0
 42
0.001620781603959378
  0
VERTEX
  8
1
 10
278.8086901007133
 20
598.8751934207194
 30
0
 42
0.002483729581329462
  0
VERTEX
  8
1
 10
279.607032283231
 20
598.5816003934397
 30
0
 42
-0.0006697605109174416
  0
VERTEX
  8
1
 10
280.4055323758411
 20
598.2888168546963
 30
0
 42
-0.002478661273313449
  0
VERTEX
  8
1
 10
281.2036955220995
 20
597.990435831769
 30
0
 42
-0.001095647322579398
  0
VERTEX
  8
1
 10
281.8810400954816
 20
597.7303100363108
 30
0
 42
0.002424872975956359
  0
VERTEX
  8
1
 10
282.5597160584457
 20
597.4717424323289
 30
0
 42
0.005958294520634191
  0
VERTEX
  8
1
 10
283.2416543030361
 20
597.2249431436037
 30
0
 42
0.009559540633558839
  0
VERTEX
  8
1
 10
283.9287857212973
 20
597.0001222939154
 30
0
 42
0.01321742970659297
  0
VERTEX
  8
1
 10
284.6230412052735
 20
596.8074900070444
 30
0
 42
0.02072492854079949
  0
VERTEX
  8
1
 10
285.6301489660513
 20
596.6004225623281
 30
0
 42
0.01367359041637578
  0
VERTEX
  8
1
 10
286.6520602140315
 20
596.4626705612745
 30
0
 42
0.0119059491439879
  0
VERTEX
  8
1
 10
287.6850740774135
 20
596.376905142968
 30
0
 42
0.004970428984470387
  0
VERTEX
  8
1
 10
288.7254896843966
 20
596.3257974464927
 30
0
 42
0.00340093216611914
  0
VERTEX
  8
1
 10
289.7696061631804
 20
596.2920186109332
 30
0
  0
SEQEND
  8
1
  0
POLYLINE
  8
1
 62
3
 66
1
  0
VERTEX
  8
1
 10
269.7696061631805
 20
602.2920186109332
 30
0
 42
-0.001282843573457472
  0
VERTEX
  8
1
 10
270.6789117004745
 20
602.1882922707262
 30
0
 42
-0.003855547891276556
  0
VERTEX
  8
1
 10
271.5862769765567
 20
602.0753338544296
 30
0
 42
-0.006445299873666027
  0
VERTEX
  8
1
 10
272.4897617302149
 20
601.9439112859539
 30
0
 42
-0.009049879607813137
  0
VERTEX
  8
1
 10
273.3874257002375
 20
601.7847924892092
 30
0
 42
-0.01164617623653975
  0
VERTEX
  8
1
 10
274.2773286254125
 20
601.588745388106
 30
0
 42
-0.008743508454775204
  0
VERTEX
  8
1
 10
274.893681021875
 20
601.4256621100421
 30
0
 42
-0.008173065875485011
  0
VERTEX
  8
1
 10
275.5048161572238
 20
601.2416306676419
 30
0
 42
-0.007621914706693393
  0
VERTEX
  8
1
 10
276.1102556740067
 20
601.0382513652584
 30
0
 42
-0.007091699757811327
  0
VERTEX
  8
1
 10
276.7095212147717
 20
600.817124507244
 30
0
 42
-0.006583037128347628
  0
VERTEX
  8
1
 10
277.3021344220664
 20
600.5798503979515
 30
0
 42
-0.008713060780532175
  0
VERTEX
  8
1
 10
278.2609279883953
 20
600.1603980835412
 30
0
 42
-0.00529544189174893
  0
VERTEX
  8
1
 10
279.2071353000965
 20
599.7144558546629
 30
0
 42
-0.001863754328290403
  0
VERTEX
  8
1
 10
280.1473936924577
 20
599.2547508299886
 30
0
 42
0.001562292244544613
  0
VERTEX
  8
1
 10
281.0883405007659
 20
598.7940101281897
 30
0
 42
0.0049769959687576
  0
VERTEX
  8
1
 10
282.0366130603084
 20
598.3449608679377
 30
0
 42
0.006696095144193517
  0
VERTEX
  8
1
 10
282.8401963208983
 20
597.987148661824
 30
0
 42
0.007803666421447566
  0
VERTEX
  8
1
 10
283.6538126629307
 20
597.6527883076365
 30
0
 42
0.01011296588894609
  0
VERTEX
  8
1
 10
284.4777123672559
 20
597.3482235555211
 30
0
 42
0.01131361176751187
  0
VERTEX
  8
1
 10
285.3121457147241
 20
597.0797981556244
 30
0
 42
0.02500283413407264
  0
VERTEX
  8
1
 10
286.8705972355253
 20
596.7007143360858
 30
0
 42
0.007638934575905716
  0
VERTEX
  8
1
 10
287.5899744089047
 20
596.574755529129
 30
0
 42
0.006629896808378001
  0
VERTEX
  8
1
 10
288.3139587753135
 20
596.4691837584596
 30
0
 42
0.002849043767531486
  0
VERTEX
  8
1
 10
289.041014603742
 20
596.3772033453151
 30
0
 42
0.001877809742529408
  0
VERTEX
  8
1
 10
289.7696061631804
 20
596.2920186109332
 30
0
  0
SEQEND
  8
1
  0
POLYLINE
  8
1
 62
3
 66
1
  0
VERTEX
  8
1
 10
269.7696061631805
 20
603.2920186109332
 30
0
 42
-0.001282843573457472
  0
VERTEX
  8
1
 10
270.6789117004745
 20
603.1882922707262
 30
0
 42
-0.003855547891276556
  0
VERTEX
  8
1
 10
271.5862769765567
 20
603.0753338544296
 30
0
 42
-0.006445299873666027
  0
VERTEX
  8
1
 10
272.4897617302149
 20
602.9439112859539
 30
0
 42
-0.009049879607935272
  0
VERTEX
  8
1
 10
273.3874257002375
 20
602.7847924892091
 30
0
 42
-0.01164617623666255
  0
VERTEX
  8
1
 10
274.2773286254125
 20
602.588745388106
 30
0
 42
-0.008743508454946413
  0
VERTEX
  8
1
 10
274.893681021875
 20
602.425662110042
 30
0
 42
-0.008173065875655331
  0
VERTEX
  8
1
 10
275.5048161572238
 20
602.2416306676419
 30
0
 42
-0.007621914706862379
  0
VERTEX
  8
1
 10
276.1102556740067
 20
602.0382513652583
 30
0
 42
-0.007091699757979645
  0
VERTEX
  8
1
 10
276.7095212147717
 20
601.817124507244
 30
0
 42
-0.006583037128347628
  0
VERTEX
  8
1
 10
277.3021344220664
 20
601.5798503979515
 30
0
 42
-0.008713060780332986
  0
VERTEX
  8
1
 10
278.2609279883953
 20
601.1603980835412
 30
0
 42
-0.00529544189174893
  0
VERTEX
  8
1
 10
279.2071353000965
 20
600.7144558546629
 30
0
 42
-0.001863754328290403
  0
VERTEX
  8
1
 10
280.1473936924577
 20
600.2547508299886
 30
0
 42
0.001562292244739569
  0
VERTEX
  8
1
 10
281.0883405007659
 20
599.7940101281897
 30
0
 42
0.004976995968562751
  0
VERTEX
  8
1
 10
282.0366130603084
 20
599.3449608679377
 30
0
 42
0.006696095144388481
  0
VERTEX
  8
1
 10
282.8401963208983
 20
598.987148661824
 30
0
 42
0.007803666421251711
  0
VERTEX
  8
1
 10
283.6538126629307
 20
598.6527883076365
 30
0
 42
0.01011296588914339
  0
VERTEX
  8
1
 10
284.4777123672559
 20
598.3482235555211
 30
0
 42
0.0113136117673145
  0
VERTEX
  8
1
 10
285.3121457147241
 20
598.0797981556244
 30
0
 42
0.0250028341342691
  0
VERTEX
  8
1
 10
286.8705972355253
 20
597.7007143360858
 30
0
 42
0.007638934575633362
  0
VERTEX
  8
1
 10
287.5899744089047
 20
597.5747555291289
 30
0
 42
0.00662989680880379
  0
VERTEX
  8
1
 10
288.3139587753135
 20
597.4691837584596
 30
0
 42
0.002849043767028328
  0
VERTEX
  8
1
 10
289.041014603742
 20
597.3772033453151
 30
0
 42
0.001877809743032508
  0
VERTEX
  8
1
 10
289.7696061631804
 20
597.2920186109332
 30
0
  0
SEQEND
  8
1
  0
POLYLINE
  8
1
 62
3
 66
1
  0
VERTEX
  8
1
 10
307.4385511811897
 20
597.2920186109332
 30
0
 42
0.006401683006022031
  0
VERTEX
  8
1
 10
306.9429697929834
 20
596.4678884419169
 30
0
 42
0.02019686451646217
  0
VERTEX
  8
1
 10
306.508483503636
 20
595.6497908151547
 30
0
 42
0.03911197960764185
  0
VERTEX
  8
1
 10
306.1961874120066
 20
594.8437582729007
 30
0
 42
0.06467125169452891
  0
VERTEX
  8
1
 10
306.0671766169541
 20
594.0558233574088
 30
0
 42
0.09177780810707602
  0
VERTEX
  8
1
 10
306.1825462173376
 20
593.2920186109332
 30
0
 42
0.06213484501141616
  0
VERTEX
  8
1
 10
306.4794862248505
 20
592.688235897097
 30
0
 42
0.01032167272018504
  0
VERTEX
  8
1
 10
306.8866112825278
 20
592.095458768297
 30
0
 42
-0.008968366807487499
  0
VERTEX
  8
1
 10
307.310341274555
 20
591.5045729964149
 30
0
 42
-0.04086910226536083
  0
VERTEX
  8
1
 10
307.6570960851175
 20
590.906464353333
 30
0
 42
-0.08398492570951115
  0
VERTEX
  8
1
 10
307.8332955984006
 20
590.2920186109332
 30
0
 42
-0.05745879019271401
  0
VERTEX
  8
1
 10
307.8235183979679
 20
589.903524795817
 30
0
 42
-0.04092577827202221
  0
VERTEX
  8
1
 10
307.7341332764928
 20
589.5073601907783
 30
0
 42
-0.02623680826023368
  0
VERTEX
  8
1
 10
307.5850422142361
 20
589.1054424932977
 30
0
 42
-0.01444012508587594
  0
VERTEX
  8
1
 10
307.3961471914582
 20
588.6996894008557
 30
0
 42
-0.00459569819291709
  0
VERTEX
  8
1
 10
307.1873501884197
 20
588.2920186109332
 30
0
  0
SEQEND
  8
1
  0
POLYLINE
  8
1
 62
3
 66
1
  0
VERTEX
  8
1
 10
308.2998117278306
 20
597.2920186109332
 30
0
 42
0.005610045220866991
  0
VERTEX
  8
1
 10
307.8206472541792
 20
596.6904898740561
 30
0
 42
0.01766205651856116
  0
VERTEX
  8
1
 10
307.3859136011094
 20
596.0893433213984
 30
0
 42
0.03408297587063117
  0
VERTEX
  8
1
 10
307.0400415892032
 20
595.4889611371791
 30
0
 42
0.05686596115230394
  0
VERTEX
  8
1
 10
306.8274620390424
 20
594.8897255056176
 30
0
 42
0.08472232245217677
  0
VERTEX
  8
1
 10
306.7926057712086
 20
594.2920186109332
 30
0
 42
0.1038365951308816
  0
VERTEX
  8
1
 10
307.0530141632393
 20
593.5001740341278
 30
0
 42
0.01466668619491546
  0
VERTEX
  8
1
 10
307.5430682168696
 20
592.7079770810817
 30
0
 42
0.01363408149571276
  0
VERTEX
  8
1
 10
308.1002902830899
 20
591.9117024164384
 30
0
 42
-0.04258924877931501
  0
VERTEX
  8
1
 10
308.5622027128906
 20
591.1076247048411
 30
0
 42
-0.09880128485624926
  0
VERTEX
  8
1
 10
308.7663278572616
 20
590.2920186109332
 30
0
 42
-0.05425642054205971
  0
VERTEX
  8
1
 10
308.7313959324061
 20
589.8962212163586
 30
0
 42
-0.03886192777711239
  0
VERTEX
  8
1
 10
308.6192715603462
 20
589.4976220848337
 30
0
 42
-0.02511887737143349
  0
VERTEX
  8
1
 10
308.4492528528829
 20
589.0969216505962
 30
0
 42
-0.01391435860742115
  0
VERTEX
  8
1
 10
308.2406379218173
 20
588.6948203478834
 30
0
 42
-0.004443253589431816
  0
VERTEX
  8
1
 10
308.0127248789506
 20
588.2920186109332
 30
0
  0
SEQEND
  8
1
  0
ARC
  8
1
 62
3
 10
396.513410958327
 20
448.9352707466994
 30
0
 40
7
 50
180
 51
270
  0
ARC
  8
1
 62
3
 10
462.513410958327
 20
448.9352707466994
 30
0
 40
7
 50
270
 51
0
  0
ARC
  8
1
 62
3
 10
462.513410958327
 20
514.9352707466994
 30
0
 40
7
 50
0
 51
90
  0
ARC
  8
1
 62
3
 10
396.513410958327
 20
514.9352707466994
 30
0
 40
7
 50
90
 51
180
  0
ARC
  8
1
 62
3
 10
307.1433336913502
 20
337.1033687308682
 30
0
 40
0.5
 50
90
 51
180
  0
ARC
  8
1
 62
3
 10
307.1433336913502
 20
400.1033687308683
 30
0
 40
0.5
 50
180
 51
270
  0
ARC
  8
1
 62
3
 10
335.34303369135
 20
339.8033687308681
 30
0
 40
2.200000000000102
 50
270
 51
0
  0
ARC
  8
1
 62
3
 10
335.34303369135
 20
397.403368730868
 30
0
 40
2.200000000000216
 50
0
 51
90
  0
ARC
  8
1
 62
3
 10
307.1433336913502
 20
337.1033687308682
 30
0
 40
0.5
 50
90
 51
156.421821521851
  0
ARC
  8
1
 62
3
 10
416.2010799686021
 20
494.7079967463724
 30
0
 40
1
 50
180
 51
270
  0
ARC
  8
1
 62
3
 10
416.2010799686021
 20
504.7079967463724
 30
0
 40
1
 50
90
 51
180
  0
ARC
  8
1
 62
3
 10
442.201079968602
 20
504.7079967463724
 30
0
 40
1
 50
0
 51
90
  0
ARC
  8
1
 62
3
 10
442.201079968602
 20
494.7079967463724
 30
0
 40
1
 50
270
 51
0
  0
ARC
  8
1
 62
3
 10
436.0127971855933
 20
512.5529127199147
 30
0
 40
0.8000000000000114
 50
180
 51
190.7103357656738
  0
ARC
  8
1
 62
3
 10
411.4285309594829
 20
445.9993908534714
 30
0
 40
0.03119999999967944
 50
352.541550943776
 51
45.00000000036906
  0
ARC
  8
1
 62
3
 10
411.4285309594829
 20
445.8725952182368
 30
0
 40
0.03119999999991645
 50
314.9999999996309
 51
7.458449056120534
  0
ARC
  8
1
 62
3
 10
411.9761965508795
 20
446.4202608096337
 30
0
 40
0.03120000000016457
 50
262.5415509442084
 51
314.9999999999262
  0
ARC
  8
1
 62
3
 10
411.8494009156449
 20
446.4202608096337
 30
0
 40
0.03119999999995665
 50
225.0000000002952
 51
277.4584490566196
  0
ARC
  8
1
 62
3
 10
412.3970665070418
 20
445.8725952182368
 30
0
 40
0.03120000000001024
 50
172.5415509439608
 51
225
  0
ARC
  8
1
 62
3
 10
412.3970665070418
 20
445.9993908534714
 30
0
 40
0.03120000000011743
 50
135
 51
187.4584490561427
  0
ARC
  8
1
 62
3
 10
411.8494009156449
 20
445.4517252620745
 30
0
 40
0.0312000000002236
 50
82.54155094338039
 51
134.9999999997047
  0
ARC
  8
1
 62
3
 10
411.9761965508795
 20
445.4517252620745
 30
0
 40
0.03120000000011743
 50
45
 51
97.45844905579156
  0
ARC
  8
1
 62
3
 10
446.6285278641453
 20
445.9993908534713
 30
0
 40
0.0311999999997358
 50
352.5415509437895
 51
45.00000000029525
  0
ARC
  8
1
 62
3
 10
446.6285278641453
 20
445.8725952182367
 30
0
 40
0.03119999999995665
 50
314.9999999997047
 51
7.458449056106983
  0
ARC
  8
1
 62
3
 10
447.1761934555421
 20
446.4202608096336
 30
0
 40
0.03120000000019408
 50
262.5415509437944
 51
314.9999999996309
  0
ARC
  8
1
 62
3
 10
447.0493978203074
 20
446.4202608096336
 30
0
 40
0.03120000000003704
 50
225.0000000001477
 51
277.4584490564126
  0
ARC
  8
1
 62
3
 10
447.5970634117044
 20
445.8725952182367
 30
0
 40
0.03120000000012297
 50
172.5415509439879
 51
224.9999999998524
  0
ARC
  8
1
 62
3
 10
447.5970634117044
 20
445.9993908534713
 30
0
 40
0.03120000000019781
 50
135.0000000001476
 51
187.4584490561156
  0
ARC
  8
1
 62
3
 10
447.0493978203074
 20
445.4517252620744
 30
0
 40
0.03120000000020884
 50
82.5415509435874
 51
134.9999999998524
  0
ARC
  8
1
 62
3
 10
447.1761934555421
 20
445.4517252620744
 30
0
 40
0.03119999999999684
 50
45.00000000022143
 51
97.4584490562056
  0
ARC
  8
1
 62
3
 10
424.6227971855936
 20
513.9252707466994
 30
0
 40
0.009999999999990905
 50
90
 51
180
  0
ARC
  8
1
 62
3
 10
434.4027971855934
 20
513.9252707466994
 30
0
 40
0.009999999999990905
 50
0
 51
90
  0
ARC
  8
1
 62
3
 10
411.0127971855933
 20
442.9352707466996
 30
0
 40
1
 50
180
 51
270
  0
ARC
  8
1
 62
3
 10
448.0127971855924
 20
442.9352707466995
 30
0
 40
1.000000000000966
 50
270
 51
0
  0
ARC
  8
1
 62
3
 10
411.2127971855933
 20
450.4352843121481
 30
0
 40
2
 50
180
 51
233.1301023541576
  0
ARC
  8
1
 62
3
 10
454.0127971855933
 20
443.6852707466989
 30
0
 40
1.5
 50
270
 51
0
  0
ARC
  8
1
 62
3
 10
405.0127971855932
 20
443.685270746699
 30
0
 40
1.5
 50
180
 51
270
  0
ARC
  8
1
 62
3
 10
393.0127971855932
 20
457.435270746699
 30
0
 40
1.5
 50
180
 51
270
  0
ARC
  8
1
 62
3
 10
466.0127971855933
 20
457.4352707466989
 30
0
 40
1.5
 50
270
 51
0
  0
ARC
  8
1
 62
3
 10
466.0127971855933
 20
506.4352707466995
 30
0
 40
1.5
 50
0
 51
90
  0
ARC
  8
1
 62
3
 10
454.0127971855933
 20
518.4352707466994
 30
0
 40
1.5
 50
0
 51
90
  0
ARC
  8
1
 62
3
 10
405.0127971855932
 20
518.4352707466994
 30
0
 40
1.5
 50
90
 51
180
  0
ARC
  8
1
 62
3
 10
393.0127971855932
 20
506.4352707466995
 30
0
 40
1.5
 50
90
 51
180
  0
ARC
  8
1
 62
3
 10
458.5127971855933
 20
510.9352707466995
 30
0
 40
3
 50
180
 51
270
  0
ARC
  8
1
 62
3
 10
458.5127971855933
 20
452.9352707466989
 30
0
 40
3
 50
90
 51
180
  0
ARC
  8
1
 62
3
 10
400.5127971855932
 20
510.9352707466995
 30
0
 40
3
 50
270
 51
0
  0
ARC
  8
1
 62
3
 10
400.5127971855932
 20
452.935270746699
 30
0
 40
3
 50
0
 51
90
  0
ARC
  8
1
 62
3
 10
447.8127971855933
 20
450.4352843121475
 30
0
 40
2.000000000000057
 50
306.8698976458424
 51
0
  0
ARC
  8
1
 62
3
 10
436.0127971855933
 20
512.9617110839342
 30
0
 40
0.8000000000000339
 50
78.16773095150188
 51
180
  0
ARC
  8
1
 62
3
 10
423.0127971855933
 20
512.9617110839342
 30
0
 40
0.8000000000000114
 50
0
 51
101.8322690484902
  0
ARC
  8
1
 62
3
 10
423.0127971855933
 20
512.5529127199147
 30
0
 40
0.7999999999999585
 50
349.2722664569537
 51
0
  0
ARC
  8
1
 62
3
 10
408.4127971855933
 20
458.2777138145054
 30
0
 40
0.8000000000000328
 50
228.270465275153
 51
0
  0
ARC
  8
1
 62
3
 10
450.6127971855935
 20
458.2982224882657
 30
0
 40
0.8000000000001819
 50
180
 51
311.5783115319636
  0
ARC
  8
1
 62
3
 10
307.1433336913502
 20
513.4352707466998
 30
0
 40
0.5
 50
180
 51
270
  0
ARC
  8
1
 62
3
 10
335.34303369135
 20
453.1352707466995
 30
0
 40
2.200000000000102
 50
270
 51
0
  0
ARC
  8
1
 62
3
 10
335.34303369135
 20
510.7352707466994
 30
0
 40
2.200000000000216
 50
0
 51
90
  0
ARC
  8
1
 62
3
 10
305.0230413262416
 20
442.0866507270043
 30
0
 40
0.2999999999999545
 50
180
 51
270
  0
ARC
  8
1
 62
3
 10
305.0630413262416
 20
442.0866507270041
 30
0
 40
0.3000000000000114
 50
270
 51
0
  0
ARC
  8
1
 62
3
 10
194.9068513433588
 20
514.9352707466994
 30
0
 40
7
 50
0
 51
90
  0
ARC
  8
1
 62
3
 10
128.9068513433588
 20
514.9352707466994
 30
0
 40
7
 50
90
 51
180
  0
ARC
  8
1
 62
3
 10
194.9068513433588
 20
448.9352707466994
 30
0
 40
7
 50
270
 51
0
  0
ARC
  8
1
 62
3
 10
128.9068513433588
 20
448.9352707466994
 30
0
 40
7
 50
180
 51
270
  0
ARC
  8
1
 62
3
 10
160.0968513433588
 20
476.9330313994648
 30
0
 40
0.689999999999884
 50
90
 51
180
  0
ARC
  8
1
 62
3
 10
160.0968513433588
 20
476.9252707466994
 30
0
 40
0.6899999999999977
 50
180
 51
270
  0
ARC
  8
1
 62
3
 10
163.7168513433588
 20
476.9330313994648
 30
0
 40
0.6899999999999977
 50
0
 51
90
  0
ARC
  8
1
 62
3
 10
163.7168513433588
 20
476.9252707466994
 30
0
 40
0.6899999999999977
 50
270
 51
0
  0
ARC
  8
1
 62
3
 10
160.0768513433587
 20
476.9052707466994
 30
0
 40
1.669999999999902
 50
180
 51
270
  0
ARC
  8
1
 62
3
 10
163.7368513433588
 20
476.9052707466994
 30
0
 40
1.669999999999959
 50
270
 51
0
  0
ARC
  8
1
 62
3
 10
307.1433336913502
 20
450.4352707466996
 30
0
 40
0.5
 50
90
 51
156.421821521851
  0
TEXT
  8
1
 62
2
 10
308.8318014053125
 20
383.4942280185022
 30
0
 40
3
  1
1
 50
270
 41
0.9
 72
1
 73
2
 11
310.3318014053125
 21
382.1442280185022
 31
0
  0
TEXT
  8
1
 62
2
 10
308.9182340833203
 20
359.080448358729
 30
0
 40
3
  1
11
 50
270
 41
0.9
 72
1
 73
2
 11
310.4182340833203
 21
356.380448358729
 31
0
  0
TEXT
  8
1
 62
2
 10
295.6581234440012
 20
567.3270338028933
 30
0
 40
4
  1
付属ケーブル
 41
0.9
  0
TEXT
  8
1
 62
2
 10
278.4898907650381
 20
305.0426543107844
 30
0
 40
5
  1
FY8S25-D3
 41
0.9
  0
TEXT
  8
1
 62
2
 10
360.8672564348456
 20
607.6537367126061
 30
0
 40
3.200000000000001
  1
1
 50
90
 41
0.9
  0
TEXT
  8
1
 62
2
 10
360.9223507888494
 20
575.7468191287171
 30
0
 40
3.199999999999999
  1
11
 50
90
 41
0.9
  0
TEXT
  8
1
 62
2
 10
258.8918755069296
 20
577.9808034201506
 30
0
 40
3.200000000000001
  1
9
 50
90
 41
0.9
  0
TEXT
  8
1
 62
2
 10
258.3333164530384
 20
606.3676734940799
 30
0
 40
3.200000000000001
  1
1
 50
90
 41
0.9
  0
ENDSEC
  0
EOF
