  0
SECTION
  2
HEADER
  9
$ACADVER
  1
AC1009
  9
$INSBASE
 10
0
 20
0
  9
$EXTMIN
 10
116.9068513433588
 20
-5.835732084724015
  9
$EXTMAX
 10
461.5857236829309
 20
285.0679891693679
  9
$LIMMIN
 10
116.9068513433588
 20
-5.835732084724015
  9
$LIMMAX
 10
461.5857236829309
 20
285.0679891693679
  9
$VIEWCTR
 10
10
 20
10
  9
$VIEWSIZE
 40
10
  9
$SNAPMODE
 70
0
  9
$SNAPUNIT
 10
1
 20
1
  9
$SNAPBASE
 10
0
 20
0
  9
$SNAPANG
 50
0
  9
$SNAPSTYLE
 70
0
  9
$SNAPISOPAIR
 70
0
  9
$GRIDMODE
 70
0
  9
$GRIDUNIT
 10
0
 20
0
  9
$ORTHOMODE
 70
0
  9
$REGENMODE
 70
1
  9
$FILLMODE
 70
1
  9
$QTEXTMODE
 70
0
  9
$DRAGMODE
 70
2
  9
$LTSCALE
 40
1
  9
$OSMODE
 70
0
  9
$ATTMODE
 70
1
  9
$TEXTSIZE
 40
3.5
  9
$TRACEWID
 40
0.5
  9
$TEXTSTYLE
  7
STANDARD
  9
$CLAYER
  8
0
  9
$CELTYPE
  6
BYLAYER
  9
$CECOLOR
 62
256
  9
$DIMSCALE
 40
1
  9
$DIMASZ
 40
0.18
  9
$DIMEXO
 40
0.0625
  9
$DIMDLI
 40
0.38
  9
$DIMRND
 40
0
  9
$DIMDLE
 40
0
  9
$DIMEXE
 40
0.18
  9
$DIMTP
 40
0
  9
$DIMTM
 40
0
  9
$DIMTXT
 40
0.18
  9
$DIMCEN
 40
0.09
  9
$DIMTSZ
 40
0
  9
$DIMTOL
 70
0
  9
$DIMLIM
 70
0
  9
$DIMTIH
 70
1
  9
$DIMTOH
 70
1
  9
$DIMSE1
 70
0
  9
$DIMSE2
 70
0
  9
$DIMTAD
 70
0
  9
$DIMZIN
 70
0
  9
$DIMBLK
  1

  9
$DIMASO
 70
1
  9
$DIMSHO
 70
1
  9
$DIMPOST
  1

  9
$DIMAPOST
  1

  9
$DIMALT
 70
0
  9
$DIMALTD
 70
2
  9
$DIMALTF
 40
25.4
  9
$DIMLFAC
 40
1
  9
$DIMTOFL
 70
0
  9
$DIMTVP
 40
0
  9
$DIMTIX
 70
0
  9
$DIMSOXD
 70
0
  9
$DIMSAH
 70
0
  9
$DIMBLK1
  1

  9
$DIMBLK2
  1

  9
$DIMSTYLE
  2
*UNNAMED
  9
$DIMCLRD
 70
0
  9
$DIMCLRE
 70
0
  9
$DIMCLRT
 70
0
  9
$DIMTFAC
 40
1
  9
$DIMGAP
 40
0.09
  9
$LUNITS
 70
2
  9
$LUPREC
 70
4
  9
$AXISMODE
 70
0
  9
$AXISUNIT
 10
0
 20
0
  9
$SKETCHINC
 40
0.1
  9
$FILLETRAD
 40
2
  9
$AUNITS
 70
0
  9
$AUPREC
 70
0
  9
$MENU
  1
ACAD
  9
$ELEVATION
 40
0
  9
$THICKNESS
 40
0
  9
$VIEWDIR
 10
0
 20
0
 30
1
  9
$LIMCHECK
 70
0
  9
$BLIPMODE
 70
1
  9
$CHAMFERA
 40
0
  9
$CHAMFERB
 40
0
  9
$FASTZOOM
 70
1
  9
$SKPOLY
 70
0
  9
$ANGBASE
 50
0
  9
$ANGDIR
 70
0
  9
$PDMODE
 70
0
  9
$PDSIZE
 40
0
  9
$PLINEWID
 40
0
  9
$COORDS
 70
2
  0
ENDSEC
  0
SECTION
  2
TABLES
  0
TABLE
  2
DIMSTYLE
 70
0
  0
ENDTAB
  0
TABLE
  2
LTYPE
 70
9
  0
LTYPE
  2
CONTINUOUS
 70
64
  3
Solid line
 72
65
 73
0
 40
0
  0
LTYPE
  2
BORDER
 70
64
  3
__ __ . __ __ .
 72
65
 73
6
 40
15.87336912090135
 49
4.535248320257527
 49
-2.267624160128764
 49
4.535248320257527
 49
-2.267624160128764
 49
0
 49
-2.267624160128764
  0
LTYPE
  2
CENTER
 70
64
  3
____ _ ____ _
 72
65
 73
4
 40
18.14099328103011
 49
11.33812080064382
 49
-2.267624160128764
 49
2.267624160128764
 49
-2.267624160128764
  0
LTYPE
  2
DASHDOT
 70
64
  3
__ . __ . __ .
 72
65
 73
4
 40
9.070496640515055
 49
4.535248320257527
 49
-2.267624160128764
 49
0
 49
-2.267624160128764
  0
LTYPE
  2
DASHED
 70
64
  3
__ __ __ __ __
 72
65
 73
2
 40
6.802872480386291
 49
4.535248320257527
 49
-2.267624160128764
  0
LTYPE
  2
DIVIDE
 70
64
  3
__ . . __ . . 
 72
65
 73
6
 40
11.33812080064382
 49
4.535248320257527
 49
-2.267624160128764
 49
0
 49
-2.267624160128764
 49
0
 49
-2.267624160128764
  0
LTYPE
  2
DOT
 70
64
  3
..............
 72
65
 73
4
 40
4.535248320257527
 49
0
 49
-2.267624160128764
 49
0
 49
-2.267624160128764
  0
LTYPE
  2
HIDDEN
 70
64
  3
_ _ _ _ _ _ _
 72
65
 73
2
 40
3.401436240193146
 49
2.267624160128764
 49
-1.133812080064382
  0
LTYPE
  2
PHANTOM
 70
64
  3
_____ _ _ _____ _ _ 
 72
65
 73
6
 40
22.67624160128764
 49
11.33812080064382
 49
-2.267624160128764
 49
2.267624160128764
 49
-2.267624160128764
 49
2.267624160128764
 49
-2.267624160128764
  0
ENDTAB
  0
TABLE
  2
LAYER
 70
3
  0
LAYER
  2
1
 70
0
 62
7
  6
CONTINUOUS
  0
LAYER
  2
0
 70
0
 62
7
  6
CONTINUOUS
  0
ENDTAB
  0
TABLE
  2
STYLE
 70
4
  0
STYLE
  2
STANDARD
 70
0
 40
0
 41
1
 50
0
 71
0
 42
3.5
  3
txt
  4

  0
STYLE
  2
SIMPLEX
 70
0
 40
0
 41
1
 50
0
 71
0
 42
3.5
  3
simplex
  4

  0
STYLE
  2
COMPLEX
 70
0
 40
0
 41
1
 50
0
 71
0
 42
3.5
  3
complex
  4

  0
STYLE
  2
ITALIC
 70
0
 40
0
 41
1
 50
0
 71
0
 42
3.5
  3
italic
  4

  0
ENDTAB
  0
TABLE
  2
VIEW
 70
0
  0
ENDTAB
  0
ENDSEC
  0
SECTION
  2
BLOCKS
  0
BLOCK
  8
0
  2
1
 70
0
 10
292.9246838849339
 20
34.40485020229473
 30
0
  0
ENDBLK
  8
0
  0
ENDSEC
  0
SECTION
  2
ENTITIES
  0
LINE
  8
1
 62
3
 10
387.5357770249559
 20
122.8477413329838
 30
0
 11
406.9351632522224
 21
122.8477413329828
 31
0
  0
LINE
  8
1
 62
3
 10
453.5357770249559
 20
122.8477413329838
 30
0
 11
434.9351632522224
 21
122.8477413329828
 31
0
  0
LINE
  8
1
 62
3
 10
380.5357770249559
 20
129.8477413329838
 30
0
 11
380.5357770249559
 21
162.8477413329838
 31
0
  0
LINE
  8
1
 62
3
 10
460.5357770249559
 20
129.8477413329838
 30
0
 11
460.5357770249559
 21
162.8477413329838
 31
0
  0
LINE
  8
1
 62
3
 10
460.5357770249559
 20
162.8477413329838
 30
0
 11
460.5357770249559
 21
195.8477413329838
 31
0
  0
LINE
  8
1
 62
3
 10
380.5357770249559
 20
162.8477413329838
 30
0
 11
380.5357770249559
 21
195.8477413329838
 31
0
  0
LINE
  8
1
 62
3
 10
387.5357770249559
 20
202.8477413329838
 30
0
 11
453.5357770249559
 21
202.8477413329838
 31
0
  0
LINE
  8
1
 62
3
 10
304.943059134984
 20
27.70847122308571
 30
0
 11
304.943059134984
 21
31.0584712230859
 31
0
  0
LINE
  8
1
 62
3
 10
300.5430336913498
 20
24.60847122308572
 30
0
 11
304.5430336913506
 21
24.6084712230856
 31
0
  0
LINE
  8
1
 62
3
 10
300.5430336913498
 20
19.10847122308547
 30
0
 11
300.5430336913498
 21
88.38583622601151
 31
0
  0
LINE
  8
1
 62
3
 10
299.0430336913498
 20
19.10847122308547
 30
0
 11
300.5430336913498
 21
19.10847122308547
 31
0
  0
LINE
  8
1
 62
3
 10
300.5430336913498
 20
36.8084712230856
 30
0
 11
304.5430336913506
 21
36.8084712230856
 31
0
  0
LINE
  8
1
 62
3
 10
300.5430336913498
 20
77.4084712230856
 30
0
 11
304.5430336913506
 21
77.4084712230856
 31
0
  0
LINE
  8
1
 62
3
 10
302.1430336913498
 20
37.6084712230856
 30
0
 11
302.1430336913498
 21
37.4084712230855
 31
0
  0
LINE
  8
1
 62
3
 10
302.1430336913498
 20
76.80847122308569
 30
0
 11
302.1430336913498
 21
76.6084712230856
 31
0
  0
LINE
  8
1
 62
3
 10
302.1430336913498
 20
76.6084712230856
 30
0
 11
300.5430336913498
 21
76.6084712230856
 31
0
  0
LINE
  8
1
 62
3
 10
302.1430336913498
 20
37.6084712230856
 30
0
 11
302.1430336913498
 21
76.6084712230856
 31
0
  0
LINE
  8
1
 62
3
 10
300.5430336913498
 20
37.6084712230856
 30
0
 11
302.1430336913498
 21
37.6084712230856
 31
0
  0
LINE
  8
1
 62
3
 10
303.8430413262411
 20
75.07097122308569
 30
0
 11
303.6680413262412
 21
75.07097122308569
 31
0
  0
LINE
  8
1
 62
3
 10
303.6680413262412
 20
75.07097122308569
 30
0
 11
303.6680413262412
 21
74.3459712230858
 31
0
  0
LINE
  8
1
 62
3
 10
303.6680413262412
 20
74.3459712230858
 30
0
 11
303.8430413262411
 21
74.3459712230858
 31
0
  0
LINE
  8
1
 62
3
 10
302.9554667883002
 20
76.80847122308559
 30
0
 11
302.1430336913498
 21
76.80847122308569
 31
0
  0
LINE
  8
1
 62
3
 10
302.1430336913498
 20
72.60847122308549
 30
0
 11
302.9554667883003
 21
72.6084712230856
 31
0
  0
LINE
  8
1
 62
3
 10
306.6433336913502
 20
25.60847122308539
 30
0
 11
305.443059134984
 21
25.60847122308539
 31
0
  0
LINE
  8
1
 62
3
 10
306.9276009460844
 20
67.41710062607372
 30
0
 11
306.9276009460844
 21
71.1084712230856
 31
0
  0
LINE
  8
1
 62
3
 10
307.6430336913498
 20
67.6084712230856
 30
0
 11
307.6430336913498
 21
64.6084712230856
 31
0
  0
LINE
  8
1
 62
3
 10
307.6430336913498
 20
64.6084712230856
 30
0
 11
306.9276009460844
 21
64.7998418200976
 31
0
  0
LINE
  8
1
 62
3
 10
306.9276009460844
 20
67.41710062607372
 30
0
 11
307.6430336913498
 21
67.6084712230856
 31
0
  0
LINE
  8
1
 62
3
 10
306.9276009460844
 20
71.1084712230856
 30
0
 11
302.1430336913498
 21
71.1084712230856
 31
0
  0
LINE
  8
1
 62
3
 10
306.9276009460844
 20
49.41710062607383
 30
0
 11
306.9276009460844
 21
64.7998418200976
 31
0
  0
LINE
  8
1
 62
3
 10
305.9430336913499
 20
43.1084712230856
 30
0
 11
306.9276009460844
 21
43.1084712230856
 31
0
  0
LINE
  8
1
 62
3
 10
306.9276009460844
 20
46.79984182009759
 30
0
 11
306.9276009460844
 21
43.1084712230856
 31
0
  0
LINE
  8
1
 62
3
 10
302.1430336913498
 20
43.1084712230856
 30
0
 11
306.9276009460844
 21
43.1084712230856
 31
0
  0
LINE
  8
1
 62
3
 10
308.1430336913498
 20
43.1084712230856
 30
0
 11
308.1430336913498
 21
71.1084712230856
 31
0
  0
LINE
  8
1
 62
3
 10
308.1430336913498
 20
71.1084712230856
 30
0
 11
306.9276009460844
 21
71.1084712230856
 31
0
  0
LINE
  8
1
 62
3
 10
302.1430336913498
 20
71.1084712230856
 30
0
 11
302.1430336913498
 21
43.1084712230856
 31
0
  0
LINE
  8
1
 62
3
 10
306.9276009460844
 20
43.1084712230856
 30
0
 11
308.1430336913498
 21
43.1084712230856
 31
0
  0
LINE
  8
1
 62
3
 10
306.9276009460844
 20
71.1084712230856
 30
0
 11
305.9430336913499
 21
71.1084712230856
 31
0
  0
LINE
  8
1
 62
3
 10
307.6430336913498
 20
49.6084712230856
 30
0
 11
307.6430336913498
 21
46.6084712230856
 31
0
  0
LINE
  8
1
 62
3
 10
307.6430336913498
 20
46.6084712230856
 30
0
 11
306.9276009460844
 21
46.79984182009759
 31
0
  0
LINE
  8
1
 62
3
 10
306.9276009460844
 20
49.41710062607383
 30
0
 11
307.6430336913498
 21
49.6084712230856
 31
0
  0
LINE
  8
1
 62
3
 10
305.4433336913501
 20
71.1084712230856
 30
0
 11
305.4433336913501
 21
86.50847122308561
 31
0
  0
LINE
  8
1
 62
3
 10
304.5430336913506
 20
43.1084712230856
 30
0
 11
304.5430336913506
 21
24.6084712230856
 31
0
  0
LINE
  8
1
 62
3
 10
304.943059134984
 20
43.1084712230856
 30
0
 11
304.943059134984
 21
31.0584712230859
 31
0
  0
LINE
  8
1
 62
3
 10
260.5430591349834
 20
60.60847122308547
 30
0
 11
261.0430591349834
 21
61.10847122308547
 31
0
  0
LINE
  8
1
 62
3
 10
305.4433336913501
 20
86.50847122308561
 30
0
 11
305.4433336913501
 21
88.6084712230858
 31
0
  0
LINE
  8
1
 62
3
 10
304.943059134984
 20
86.50847122308561
 30
0
 11
305.4433336913501
 21
86.50847122308561
 31
0
  0
LINE
  8
1
 62
3
 10
307.1433336913502
 20
88.10847122308591
 30
0
 11
329.3430336913499
 21
88.1084712230856
 31
0
  0
LINE
  8
1
 62
3
 10
304.943059134984
 20
86.50847122308561
 30
0
 11
304.943059134984
 21
71.1084712230856
 31
0
  0
LINE
  8
1
 62
3
 10
305.443059134984
 20
88.6084712230858
 30
0
 11
306.6433336913502
 21
88.6084712230858
 31
0
  0
LINE
  8
1
 62
3
 10
304.943059134984
 20
27.70847122308571
 30
0
 11
305.443059134984
 21
27.70847122308571
 31
0
  0
LINE
  8
1
 62
3
 10
331.5430336913502
 20
51.1084712230856
 30
0
 11
331.64303369135
 21
51.1084712230856
 31
0
  0
LINE
  8
1
 62
3
 10
331.94303369135
 20
60.90847122308573
 30
0
 11
331.9430336913499
 21
53.3084712230857
 31
0
  0
LINE
  8
1
 62
3
 10
331.9430336913499
 20
51.40847122308561
 30
0
 11
331.64303369135
 21
51.1084712230856
 31
0
  0
LINE
  8
1
 62
3
 10
331.64303369135
 20
63.10847122308591
 30
0
 11
331.9430336913499
 21
62.80847122308582
 31
0
  0
LINE
  8
1
 62
3
 10
331.9430336913499
 20
52.80847122308582
 30
0
 11
331.9430336913499
 21
61.40847122308561
 31
0
  0
LINE
  8
1
 62
3
 10
331.9430336913499
 20
62.80847122308582
 30
0
 11
331.9430336913499
 21
61.40847122308561
 31
0
  0
LINE
  8
1
 62
3
 10
331.64303369135
 20
63.10847122308591
 30
0
 11
331.5430336913502
 21
63.1084712230856
 31
0
  0
LINE
  8
1
 62
3
 10
331.9430336913499
 20
52.80847122308582
 30
0
 11
331.9430336913499
 21
51.40847122308561
 31
0
  0
LINE
  8
1
 62
3
 10
331.5430336913502
 20
51.1084712230856
 30
0
 11
331.5430336913502
 21
57.1084712230856
 31
0
  0
LINE
  8
1
 62
3
 10
331.5430336913502
 20
29.50847122308561
 30
0
 11
331.5430336913502
 21
28.30847122308562
 31
0
  0
LINE
  8
1
 62
3
 10
329.3430336913499
 20
26.1084712230856
 30
0
 11
307.1433336913502
 21
26.1084712230858
 31
0
  0
LINE
  8
1
 62
3
 10
331.5430336913502
 20
51.1084712230856
 30
0
 11
331.5430336913502
 21
29.50847122308561
 31
0
  0
LINE
  8
1
 62
3
 10
331.5430336913502
 20
57.1084712230856
 30
0
 11
331.5430336913502
 21
63.1084712230856
 31
0
  0
LINE
  8
1
 62
3
 10
331.5430336913502
 20
85.90847122308561
 30
0
 11
331.5430336913502
 21
84.70847122308562
 31
0
  0
LINE
  8
1
 62
3
 10
331.5430336913502
 20
84.70847122308562
 30
0
 11
331.5430336913502
 21
63.1084712230856
 31
0
  0
LINE
  8
1
 62
3
 10
303.6680413262412
 20
39.1459712230855
 30
0
 11
303.8430413262411
 21
39.1459712230855
 31
0
  0
LINE
  8
1
 62
3
 10
303.6680413262412
 20
39.87097122308539
 30
0
 11
303.6680413262412
 21
39.1459712230855
 31
0
  0
LINE
  8
1
 62
3
 10
303.8430413262411
 20
39.87097122308539
 30
0
 11
303.6680413262412
 21
39.87097122308539
 31
0
  0
LINE
  8
1
 62
3
 10
302.1430336913498
 20
37.4084712230855
 30
0
 11
302.9554667883002
 21
37.4084712230856
 31
0
  0
LINE
  8
1
 62
3
 10
302.9554667883003
 20
41.60847122308559
 30
0
 11
302.1430336913498
 21
41.6084712230857
 31
0
  0
LINE
  8
1
 62
3
 10
304.5430336913506
 20
89.6084712230856
 30
0
 11
300.5430336913498
 21
89.60847122308549
 31
0
  0
LINE
  8
1
 62
3
 10
304.5430336913506
 20
89.6084712230856
 30
0
 11
304.5430336913506
 21
71.1084712230856
 31
0
  0
LINE
  8
1
 62
3
 10
292.5430336913498
 20
93.60847122308552
 30
0
 11
292.5430336913498
 21
20.60847122308542
 31
0
  0
LINE
  8
1
 62
3
 10
292.5430336913501
 20
97.10847122308603
 30
0
 11
299.0430336913498
 21
97.10847122308591
 31
0
  0
LINE
  8
1
 62
3
 10
300.5430336913498
 20
88.38583622601151
 30
0
 11
300.5430336913498
 21
95.10847122308572
 31
0
  0
LINE
  8
1
 62
3
 10
289.5430336913498
 20
60.6084712230854
 30
0
 11
289.5430336913498
 21
23.60847122308532
 31
0
  0
LINE
  8
1
 62
3
 10
292.5430336913498
 20
17.10847122308562
 30
0
 11
299.0430336913498
 21
17.10847122308552
 31
0
  0
LINE
  8
1
 62
3
 10
292.5430336913498
 20
20.60847122308542
 30
0
 11
292.5430336913498
 21
17.10847122308562
 31
0
  0
LINE
  8
1
 62
3
 10
289.5430336913498
 20
20.95847122308541
 30
0
 11
289.8930336913497
 21
20.60847122308542
 31
0
  0
LINE
  8
1
 62
3
 10
292.5430336913498
 20
20.60847122308542
 30
0
 11
289.8930336913497
 21
20.60847122308542
 31
0
  0
LINE
  8
1
 62
3
 10
289.5430336913498
 20
23.60847122308532
 30
0
 11
289.5430336913498
 21
20.95847122308541
 31
0
  0
LINE
  8
1
 62
3
 10
292.5430336913501
 20
97.10847122308603
 30
0
 11
292.5430336913498
 21
93.60847122308552
 31
0
  0
LINE
  8
1
 62
3
 10
289.5430336913498
 20
93.25847122308561
 30
0
 11
289.8930336913497
 21
93.60847122308552
 31
0
  0
LINE
  8
1
 62
3
 10
289.8930336913497
 20
93.60847122308552
 30
0
 11
292.5430336913498
 21
93.60847122308552
 31
0
  0
LINE
  8
1
 62
3
 10
289.5430336913498
 20
93.25847122308561
 30
0
 11
289.5430336913498
 21
90.60847122308552
 31
0
  0
LINE
  8
1
 62
3
 10
289.5430336913498
 20
90.60847122308552
 30
0
 11
289.5430336913498
 21
60.6084712230854
 31
0
  0
LINE
  8
1
 62
1
 10
255.5430591349834
 20
57.1084712230856
 30
0
 11
336.94303369135
 21
57.1084712230856
 31
0
  0
LINE
  8
1
 62
3
 10
289.5430336913498
 20
61.1084712230856
 30
0
 11
261.0430591349834
 21
61.10847122308547
 31
0
  0
LINE
  8
1
 62
3
 10
260.5430591349833
 20
57.1084712230856
 30
0
 11
260.5430591349834
 21
60.60847122308547
 31
0
  0
LINE
  8
1
 62
3
 10
261.0430591349834
 20
53.10847122308572
 30
0
 11
289.5430336913498
 21
53.1084712230856
 31
0
  0
LINE
  8
1
 62
3
 10
260.5430591349834
 20
60.60847122308547
 30
0
 11
260.5430591349834
 21
53.60847122308572
 31
0
  0
LINE
  8
1
 62
3
 10
261.0430591349834
 20
53.10847122308572
 30
0
 11
260.5430591349834
 21
53.60847122308572
 31
0
  0
LINE
  8
1
 62
2
 10
261.0430591349834
 20
61.10847122308547
 30
0
 11
261.0430591349834
 21
53.10847122308572
 31
0
  0
LINE
  8
1
 62
3
 10
299.0430336913498
 20
97.10847122308591
 30
0
 11
299.0430336913498
 21
95.10847122308572
 31
0
  0
LINE
  8
1
 62
3
 10
300.5430336913498
 20
95.10847122308572
 30
0
 11
299.0430336913498
 21
95.10847122308572
 31
0
  0
LINE
  8
1
 62
3
 10
299.0430336913498
 20
95.10847122308572
 30
0
 11
299.0430336913498
 21
17.10847122308552
 31
0
  0
LINE
  8
1
 62
3
 10
299.0430336913498
 20
94.35847122308572
 30
0
 11
300.5430336913498
 21
94.35847122308572
 31
0
  0
LINE
  8
1
 62
3
 10
299.0430336913498
 20
86.35847122308572
 30
0
 11
300.5430336913498
 21
86.35847122308572
 31
0
  0
LINE
  8
1
 62
3
 10
299.0430336913498
 20
83.10847122308572
 30
0
 11
300.5430336913498
 21
83.10847122308572
 31
0
  0
LINE
  8
1
 62
3
 10
299.0430336913498
 20
31.10847122308512
 30
0
 11
300.5430336913498
 21
31.10847122308512
 31
0
  0
LINE
  8
1
 62
3
 10
299.0430336913498
 20
27.85847122308572
 30
0
 11
300.5430336913498
 21
27.85847122308572
 31
0
  0
LINE
  8
1
 62
3
 10
299.0430336913498
 20
19.85847122308572
 30
0
 11
300.5430336913498
 21
19.85847122308572
 31
0
  0
LINE
  8
1
 62
3
 10
305.4433336913501
 20
25.60847122308539
 30
0
 11
305.4433336913501
 21
43.1084712230856
 31
0
  0
LINE
  8
1
 62
3
 10
400.2351632522224
 20
131.3477548984324
 30
0
 11
400.2351632522224
 21
139.1528147286967
 31
0
  0
LINE
  8
1
 62
3
 10
440.8351632522224
 20
139.2106930745501
 30
0
 11
440.8351632522224
 21
139.4183811454697
 31
0
  0
LINE
  8
1
 62
3
 10
442.8429039337226
 20
139.2127100089737
 30
0
 11
442.1660777299903
 21
138.6122535894756
 31
0
  0
LINE
  8
1
 62
3
 10
426.2351632522224
 20
193.4653833061992
 30
0
 11
426.2351632522224
 21
193.8741816702187
 31
0
  0
LINE
  8
1
 62
3
 10
414.8351632522224
 20
193.4653833061992
 30
0
 11
414.8351632522224
 21
193.8741816702187
 31
0
  0
LINE
  8
1
 62
3
 10
440.8351632522224
 20
131.347754898432
 30
0
 11
440.8351632522224
 21
139.2106930745501
 31
0
  0
LINE
  8
1
 62
3
 10
400.2351632522224
 20
139.1901844007898
 30
0
 11
400.2351632522224
 21
139.4194447570417
 31
0
  0
LINE
  8
1
 62
3
 10
441.5351632522225
 20
123.0977413329833
 30
0
 11
439.6966010799883
 21
123.0977413329833
 31
0
  0
LINE
  8
1
 62
3
 10
443.5351632522225
 20
123.0977413329833
 30
0
 11
443.8635903769687
 21
123.0977413329833
 31
0
  0
LINE
  8
1
 62
3
 10
397.5351632522223
 20
123.0977413329833
 30
0
 11
397.2067361274761
 21
123.0977413329833
 31
0
  0
LINE
  8
1
 62
1
 10
453.7851632522225
 20
200.5379174197452
 30
0
 11
453.7851632522225
 21
191.6575652462224
 31
0
  0
LINE
  8
1
 62
1
 10
458.2253393389839
 20
196.0977413329839
 30
0
 11
449.3449871654608
 21
196.0977413329839
 31
0
  0
LINE
  8
1
 62
1
 10
458.2253393389839
 20
129.5977413329839
 30
0
 11
449.3449871654608
 21
129.5977413329839
 31
0
  0
LINE
  8
1
 62
1
 10
453.7851632522225
 20
125.1575652462224
 30
0
 11
453.7851632522225
 21
134.0379174197452
 31
0
  0
LINE
  8
1
 62
3
 10
396.0351632522223
 20
123.0977413329833
 30
0
 11
397.2067361274761
 21
123.0977413329833
 31
0
  0
LINE
  8
1
 62
1
 10
391.7253393389836
 20
129.5977413329839
 30
0
 11
382.8449871654609
 21
129.5977413329839
 31
0
  0
LINE
  8
1
 62
1
 10
387.2851632522223
 20
134.0379174197452
 30
0
 11
387.2851632522223
 21
125.1575652462224
 31
0
  0
LINE
  8
1
 62
1
 10
387.2851632522223
 20
191.6575652462224
 30
0
 11
387.2851632522223
 21
200.5379174197452
 31
0
  0
LINE
  8
1
 62
1
 10
391.7253393389836
 20
196.0977413329839
 30
0
 11
382.8449871654608
 21
196.0977413329839
 31
0
  0
LINE
  8
1
 62
1
 10
420.5351632522224
 20
121.3831980412111
 30
0
 11
420.5351632522224
 21
141.8178389548916
 31
0
  0
LINE
  8
1
 62
3
 10
443.8635903769687
 20
123.0977413329833
 30
0
 11
445.0351632522225
 21
123.0977413329833
 31
0
  0
LINE
  8
1
 62
3
 10
399.5351632522223
 20
123.0977413329833
 30
0
 11
397.5351632522223
 21
123.0977413329833
 31
0
  0
LINE
  8
1
 62
3
 10
441.5351632522225
 20
123.0977413329833
 30
0
 11
443.5351632522225
 21
123.0977413329833
 31
0
  0
LINE
  8
1
 62
3
 10
394.5351632522223
 20
124.5977413329833
 30
0
 11
394.5351632522223
 21
133.8477413329835
 31
0
  0
LINE
  8
1
 62
3
 10
391.5351632522223
 20
188.8477413329839
 30
0
 11
384.0351632522223
 21
188.8477413329839
 31
0
  0
LINE
  8
1
 62
3
 10
394.5351632522223
 20
191.8477413329839
 30
0
 11
394.5351632522223
 21
199.3477413329839
 31
0
  0
LINE
  8
1
 62
3
 10
446.5351632522225
 20
133.8477413329835
 30
0
 11
446.5351632522225
 21
124.5977413329833
 31
0
  0
LINE
  8
1
 62
3
 10
449.5351632522225
 20
136.8477413329835
 30
0
 11
457.0351632522225
 21
136.8477413329835
 31
0
  0
LINE
  8
1
 62
3
 10
445.0351632522225
 20
200.8477413329839
 30
0
 11
396.0351632522223
 21
200.8477413329839
 31
0
  0
LINE
  8
1
 62
3
 10
446.5351632522225
 20
199.3477413329839
 30
0
 11
446.5351632522225
 21
191.8477413329839
 31
0
  0
LINE
  8
1
 62
3
 10
382.5351632522223
 20
138.3477413329835
 30
0
 11
382.5351632522223
 21
187.3477413329839
 31
0
  0
LINE
  8
1
 62
3
 10
384.0351632522223
 20
136.8477413329835
 30
0
 11
391.5351632522223
 21
136.8477413329835
 31
0
  0
LINE
  8
1
 62
3
 10
458.5351632522225
 20
138.3477413329835
 30
0
 11
458.5351632522225
 21
187.3477413329839
 31
0
  0
LINE
  8
1
 62
3
 10
457.0351632522225
 20
188.8477413329839
 30
0
 11
449.5351632522225
 21
188.8477413329839
 31
0
  0
LINE
  8
1
 62
3
 10
440.0351632522225
 20
127.4477413329829
 30
0
 11
440.0351632522225
 21
138.7484895446004
 31
0
  0
LINE
  8
1
 62
3
 10
401.0351632522225
 20
127.4477413329829
 30
0
 11
401.0351632522225
 21
138.7494828380909
 31
0
  0
LINE
  8
1
 62
3
 10
440.0351632522225
 20
123.8477413329839
 30
0
 11
440.0351632522225
 21
126.2477413329829
 31
0
  0
LINE
  8
1
 62
3
 10
401.0351632522225
 20
123.8477413329839
 30
0
 11
401.0351632522225
 21
126.2477413329829
 31
0
  0
LINE
  8
1
 62
3
 10
425.4351632522225
 20
194.8377413329839
 30
0
 11
425.4351632522225
 21
193.4579354625627
 31
0
  0
LINE
  8
1
 62
3
 10
415.6351632522226
 20
194.8377413329839
 30
0
 11
415.6351632522226
 21
193.4579354625627
 31
0
  0
LINE
  8
1
 62
3
 10
415.6451632522226
 20
194.8477413329839
 30
0
 11
425.4251632522225
 21
194.8477413329839
 31
0
  0
LINE
  8
1
 62
3
 10
431.9351632522224
 20
131.5477413329837
 30
0
 11
434.9351632522224
 21
131.5477413329837
 31
0
  0
LINE
  8
1
 62
3
 10
431.9351632522224
 20
129.5477413329837
 30
0
 11
431.9351632522224
 21
131.5477413329837
 31
0
  0
LINE
  8
1
 62
3
 10
409.9351632522224
 20
129.5477413329837
 30
0
 11
431.9351632522224
 21
129.5477413329837
 31
0
  0
LINE
  8
1
 62
3
 10
409.9351632522224
 20
131.5477413329837
 30
0
 11
409.9351632522224
 21
129.5477413329837
 31
0
  0
LINE
  8
1
 62
3
 10
434.9351632522224
 20
121.8477413329839
 30
0
 11
406.9351632522224
 21
121.8477413329839
 31
0
  0
LINE
  8
1
 62
3
 10
434.9351632522224
 20
131.5477413329837
 30
0
 11
434.9351632522224
 21
121.8477413329839
 31
0
  0
LINE
  8
1
 62
3
 10
406.9351632522224
 20
131.5477413329837
 30
0
 11
409.9351632522224
 21
131.5477413329837
 31
0
  0
LINE
  8
1
 62
3
 10
406.9351632522224
 20
121.8477413329839
 30
0
 11
406.9351632522224
 21
131.5477413329837
 31
0
  0
LINE
  8
1
 62
3
 10
406.9351632522224
 20
122.8477413329828
 30
0
 11
402.0351632522234
 21
122.8477413329828
 31
0
  0
LINE
  8
1
 62
3
 10
434.9351632522224
 20
122.8477413329828
 30
0
 11
439.0351632522225
 21
122.8477413329828
 31
0
  0
LINE
  8
1
 62
3
 10
438.660569600974
 20
125.9463092327019
 30
0
 11
438.2206212537441
 21
126.3862575799319
 31
0
  0
LINE
  8
1
 62
3
 10
437.6097538081335
 20
125.9463092327019
 30
0
 11
438.0497021553636
 21
126.3862575799319
 31
0
  0
LINE
  8
1
 62
3
 10
439.0373160939902
 20
127.3738715185585
 30
0
 11
438.5973677467602
 21
126.9339231713287
 31
0
  0
LINE
  8
1
 62
3
 10
439.0373160939902
 20
126.3230557257181
 30
0
 11
438.5973677467602
 21
126.763004072948
 31
0
  0
LINE
  8
1
 62
3
 10
438.0497021553636
 20
127.3106696643449
 30
0
 11
438.0452849914933
 21
127.3150868282152
 31
0
  0
LINE
  8
1
 62
3
 10
438.0452849914933
 20
127.3150868282152
 30
0
 11
437.6097538081335
 21
127.7506180115748
 31
0
  0
LINE
  8
1
 62
3
 10
438.660569600974
 20
127.7506180115748
 30
0
 11
438.2206212537439
 21
127.3106696643449
 31
0
  0
LINE
  8
1
 62
3
 10
437.2330073151175
 20
126.3230557257181
 30
0
 11
437.6729556623472
 21
126.763004072948
 31
0
  0
LINE
  8
1
 62
3
 10
437.2330073151175
 20
127.3738715185585
 30
0
 11
437.6729556623472
 21
126.9339231713287
 31
0
  0
LINE
  8
1
 62
3
 10
403.4605726963115
 20
125.9463092327019
 30
0
 11
403.0206243490816
 21
126.3862575799319
 31
0
  0
LINE
  8
1
 62
3
 10
402.4097569034711
 20
125.9463092327019
 30
0
 11
402.849705250701
 21
126.3862575799319
 31
0
  0
LINE
  8
1
 62
3
 10
403.8373191893277
 20
127.3738715185585
 30
0
 11
403.3973708420977
 21
126.9339231713287
 31
0
  0
LINE
  8
1
 62
3
 10
403.8373191893277
 20
126.3230557257181
 30
0
 11
403.3973708420977
 21
126.763004072948
 31
0
  0
LINE
  8
1
 62
3
 10
402.849705250701
 20
127.3106696643449
 30
0
 11
402.8452880868308
 21
127.3150868282152
 31
0
  0
LINE
  8
1
 62
3
 10
402.8452880868308
 20
127.3150868282152
 30
0
 11
402.4097569034711
 21
127.7506180115748
 31
0
  0
LINE
  8
1
 62
3
 10
403.4605726963115
 20
127.7506180115748
 30
0
 11
403.0206243490815
 21
127.3106696643449
 31
0
  0
LINE
  8
1
 62
3
 10
402.0330104104549
 20
126.3230557257181
 30
0
 11
402.4729587576847
 21
126.763004072948
 31
0
  0
LINE
  8
1
 62
3
 10
402.0330104104549
 20
127.3738715185585
 30
0
 11
402.4729587576847
 21
126.9339231713287
 31
0
  0
LINE
  8
1
 62
1
 10
420.535777024956
 20
119.3613839464496
 30
0
 11
420.535777024956
 21
207.3772086977466
 31
0
  0
LINE
  8
1
 62
3
 10
401.3737254244552
 20
123.0977413329833
 30
0
 11
399.5351632522223
 21
123.0977413329833
 31
0
  0
LINE
  8
1
 62
1
 10
461.5857236829309
 20
162.8477413329838
 30
0
 11
378.3049744613474
 21
162.8477413329838
 31
0
  0
LINE
  8
1
 62
3
 10
407.2234460352311
 20
174.6204673326569
 30
0
 11
433.223446035231
 21
174.6204673326569
 31
0
  0
LINE
  8
1
 62
3
 10
406.2234460352311
 20
185.6204673326569
 30
0
 11
406.2234460352311
 21
175.6204673326569
 31
0
  0
LINE
  8
1
 62
3
 10
433.223446035231
 20
186.6204673326569
 30
0
 11
407.2234460352311
 21
186.6204673326569
 31
0
  0
LINE
  8
1
 62
3
 10
434.223446035231
 20
175.6204673326569
 30
0
 11
434.223446035231
 21
185.6204673326569
 31
0
  0
LINE
  8
1
 62
3
 10
336.9854599586167
 20
257.746271067695
 30
0
 11
336.9854599586167
 21
266.1586149644305
 31
0
  0
LINE
  8
1
 62
3
 10
336.9854599586167
 20
255.246271067695
 30
0
 11
336.9854599586167
 21
266.1586149644305
 31
0
  0
LINE
  8
1
 62
3
 10
336.9854599586167
 20
266.1586149644305
 30
0
 11
336.9854599586167
 21
267.2737445420122
 31
0
  0
LINE
  8
1
 62
3
 10
336.9854599586167
 20
266.1586149644305
 30
0
 11
336.9854599586167
 21
267.2737445420122
 31
0
  0
LINE
  8
1
 62
3
 10
336.9854599586167
 20
267.2737445420122
 30
0
 11
336.9854599586167
 21
280.746271067695
 31
0
  0
LINE
  8
1
 62
3
 10
336.9854599586167
 20
267.2737445420122
 30
0
 11
336.9854599586167
 21
278.246271067695
 31
0
  0
LINE
  8
1
 62
3
 10
336.9854599586167
 20
277.246271067695
 30
0
 11
336.9854599586167
 21
276.246271067695
 31
0
  0
LINE
  8
1
 62
3
 10
336.9854599586167
 20
282.246271067695
 30
0
 11
336.9854599586167
 21
281.246271067695
 31
0
  0
LINE
  8
1
 62
3
 10
336.9854599586167
 20
283.246271067695
 30
0
 11
336.9854599586167
 21
275.1962710676951
 31
0
  0
LINE
  8
1
 62
3
 10
259.5711808219268
 20
268.6311414901135
 30
0
 11
259.5711808219268
 21
257.746271067695
 31
0
  0
LINE
  8
1
 62
3
 10
259.5711808219268
 20
268.6311414901135
 30
0
 11
259.5711808219268
 21
257.746271067695
 31
0
  0
LINE
  8
1
 62
3
 10
259.5711808219268
 20
269.746271067695
 30
0
 11
259.5711808219268
 21
268.6311414901135
 31
0
  0
LINE
  8
1
 62
3
 10
259.5711808219268
 20
269.746271067695
 30
0
 11
259.5711808219268
 21
268.6311414901135
 31
0
  0
LINE
  8
1
 62
3
 10
336.9854599586167
 20
257.746271067695
 30
0
 11
336.9854599586167
 21
280.746271067695
 31
0
  0
LINE
  8
1
 62
3
 10
336.9854599586167
 20
255.246271067695
 30
0
 11
336.9854599586167
 21
278.246271067695
 31
0
  0
LINE
  8
1
 62
3
 10
336.9854599586167
 20
282.246271067695
 30
0
 11
336.9854599586167
 21
281.246271067695
 31
0
  0
LINE
  8
1
 62
3
 10
336.9854599586167
 20
283.246271067695
 30
0
 11
336.9854599586167
 21
275.1962710676951
 31
0
  0
LINE
  8
1
 62
3
 10
316.9854599586166
 20
268.746271067695
 30
0
 11
297.6708476719392
 21
268.700028766677
 31
0
  0
LINE
  8
1
 62
3
 10
259.5711808219268
 20
280.746271067695
 30
0
 11
259.5711808219268
 21
269.746271067695
 31
0
  0
LINE
  8
1
 62
3
 10
316.9854599586166
 20
269.746271067695
 30
0
 11
296.9678425388771
 21
269.746271067695
 31
0
  0
LINE
  8
1
 62
3
 10
259.5711808219268
 20
278.246271067695
 30
0
 11
259.5711808219268
 21
269.746271067695
 31
0
  0
LINE
  8
1
 62
3
 10
259.5711808219268
 20
276.246271067695
 30
0
 11
259.5711808219268
 21
277.246271067695
 31
0
  0
LINE
  8
1
 62
3
 10
259.5711808219268
 20
278.746271067695
 30
0
 11
259.5711808219268
 21
279.746271067695
 31
0
  0
LINE
  8
1
 62
3
 10
259.5711808219268
 20
275.1962710676951
 30
0
 11
259.5711808219268
 21
280.746271067695
 31
0
  0
LINE
  8
1
 62
3
 10
255.8240105047078
 20
278.746271067695
 30
0
 11
251.6711808219267
 21
278.746271067695
 31
0
  0
LINE
  8
1
 62
3
 10
255.8240105047078
 20
279.746271067695
 30
0
 11
255.8240105047078
 21
278.746271067695
 31
0
  0
LINE
  8
1
 62
3
 10
251.6711808219267
 20
279.746271067695
 30
0
 11
251.6711808219267
 21
278.746271067695
 31
0
  0
LINE
  8
1
 62
3
 10
251.6711808219267
 20
279.746271067695
 30
0
 11
255.8240105047078
 21
279.746271067695
 31
0
  0
LINE
  8
1
 62
3
 10
255.8240105047078
 20
276.246271067695
 30
0
 11
251.6711808219267
 21
276.246271067695
 31
0
  0
LINE
  8
1
 62
3
 10
255.8240105047078
 20
277.246271067695
 30
0
 11
255.8240105047078
 21
276.246271067695
 31
0
  0
LINE
  8
1
 62
3
 10
251.6711808219267
 20
277.246271067695
 30
0
 11
251.6711808219267
 21
276.246271067695
 31
0
  0
LINE
  8
1
 62
3
 10
251.6711808219267
 20
277.246271067695
 30
0
 11
255.8240105047078
 21
277.246271067695
 31
0
  0
LINE
  8
1
 62
3
 10
255.8240105047078
 20
273.746271067695
 30
0
 11
251.6711808219267
 21
273.746271067695
 31
0
  0
LINE
  8
1
 62
3
 10
255.8240105047078
 20
274.746271067695
 30
0
 11
255.8240105047078
 21
273.746271067695
 31
0
  0
LINE
  8
1
 62
3
 10
251.6711808219267
 20
274.746271067695
 30
0
 11
251.6711808219267
 21
273.746271067695
 31
0
  0
LINE
  8
1
 62
3
 10
251.6711808219267
 20
274.746271067695
 30
0
 11
255.8240105047078
 21
274.746271067695
 31
0
  0
LINE
  8
1
 62
3
 10
255.8240105047078
 20
271.246271067695
 30
0
 11
251.6711808219267
 21
271.246271067695
 31
0
  0
LINE
  8
1
 62
3
 10
255.8240105047078
 20
272.246271067695
 30
0
 11
255.8240105047078
 21
271.246271067695
 31
0
  0
LINE
  8
1
 62
3
 10
251.6711808219267
 20
272.246271067695
 30
0
 11
251.6711808219267
 21
271.246271067695
 31
0
  0
LINE
  8
1
 62
3
 10
251.6711808219267
 20
272.246271067695
 30
0
 11
255.8240105047078
 21
272.246271067695
 31
0
  0
LINE
  8
1
 62
3
 10
255.8240105047078
 20
268.746271067695
 30
0
 11
251.6711808219267
 21
268.746271067695
 31
0
  0
LINE
  8
1
 62
3
 10
255.8240105047078
 20
269.746271067695
 30
0
 11
255.8240105047078
 21
268.746271067695
 31
0
  0
LINE
  8
1
 62
3
 10
251.6711808219267
 20
269.746271067695
 30
0
 11
251.6711808219267
 21
268.746271067695
 31
0
  0
LINE
  8
1
 62
3
 10
251.6711808219267
 20
269.746271067695
 30
0
 11
255.8240105047078
 21
269.746271067695
 31
0
  0
LINE
  8
1
 62
3
 10
255.8240105047078
 20
266.246271067695
 30
0
 11
251.6711808219267
 21
266.246271067695
 31
0
  0
LINE
  8
1
 62
3
 10
255.8240105047078
 20
267.246271067695
 30
0
 11
255.8240105047078
 21
266.246271067695
 31
0
  0
LINE
  8
1
 62
3
 10
251.6711808219267
 20
267.246271067695
 30
0
 11
251.6711808219267
 21
266.246271067695
 31
0
  0
LINE
  8
1
 62
3
 10
251.6711808219267
 20
267.246271067695
 30
0
 11
255.8240105047078
 21
267.246271067695
 31
0
  0
LINE
  8
1
 62
3
 10
255.8240105047078
 20
263.746271067695
 30
0
 11
251.6711808219267
 21
263.746271067695
 31
0
  0
LINE
  8
1
 62
3
 10
255.8240105047078
 20
264.746271067695
 30
0
 11
255.8240105047078
 21
263.746271067695
 31
0
  0
LINE
  8
1
 62
3
 10
251.6711808219267
 20
264.746271067695
 30
0
 11
251.6711808219267
 21
263.746271067695
 31
0
  0
LINE
  8
1
 62
3
 10
251.6711808219267
 20
264.746271067695
 30
0
 11
255.8240105047078
 21
264.746271067695
 31
0
  0
LINE
  8
1
 62
3
 10
255.8240105047078
 20
261.246271067695
 30
0
 11
251.6711808219267
 21
261.246271067695
 31
0
  0
LINE
  8
1
 62
3
 10
255.8240105047078
 20
262.246271067695
 30
0
 11
255.8240105047078
 21
261.246271067695
 31
0
  0
LINE
  8
1
 62
3
 10
251.6711808219267
 20
262.246271067695
 30
0
 11
251.6711808219267
 21
261.246271067695
 31
0
  0
LINE
  8
1
 62
3
 10
251.6711808219267
 20
262.246271067695
 30
0
 11
255.8240105047078
 21
262.246271067695
 31
0
  0
LINE
  8
1
 62
3
 10
255.8240105047078
 20
258.746271067695
 30
0
 11
251.6711808219267
 21
258.746271067695
 31
0
  0
LINE
  8
1
 62
3
 10
255.8240105047078
 20
259.746271067695
 30
0
 11
255.8240105047078
 21
258.746271067695
 31
0
  0
LINE
  8
1
 62
3
 10
251.6711808219267
 20
259.746271067695
 30
0
 11
251.6711808219267
 21
258.746271067695
 31
0
  0
LINE
  8
1
 62
3
 10
251.6711808219267
 20
259.746271067695
 30
0
 11
255.8240105047078
 21
259.746271067695
 31
0
  0
LINE
  8
1
 62
3
 10
340.1407952875778
 20
277.1962710676951
 30
0
 11
339.5800770590779
 21
277.1962710676951
 31
0
  0
LINE
  8
1
 62
3
 10
340.1407952875778
 20
275.1962710676951
 30
0
 11
344.8854599586168
 21
275.1962710676951
 31
0
  0
LINE
  8
1
 62
3
 10
340.1407952875778
 20
275.1962710676951
 30
0
 11
340.1407952875778
 21
277.1962710676951
 31
0
  0
LINE
  8
1
 62
3
 10
340.1407952875778
 20
263.2962710676951
 30
0
 11
339.5800770590779
 21
263.2962710676951
 31
0
  0
LINE
  8
1
 62
3
 10
340.1407952875778
 20
261.2962710676951
 30
0
 11
344.8854599586168
 21
261.2962710676951
 31
0
  0
LINE
  8
1
 62
3
 10
340.1407952875778
 20
261.2962710676951
 30
0
 11
340.1407952875778
 21
263.2962710676951
 31
0
  0
LINE
  8
1
 62
3
 10
341.4865190359768
 20
283.246271067695
 30
0
 11
341.0379444531769
 21
283.246271067695
 31
0
  0
LINE
  8
1
 62
3
 10
341.4865190359768
 20
280.246271067695
 30
0
 11
341.0379444531769
 21
280.246271067695
 31
0
  0
LINE
  8
1
 62
3
 10
341.4865190359768
 20
280.246271067695
 30
0
 11
341.4865190359768
 21
283.246271067695
 31
0
  0
LINE
  8
1
 62
3
 10
342.7574803539097
 20
280.246271067695
 30
0
 11
341.4865190359768
 21
280.246271067695
 31
0
  0
LINE
  8
1
 62
3
 10
342.7574803539097
 20
283.246271067695
 30
0
 11
341.4865190359768
 21
283.246271067695
 31
0
  0
LINE
  8
1
 62
3
 10
342.7574803539097
 20
283.246271067695
 30
0
 11
342.7574803539097
 21
280.246271067695
 31
0
  0
LINE
  8
1
 62
3
 10
341.4865190359768
 20
258.246271067695
 30
0
 11
341.0379444531769
 21
258.246271067695
 31
0
  0
LINE
  8
1
 62
3
 10
341.4865190359768
 20
255.246271067695
 30
0
 11
342.7574803539097
 21
255.246271067695
 31
0
  0
LINE
  8
1
 62
3
 10
341.4865190359768
 20
255.246271067695
 30
0
 11
341.4865190359768
 21
258.246271067695
 31
0
  0
LINE
  8
1
 62
3
 10
342.7574803539097
 20
255.246271067695
 30
0
 11
343.7667731652099
 21
255.246271067695
 31
0
  0
LINE
  8
1
 62
3
 10
342.7574803539097
 20
258.246271067695
 30
0
 11
341.4865190359768
 21
258.246271067695
 31
0
  0
LINE
  8
1
 62
3
 10
342.7574803539097
 20
258.246271067695
 30
0
 11
342.7574803539097
 21
255.246271067695
 31
0
  0
LINE
  8
1
 62
3
 10
341.0379444531769
 20
283.246271067695
 30
0
 11
336.9854599586167
 21
283.246271067695
 31
0
  0
LINE
  8
1
 62
3
 10
341.0379444531769
 20
280.246271067695
 30
0
 11
341.0379444531769
 21
283.246271067695
 31
0
  0
LINE
  8
1
 62
3
 10
343.7667731652097
 20
280.246271067695
 30
0
 11
342.7574803539097
 21
280.246271067695
 31
0
  0
LINE
  8
1
 62
3
 10
343.7667731652097
 20
283.246271067695
 30
0
 11
342.7574803539097
 21
283.246271067695
 31
0
  0
LINE
  8
1
 62
3
 10
343.7667731652097
 20
283.246271067695
 30
0
 11
343.7667731652097
 21
280.246271067695
 31
0
  0
LINE
  8
1
 62
3
 10
341.0379444531769
 20
255.246271067695
 30
0
 11
341.4865190359768
 21
255.246271067695
 31
0
  0
LINE
  8
1
 62
3
 10
341.0379444531769
 20
258.246271067695
 30
0
 11
341.0379444531769
 21
255.246271067695
 31
0
  0
LINE
  8
1
 62
3
 10
343.7667731652097
 20
258.246271067695
 30
0
 11
342.7574803539097
 21
258.246271067695
 31
0
  0
LINE
  8
1
 62
3
 10
343.7667731652099
 20
255.246271067695
 30
0
 11
344.8854599586168
 21
255.246271067695
 31
0
  0
LINE
  8
1
 62
3
 10
343.7667731652099
 20
255.246271067695
 30
0
 11
343.7667731652097
 21
258.246271067695
 31
0
  0
LINE
  8
1
 62
3
 10
344.8854599586168
 20
261.2962710676951
 30
0
 11
344.8854599586168
 21
263.2962710676951
 31
0
  0
LINE
  8
1
 62
3
 10
339.5800770590779
 20
261.2962710676951
 30
0
 11
340.1407952875778
 21
261.2962710676951
 31
0
  0
LINE
  8
1
 62
3
 10
339.5800770590779
 20
263.2962710676951
 30
0
 11
339.5800770590779
 21
261.2962710676951
 31
0
  0
LINE
  8
1
 62
3
 10
344.8854599586168
 20
263.2962710676951
 30
0
 11
340.1407952875778
 21
263.2962710676951
 31
0
  0
LINE
  8
1
 62
3
 10
344.8854599586168
 20
263.2962710676951
 30
0
 11
344.8854599586168
 21
275.1962710676951
 31
0
  0
LINE
  8
1
 62
3
 10
344.8854599586168
 20
275.1962710676951
 30
0
 11
344.8854599586168
 21
263.2962710676951
 31
0
  0
LINE
  8
1
 62
3
 10
344.8854599586168
 20
275.1962710676951
 30
0
 11
344.8854599586168
 21
277.1962710676951
 31
0
  0
LINE
  8
1
 62
3
 10
339.5800770590779
 20
275.1962710676951
 30
0
 11
340.1407952875778
 21
275.1962710676951
 31
0
  0
LINE
  8
1
 62
3
 10
339.5800770590779
 20
277.1962710676951
 30
0
 11
339.5800770590779
 21
275.1962710676951
 31
0
  0
LINE
  8
1
 62
3
 10
344.8854599586168
 20
277.1962710676951
 30
0
 11
344.8854599586168
 21
283.246271067695
 31
0
  0
LINE
  8
1
 62
3
 10
344.8854599586168
 20
277.1962710676951
 30
0
 11
340.1407952875778
 21
277.1962710676951
 31
0
  0
LINE
  8
1
 62
3
 10
344.8854599586168
 20
283.246271067695
 30
0
 11
343.7667731652097
 21
283.246271067695
 31
0
  0
LINE
  8
1
 62
3
 10
344.8854599586168
 20
255.246271067695
 30
0
 11
344.8854599586168
 21
261.2962710676951
 31
0
  0
LINE
  8
1
 62
3
 10
336.9854599586167
 20
255.246271067695
 30
0
 11
341.0379444531769
 21
255.246271067695
 31
0
  0
LINE
  8
1
 62
3
 10
336.9854599586167
 20
283.246271067695
 30
0
 11
336.9854599586167
 21
255.246271067695
 31
0
  0
LINE
  8
1
 62
3
 10
259.5711808219268
 20
280.746271067695
 30
0
 11
251.6711808219267
 21
280.746271067695
 31
0
  0
LINE
  8
1
 62
3
 10
251.6711808219267
 20
257.746271067695
 30
0
 11
259.5711808219268
 21
257.746271067695
 31
0
  0
LINE
  8
1
 62
3
 10
251.6711808219267
 20
280.746271067695
 30
0
 11
251.6711808219267
 21
257.746271067695
 31
0
  0
LINE
  8
1
 62
3
 10
316.9854599586166
 20
264.746271067695
 30
0
 11
297.8142995376969
 21
264.746271067695
 31
0
  0
LINE
  8
1
 62
3
 10
316.9854599586166
 20
265.746271067695
 30
0
 11
298.3395304432397
 21
265.746271067695
 31
0
  0
LINE
  8
1
 62
3
 10
316.9854599586166
 20
266.746271067695
 30
0
 11
298.5679025160079
 21
266.746271067695
 31
0
  0
LINE
  8
1
 62
3
 10
316.9854599586166
 20
267.746271067695
 30
0
 11
298.2752010046523
 21
267.746271067695
 31
0
  0
LINE
  8
1
 62
3
 10
316.9854599586166
 20
270.746271067695
 30
0
 11
296.5941804299549
 21
270.746271067695
 31
0
  0
LINE
  8
1
 62
3
 10
316.9854599586166
 20
271.746271067695
 30
0
 11
296.7549331003529
 21
271.746271067695
 31
0
  0
LINE
  8
1
 62
3
 10
316.9854599586166
 20
272.746271067695
 30
0
 11
297.3263882154324
 21
272.746271067695
 31
0
  0
LINE
  8
1
 62
3
 10
316.9854599586166
 20
273.746271067695
 30
0
 11
298.1013863865769
 21
273.746271067695
 31
0
  0
LINE
  8
1
 62
3
 10
297.240125839936
 20
273.746271067695
 30
0
 11
279.5711808219267
 21
273.746271067695
 31
0
  0
LINE
  8
1
 62
3
 10
296.988924847166
 20
264.746271067695
 30
0
 11
279.5711808219267
 21
264.746271067695
 31
0
  0
LINE
  8
1
 62
3
 10
296.6442995826648
 20
272.746271067695
 30
0
 11
279.5711808219267
 21
272.746271067695
 31
0
  0
LINE
  8
1
 62
3
 10
296.1534697993022
 20
271.746271067695
 30
0
 11
279.5711808219267
 21
271.746271067695
 31
0
  0
LINE
  8
1
 62
3
 10
295.8848068775944
 20
270.746271067695
 30
0
 11
279.5711808219267
 21
270.746271067695
 31
0
  0
LINE
  8
1
 62
3
 10
295.9841208760839
 20
269.746271067695
 30
0
 11
275.8976277654978
 21
269.746271067695
 31
0
  0
LINE
  8
1
 62
3
 10
296.5811582735137
 20
268.6974198742781
 30
0
 11
274.8755075142269
 21
268.6454530410169
 31
0
  0
LINE
  8
1
 62
3
 10
297.2496051061754
 20
267.746271067695
 30
0
 11
279.5711808219267
 21
267.746271067695
 31
0
  0
LINE
  8
1
 62
3
 10
297.634870257147
 20
266.746271067695
 30
0
 11
279.5711808219267
 21
266.746271067695
 31
0
  0
LINE
  8
1
 62
3
 10
297.4617612745419
 20
265.746271067695
 30
0
 11
279.5711808219267
 21
265.746271067695
 31
0
  0
LINE
  8
1
 62
3
 10
305.4433336913501
 20
192.2477413329838
 30
0
 11
305.4433336913501
 21
194.347741332984
 31
0
  0
LINE
  8
1
 62
3
 10
304.943059134984
 20
192.2477413329838
 30
0
 11
305.4433336913501
 21
192.2477413329838
 31
0
  0
LINE
  8
1
 62
3
 10
307.1433336913502
 20
193.8477413329841
 30
0
 11
329.3430336913499
 21
193.8477413329838
 31
0
  0
LINE
  8
1
 62
3
 10
304.943059134984
 20
150.8477413329843
 30
0
 11
304.943059134984
 21
136.7977413329841
 31
0
  0
LINE
  8
1
 62
3
 10
304.943059134984
 20
133.4448248437692
 30
0
 11
304.943059134984
 21
136.7977413329841
 31
0
  0
LINE
  8
1
 62
3
 10
304.943059134984
 20
192.2477413329838
 30
0
 11
304.943059134984
 21
133.4448248437692
 31
0
  0
LINE
  8
1
 62
3
 10
305.443059134984
 20
194.347741332984
 30
0
 11
306.6433336913502
 21
194.347741332984
 31
0
  0
LINE
  8
1
 62
3
 10
304.943059134984
 20
175.8477413329841
 30
0
 11
304.5430336913506
 21
175.8477413329841
 31
0
  0
LINE
  8
1
 62
3
 10
304.943059134984
 20
133.4477413329839
 30
0
 11
305.443059134984
 21
133.4477413329839
 31
0
  0
LINE
  8
1
 62
3
 10
304.5430336913506
 20
149.8477413329837
 30
0
 11
304.943059134984
 21
149.8477413329837
 31
0
  0
LINE
  8
1
 62
3
 10
331.5430336913502
 20
156.8477413329838
 30
0
 11
331.64303369135
 21
156.8477413329838
 31
0
  0
LINE
  8
1
 62
3
 10
331.94303369135
 20
166.6477413329839
 30
0
 11
331.9430336913499
 21
159.0477413329839
 31
0
  0
LINE
  8
1
 62
3
 10
331.9430336913499
 20
157.1477413329838
 30
0
 11
331.64303369135
 21
156.8477413329838
 31
0
  0
LINE
  8
1
 62
3
 10
331.64303369135
 20
168.8477413329841
 30
0
 11
331.9430336913499
 21
168.547741332984
 31
0
  0
LINE
  8
1
 62
3
 10
331.9430336913499
 20
158.547741332984
 30
0
 11
331.9430336913499
 21
167.1477413329838
 31
0
  0
LINE
  8
1
 62
3
 10
331.9430336913499
 20
168.547741332984
 30
0
 11
331.9430336913499
 21
167.1477413329838
 31
0
  0
LINE
  8
1
 62
3
 10
331.64303369135
 20
168.8477413329841
 30
0
 11
331.5430336913502
 21
168.8477413329838
 31
0
  0
LINE
  8
1
 62
3
 10
331.9430336913499
 20
158.547741332984
 30
0
 11
331.9430336913499
 21
157.1477413329838
 31
0
  0
LINE
  8
1
 62
3
 10
331.5430336913502
 20
156.8477413329838
 30
0
 11
331.5430336913502
 21
162.8477413329838
 31
0
  0
LINE
  8
1
 62
3
 10
331.5430336913502
 20
135.2477413329838
 30
0
 11
331.5430336913502
 21
134.0477413329838
 31
0
  0
LINE
  8
1
 62
3
 10
329.3430336913499
 20
131.8477413329838
 30
0
 11
307.1433336913502
 21
131.847741332984
 31
0
  0
LINE
  8
1
 62
3
 10
331.5430336913502
 20
156.8477413329838
 30
0
 11
331.5430336913502
 21
135.2477413329838
 31
0
  0
LINE
  8
1
 62
3
 10
331.5430336913502
 20
162.8477413329838
 30
0
 11
331.5430336913502
 21
168.8477413329838
 31
0
  0
LINE
  8
1
 62
3
 10
331.5430336913502
 20
191.6477413329838
 30
0
 11
331.5430336913502
 21
190.4477413329838
 31
0
  0
LINE
  8
1
 62
3
 10
331.5430336913502
 20
190.4477413329838
 30
0
 11
331.5430336913502
 21
168.8477413329838
 31
0
  0
LINE
  8
1
 62
3
 10
147.9068513433588
 20
122.8477413329838
 30
0
 11
147.9068513433588
 21
120.8477413329838
 31
0
  0
LINE
  8
1
 62
3
 10
175.9068513433588
 20
122.8477413329838
 30
0
 11
175.9068513433588
 21
120.8477413329838
 31
0
  0
LINE
  8
1
 62
3
 10
184.9068513433588
 20
122.8477413329838
 30
0
 11
161.9068513433588
 21
122.8477413329838
 31
0
  0
LINE
  8
1
 62
3
 10
161.9068513433588
 20
122.8477413329838
 30
0
 11
138.9068513433588
 21
122.8477413329838
 31
0
  0
LINE
  8
1
 62
3
 10
138.9068513433588
 20
122.8477413329838
 30
0
 11
137.2499970938664
 21
122.8477413329838
 31
0
  0
LINE
  8
1
 62
3
 10
185.735278468105
 20
122.8477413329838
 30
0
 11
184.9068513433588
 21
122.8477413329838
 31
0
  0
LINE
  8
1
 62
3
 10
303.6680413262412
 20
126.4859636221384
 30
0
 11
303.8430413262411
 21
126.4859636221384
 31
0
  0
LINE
  8
1
 62
3
 10
303.6680413262412
 20
127.2109636221383
 30
0
 11
303.6680413262412
 21
126.4859636221384
 31
0
  0
LINE
  8
1
 62
3
 10
303.8430413262411
 20
127.2109636221383
 30
0
 11
303.6680413262412
 21
127.2109636221383
 31
0
  0
LINE
  8
1
 62
3
 10
302.1430336913498
 20
124.7484636221384
 30
0
 11
302.9554667883002
 21
124.7484636221385
 31
0
  0
LINE
  8
1
 62
3
 10
302.9554667883003
 20
128.9484636221385
 30
0
 11
302.1430336913498
 21
128.9484636221386
 31
0
  0
LINE
  8
1
 62
3
 10
304.5430336913506
 20
194.9608227796468
 30
0
 11
300.5430336913498
 21
194.9608227796467
 31
0
  0
LINE
  8
1
 62
3
 10
302.1430336913498
 20
131.5477413329836
 30
0
 11
308.0430413262416
 21
131.5477413329836
 31
0
  0
LINE
  8
1
 62
3
 10
308.0430413262416
 20
131.5477413329836
 30
0
 11
308.0430413262416
 21
126.547741332984
 31
0
  0
LINE
  8
1
 62
3
 10
304.7230413262416
 20
126.8477413329835
 30
0
 11
303.6680413262412
 21
126.8477413329835
 31
0
  0
LINE
  8
1
 62
3
 10
304.7230413262416
 20
126.8477413329835
 30
0
 11
305.3630413262414
 21
126.8477413329835
 31
0
  0
LINE
  8
1
 62
3
 10
306.8276085809762
 20
126.547741332984
 30
0
 11
306.8276085809762
 21
126.8477413329835
 31
0
  0
LINE
  8
1
 62
3
 10
305.3630413262414
 20
126.547741332984
 30
0
 11
305.3630413262414
 21
126.8477413329835
 31
0
  0
LINE
  8
1
 62
3
 10
304.7230413262416
 20
126.547741332984
 30
0
 11
304.7230413262416
 21
126.8477413329835
 31
0
  0
LINE
  8
1
 62
3
 10
305.3630413262414
 20
122.9991213132885
 30
0
 11
305.3630413262414
 21
126.547741332984
 31
0
  0
LINE
  8
1
 62
3
 10
305.0630413262416
 20
122.6991213132885
 30
0
 11
305.0230413262415
 21
122.6991213132885
 31
0
  0
LINE
  8
1
 62
3
 10
306.8276085809762
 20
126.8477413329835
 30
0
 11
305.3630413262414
 21
126.8477413329835
 31
0
  0
LINE
  8
1
 62
3
 10
304.7230413262416
 20
122.9991213132887
 30
0
 11
304.7230413262416
 21
126.547741332984
 31
0
  0
LINE
  8
1
 62
3
 10
308.0430413262416
 20
121.8477413329835
 30
0
 11
306.8276085809762
 21
121.8477413329835
 31
0
  0
LINE
  8
1
 62
3
 10
306.8276085809762
 20
121.8477413329835
 30
0
 11
306.8276085809762
 21
126.547741332984
 31
0
  0
LINE
  8
1
 62
3
 10
308.0430413262416
 20
126.547741332984
 30
0
 11
308.0430413262416
 21
121.8477413329835
 31
0
  0
LINE
  8
1
 62
3
 10
304.5430336913506
 20
194.9608227796468
 30
0
 11
304.5430336913506
 21
138.047784523244
 31
0
  0
LINE
  8
1
 62
3
 10
292.5430336913498
 20
199.3477413329837
 30
0
 11
292.5430336913498
 21
126.3477413329836
 31
0
  0
LINE
  8
1
 62
3
 10
175.9068513433588
 20
120.8477413329838
 30
0
 11
147.9068513433588
 21
120.8477413329838
 31
0
  0
LINE
  8
1
 62
3
 10
292.5430336913501
 20
202.8477413329842
 30
0
 11
299.0430336913498
 21
202.8477413329841
 31
0
  0
LINE
  8
1
 62
3
 10
300.5430336913498
 20
194.1251063359097
 30
0
 11
300.5430336913498
 21
200.8477413329839
 31
0
  0
LINE
  8
1
 62
3
 10
289.5430336913498
 20
166.3477413329836
 30
0
 11
289.5430336913498
 21
129.3477413329835
 31
0
  0
LINE
  8
1
 62
3
 10
292.5430336913498
 20
122.8477413329838
 30
0
 11
300.5430336913498
 21
122.8477413329837
 31
0
  0
LINE
  8
1
 62
3
 10
292.5430336913498
 20
126.3477413329836
 30
0
 11
292.5430336913498
 21
122.8477413329838
 31
0
  0
LINE
  8
1
 62
3
 10
289.5430336913498
 20
126.6977413329836
 30
0
 11
289.8930336913497
 21
126.3477413329836
 31
0
  0
LINE
  8
1
 62
3
 10
292.5430336913498
 20
126.3477413329836
 30
0
 11
289.8930336913497
 21
126.3477413329836
 31
0
  0
LINE
  8
1
 62
3
 10
289.5430336913498
 20
129.3477413329835
 30
0
 11
289.5430336913498
 21
126.6977413329836
 31
0
  0
LINE
  8
1
 62
3
 10
292.5430336913501
 20
202.8477413329842
 30
0
 11
292.5430336913498
 21
199.3477413329837
 31
0
  0
LINE
  8
1
 62
3
 10
289.5430336913498
 20
198.9977413329838
 30
0
 11
289.8930336913497
 21
199.3477413329837
 31
0
  0
LINE
  8
1
 62
3
 10
289.8930336913497
 20
199.3477413329837
 30
0
 11
292.5430336913498
 21
199.3477413329837
 31
0
  0
LINE
  8
1
 62
3
 10
289.5430336913498
 20
198.9977413329838
 30
0
 11
289.5430336913498
 21
196.3477413329837
 31
0
  0
LINE
  8
1
 62
3
 10
289.5430336913498
 20
196.3477413329837
 30
0
 11
289.5430336913498
 21
166.3477413329836
 31
0
  0
LINE
  8
1
 62
1
 10
255.5430591349834
 20
162.8477413329838
 30
0
 11
336.94303369135
 21
162.8477413329838
 31
0
  0
LINE
  8
1
 62
1
 10
116.9068513433588
 20
162.8477413329838
 30
0
 11
206.9068513433588
 21
162.8477413329838
 31
0
  0
LINE
  8
1
 62
1
 10
161.9068513433588
 20
115.8477413329838
 30
0
 11
161.9068513433588
 21
207.8477413329838
 31
0
  0
LINE
  8
1
 62
3
 10
201.9068513433588
 20
195.8477413329838
 30
0
 11
201.9068513433588
 21
162.8477413329838
 31
0
  0
LINE
  8
1
 62
3
 10
121.9068513433588
 20
195.8477413329838
 30
0
 11
121.9068513433588
 21
162.8477413329838
 31
0
  0
LINE
  8
1
 62
1
 10
128.6568513433588
 20
191.6575652462223
 30
0
 11
128.6568513433588
 21
200.5379174197453
 31
0
  0
LINE
  8
1
 62
1
 10
133.0970274301204
 20
196.0977413329838
 30
0
 11
124.2166752565974
 21
196.0977413329838
 31
0
  0
LINE
  8
1
 62
1
 10
190.7166752565973
 20
196.0977413329838
 30
0
 11
199.5970274301202
 21
196.0977413329838
 31
0
  0
LINE
  8
1
 62
1
 10
195.1568513433588
 20
191.6575652462222
 30
0
 11
195.1568513433588
 21
200.5379174197452
 31
0
  0
LINE
  8
1
 62
3
 10
128.9068513433588
 20
202.8477413329838
 30
0
 11
194.9068513433588
 21
202.8477413329838
 31
0
  0
LINE
  8
1
 62
3
 10
201.9068513433588
 20
162.8477413329838
 30
0
 11
201.9068513433588
 21
129.8477413329838
 31
0
  0
LINE
  8
1
 62
3
 10
121.9068513433588
 20
162.8477413329838
 30
0
 11
121.9068513433588
 21
129.8477413329838
 31
0
  0
LINE
  8
1
 62
1
 10
128.6568513433588
 20
125.1575652462223
 30
0
 11
128.6568513433588
 21
134.0379174197453
 31
0
  0
LINE
  8
1
 62
1
 10
124.2166752565974
 20
129.5977413329838
 30
0
 11
133.0970274301204
 21
129.5977413329838
 31
0
  0
LINE
  8
1
 62
1
 10
199.5970274301202
 20
129.5977413329836
 30
0
 11
190.7166752565973
 21
129.5977413329838
 31
0
  0
LINE
  8
1
 62
1
 10
195.1568513433588
 20
125.1575652462223
 30
0
 11
195.1568513433588
 21
134.0379174197452
 31
0
  0
LINE
  8
1
 62
3
 10
194.9068513433588
 20
122.8477413329838
 30
0
 11
128.9068513433588
 21
122.8477413329838
 31
0
  0
LINE
  8
1
 62
3
 10
300.5430336913498
 20
122.8477413329837
 30
0
 11
300.5430336913498
 21
194.1251063359097
 31
0
  0
LINE
  8
1
 62
3
 10
300.5430336913498
 20
138.0477845232444
 30
0
 11
304.5430336913506
 21
138.047784523244
 31
0
  0
LINE
  8
1
 62
3
 10
159.2611000322942
 20
165.8477413329838
 30
0
 11
164.5361186014381
 21
165.8477413329838
 31
0
  0
LINE
  8
1
 62
3
 10
160.0768513433588
 20
156.1477413329838
 30
0
 11
160.9068513433588
 21
156.1477413329838
 31
0
  0
LINE
  8
1
 62
3
 10
165.4068513433588
 20
157.8177413329838
 30
0
 11
165.4068513433588
 21
159.7108639047121
 31
0
  0
LINE
  8
1
 62
3
 10
160.0968513433589
 20
158.5355019857491
 30
0
 11
160.9068513433588
 21
158.5355019857491
 31
0
  0
LINE
  8
1
 62
3
 10
164.4068513433588
 20
157.8455019857491
 30
0
 11
164.4068513433588
 21
157.8377413329838
 31
0
  0
LINE
  8
1
 62
3
 10
163.7168513433589
 20
157.1477413329838
 30
0
 11
162.9068513433588
 21
157.1477413329838
 31
0
  0
LINE
  8
1
 62
3
 10
159.4068513433588
 20
157.8377413329838
 30
0
 11
159.4068513433588
 21
157.8455019857491
 31
0
  0
LINE
  8
1
 62
3
 10
158.4068513433588
 20
159.7108639047122
 30
0
 11
158.4068513433588
 21
157.8177413329838
 31
0
  0
LINE
  8
1
 62
3
 10
160.9068513433588
 20
158.9747579867764
 30
0
 11
160.9068513433588
 21
158.5355019857491
 31
0
  0
LINE
  8
1
 62
3
 10
162.9068513433588
 20
158.9747579867764
 30
0
 11
162.9068513433588
 21
158.5355019857491
 31
0
  0
LINE
  8
1
 62
3
 10
160.9068513433588
 20
157.1477413329838
 30
0
 11
160.9068513433588
 21
156.1477413329838
 31
0
  0
LINE
  8
1
 62
3
 10
162.9068513433588
 20
157.1477413329838
 30
0
 11
162.9068513433588
 21
156.1477413329838
 31
0
  0
LINE
  8
1
 62
3
 10
162.9068513433588
 20
158.5355019857491
 30
0
 11
163.7168513433588
 21
158.5355019857491
 31
0
  0
LINE
  8
1
 62
3
 10
160.9068513433588
 20
157.1477413329838
 30
0
 11
160.0968513433588
 21
157.1477413329838
 31
0
  0
LINE
  8
1
 62
3
 10
162.9068513433588
 20
156.1477413329838
 30
0
 11
163.7368513433589
 21
156.1477413329838
 31
0
  0
LINE
  8
1
 62
3
 10
289.5430336913498
 20
166.8477413329838
 30
0
 11
284.5430591349833
 21
166.8477413329838
 31
0
  0
LINE
  8
1
 62
3
 10
260.5430591349833
 20
162.8477413329838
 30
0
 11
260.5430591349833
 21
165.8477413329838
 31
0
  0
LINE
  8
1
 62
3
 10
261.0430591349834
 20
158.8477413329839
 30
0
 11
289.5430336913498
 21
158.8477413329838
 31
0
  0
LINE
  8
1
 62
3
 10
260.5430591349833
 20
165.8477413329838
 30
0
 11
260.5430591349834
 21
159.3477413329839
 31
0
  0
LINE
  8
1
 62
3
 10
261.0430591349834
 20
158.8477413329839
 30
0
 11
260.5430591349834
 21
159.3477413329839
 31
0
  0
LINE
  8
1
 62
3
 10
261.0430591349834
 20
165.8477413329841
 30
0
 11
260.5430591349833
 21
165.8477413329838
 31
0
  0
LINE
  8
1
 62
2
 10
261.0430591349834
 20
165.8477413329841
 30
0
 11
261.0430591349834
 21
158.8477413329839
 31
0
  0
LINE
  8
1
 62
3
 10
284.5430591349834
 20
165.8477413329838
 30
0
 11
261.0430591349834
 21
165.8477413329841
 31
0
  0
LINE
  8
1
 62
3
 10
300.5430336913498
 20
123.295070388689
 30
0
 11
302.1430336913498
 21
123.295070388689
 31
0
  0
LINE
  8
1
 62
3
 10
302.1430336913498
 20
123.295070388689
 30
0
 11
302.1430336913498
 21
138.0477845232442
 31
0
  0
LINE
  8
1
 62
3
 10
299.0430336913498
 20
202.8477413329841
 30
0
 11
299.0430336913498
 21
200.8477413329839
 31
0
  0
LINE
  8
1
 62
3
 10
300.5430336913498
 20
200.8477413329839
 30
0
 11
299.0430336913498
 21
200.8477413329839
 31
0
  0
LINE
  8
1
 62
3
 10
299.0430336913498
 20
200.8477413329839
 30
0
 11
299.0430336913498
 21
122.8477413329837
 31
0
  0
LINE
  8
1
 62
3
 10
299.0430336913498
 20
200.0977413329839
 30
0
 11
300.5430336913498
 21
200.0977413329839
 31
0
  0
LINE
  8
1
 62
3
 10
299.0430336913498
 20
192.0977413329839
 30
0
 11
300.5430336913498
 21
192.0977413329839
 31
0
  0
LINE
  8
1
 62
3
 10
299.0430336913498
 20
188.8477413329839
 30
0
 11
300.5430336913498
 21
188.8477413329839
 31
0
  0
LINE
  8
1
 62
3
 10
299.0430336913498
 20
136.8477413329833
 30
0
 11
300.5430336913498
 21
136.8477413329833
 31
0
  0
LINE
  8
1
 62
3
 10
299.0430336913498
 20
133.5977413329839
 30
0
 11
300.5430336913498
 21
133.5977413329839
 31
0
  0
LINE
  8
1
 62
3
 10
299.0430336913498
 20
125.5977413329839
 30
0
 11
300.5430336913498
 21
125.5977413329839
 31
0
  0
LINE
  8
1
 62
3
 10
305.4433336913501
 20
131.5477413329836
 30
0
 11
305.4433336913501
 21
192.2477413329838
 31
0
  0
LINE
  8
1
 62
3
 10
284.5430591349833
 20
166.8477413329838
 30
0
 11
284.5430591349834
 21
165.8477413329838
 31
0
  0
ARC
  8
1
 62
3
 10
301.2538336169131
 20
74.35847122308559
 30
0
 40
2.982960852905399
 50
37.11575597786651
 51
55.2183146820918
  0
ARC
  8
1
 62
3
 10
299.0567490503768
 20
74.7084712230857
 30
0
 40
4.79999999999992
 50
342.4172239915743
 51
355.6688512692123
  0
ARC
  8
1
 62
3
 10
301.253833616913
 20
75.05847122308559
 30
0
 40
2.982960852905305
 50
304.781685317911
 51
322.8842440221389
  0
ARC
  8
1
 62
3
 10
299.0567490503768
 20
74.7084712230857
 30
0
 40
4.799999999999817
 50
4.331148730788902
 51
17.58277600842688
  0
ARC
  8
1
 62
3
 10
301.2538336169131
 20
39.8584712230856
 30
0
 40
2.982960852905219
 50
304.7816853179082
 51
322.8842440221335
  0
ARC
  8
1
 62
3
 10
299.0567490503768
 20
39.50847122308549
 30
0
 40
4.79999999999981
 50
4.331148730787718
 51
17.58277600842583
  0
ARC
  8
1
 62
3
 10
301.253833616913
 20
39.1584712230856
 30
0
 40
2.982960852905261
 50
37.11575597786117
 51
55.21831468208897
  0
ARC
  8
1
 62
3
 10
299.0567490503768
 20
39.50847122308549
 30
0
 40
4.799999999999949
 50
342.4172239915731
 51
355.6688512692111
  0
ARC
  8
1
 62
3
 10
420.5351632522224
 20
162.8477413329839
 30
0
 40
32.5
 50
180
 51
228.2704652751676
  0
ARC
  8
1
 62
3
 10
420.5351632522224
 20
162.8477413329839
 30
0
 40
32.50000000000005
 50
313.3451802810877
 51
78.16773095150305
  0
ARC
  8
1
 62
3
 10
420.5351632522224
 20
162.8477413329839
 30
0
 40
32.5
 50
180
 51
228.2704652751676
  0
ARC
  8
1
 62
3
 10
420.5351632522224
 20
162.8477413329839
 30
0
 40
32.49999999999994
 50
101.832269048497
 51
180
  0
ARC
  8
1
 62
4
 10
420.5351632522224
 20
162.8477413329839
 30
0
 40
32.50000000000031
 50
210.0576211967898
 51
210.5882742142301
  0
ARC
  8
1
 62
3
 10
420.5351632522224
 20
162.8477413329839
 30
0
 40
32.50000000000031
 50
210.0576211967898
 51
210.5882742142301
  0
ARC
  8
1
 62
3
 10
438.1351617045536
 20
126.8484636221384
 30
0
 40
1.043999999999797
 50
210.2161982852642
 51
239.783801714758
  0
ARC
  8
1
 62
3
 10
438.1351617045536
 20
126.8484636221384
 30
0
 40
0.4571999999998676
 50
262.5415509437182
 51
277.4584490563382
  0
ARC
  8
1
 62
3
 10
438.1351617045536
 20
126.8484636221384
 30
0
 40
1.044000000000211
 50
300.2161982852582
 51
329.7838017147516
  0
ARC
  8
1
 62
3
 10
438.1351617045536
 20
126.8484636221384
 30
0
 40
0.4572000000002482
 50
352.5415509436832
 51
7.458449056318611
  0
ARC
  8
1
 62
3
 10
438.1351617045536
 20
126.8484636221384
 30
0
 40
1.044000000000195
 50
30.21619828523973
 51
59.78380171473945
  0
ARC
  8
1
 62
3
 10
438.1351617045536
 20
126.8484636221384
 30
0
 40
0.4571999999999266
 50
82.54155094366172
 51
97.45844905628178
  0
ARC
  8
1
 62
3
 10
438.1351617045536
 20
126.8484636221384
 30
0
 40
1.043999999999965
 50
120.2161982852444
 51
149.7838017147446
  0
ARC
  8
1
 62
3
 10
438.1351617045536
 20
126.8484636221384
 30
0
 40
0.4571999999999119
 50
172.5415509436758
 51
187.4584490563224
  0
ARC
  8
1
 62
3
 10
402.9351647998911
 20
126.8484636221384
 30
0
 40
1.043999999999895
 50
210.216198285261
 51
239.7838017147607
  0
ARC
  8
1
 62
3
 10
402.9351647998911
 20
126.8484636221384
 30
0
 40
0.4571999999998603
 50
262.5415509437253
 51
277.4584490563524
  0
ARC
  8
1
 62
3
 10
402.9351647998911
 20
126.8484636221384
 30
0
 40
1.044000000000211
 50
300.2161982852582
 51
329.78380171475
  0
ARC
  8
1
 62
3
 10
402.9351647998911
 20
126.8484636221384
 30
0
 40
0.4572000000002482
 50
352.5415509436832
 51
7.458449056318611
  0
ARC
  8
1
 62
3
 10
402.9351647998911
 20
126.8484636221384
 30
0
 40
1.044000000000146
 50
30.21619828524129
 51
59.78380171473945
  0
ARC
  8
1
 62
3
 10
402.9351647998911
 20
126.8484636221384
 30
0
 40
0.4571999999999414
 50
82.54155094364758
 51
97.45844905627472
  0
ARC
  8
1
 62
3
 10
402.9351647998911
 20
126.8484636221384
 30
0
 40
1.043999999999937
 50
120.2161982852417
 51
149.7838017147477
  0
ARC
  8
1
 62
3
 10
402.9351647998911
 20
126.8484636221384
 30
0
 40
0.4571999999999119
 50
172.5415509436758
 51
187.4584490563224
  0
ARC
  8
1
 62
3
 10
301.2538336169131
 20
127.1984636221385
 30
0
 40
2.982960852905219
 50
304.7816853179082
 51
322.8842440221335
  0
ARC
  8
1
 62
3
 10
299.0567490503768
 20
126.8484636221384
 30
0
 40
4.79999999999981
 50
4.331148730787718
 51
17.58277600842575
  0
ARC
  8
1
 62
3
 10
301.253833616913
 20
126.4984636221385
 30
0
 40
2.982960852905256
 50
37.11575597786106
 51
55.21831468208897
  0
ARC
  8
1
 62
3
 10
299.0567490503768
 20
126.8484636221384
 30
0
 40
4.799999999999949
 50
342.4172239915731
 51
355.6688512692111
  0
ARC
  8
1
 62
3
 10
161.9882203370125
 20
163.3416216593664
 30
0
 40
4.806808424543289
 50
90.96994142320934
 51
185.8973193016913
  0
ARC
  8
1
 62
3
 10
161.8254823497052
 20
163.3416216593664
 30
0
 40
4.806808424543241
 50
354.1026806983087
 51
89.03005857679203
  0
ARC
  8
1
 62
3
 10
161.9068513433588
 20
162.8477413329838
 30
0
 40
4.699999999999903
 50
180
 51
221.8683062262925
  0
ARC
  8
1
 62
3
 10
161.9068513433588
 20
162.8477413329838
 30
0
 40
4.700000000000033
 50
318.1316937737067
 51
0
  0
ARC
  8
1
 62
3
 10
161.9068513433588
 20
162.8477413329838
 30
0
 40
4
 50
0
 51
255.5224878140699
  0
ARC
  8
1
 62
3
 10
161.9068513433588
 20
162.8477413329838
 30
0
 40
3.999999999999961
 50
284.4775121859301
 51
0
  0
ARC
  8
1
 62
3
 10
161.9068513433588
 20
162.8477413329838
 30
0
 40
3.999999999999961
 50
255.5224878140699
 51
284.4775121859301
  0
CIRCLE
  8
1
 62
3
 10
420.535777024956
 20
162.8477413329838
 30
0
 40
6
  0
CIRCLE
  8
1
 62
3
 10
420.535777024956
 20
162.8477413329838
 30
0
 40
4
  0
CIRCLE
  8
1
 62
3
 10
305.1684567193013
 20
69.6084712230856
 30
0
 40
0.3499999999997954
  0
CIRCLE
  8
1
 62
3
 10
305.1684567193013
 20
44.6084712230856
 30
0
 40
0.3499999999996746
  0
CIRCLE
  8
1
 62
3
 10
305.1684567193013
 20
57.1084712230856
 30
0
 40
0.3499999999996817
  0
CIRCLE
  8
1
 62
3
 10
305.1684567193013
 20
54.6084712230856
 30
0
 40
0.3499999999996817
  0
CIRCLE
  8
1
 62
3
 10
305.1684567193013
 20
52.1084712230856
 30
0
 40
0.3499999999996817
  0
CIRCLE
  8
1
 62
3
 10
305.1684567193013
 20
49.6084712230856
 30
0
 40
0.3499999999996817
  0
CIRCLE
  8
1
 62
3
 10
305.1684567193013
 20
47.1084712230856
 30
0
 40
0.3499999999996817
  0
CIRCLE
  8
1
 62
3
 10
305.1684567193013
 20
59.6084712230856
 30
0
 40
0.3499999999996817
  0
CIRCLE
  8
1
 62
3
 10
305.1684567193013
 20
62.1084712230856
 30
0
 40
0.3499999999996817
  0
CIRCLE
  8
1
 62
3
 10
305.1684567193013
 20
64.6084712230856
 30
0
 40
0.3499999999996817
  0
CIRCLE
  8
1
 62
3
 10
305.1684567193013
 20
67.1084712230856
 30
0
 40
0.3499999999997954
  0
CIRCLE
  8
1
 62
3
 10
387.2851632522223
 20
129.5977413329839
 30
0
 40
2.599999999999966
  0
CIRCLE
  8
1
 62
3
 10
387.2851632522223
 20
196.0977413329839
 30
0
 40
2.599999999999896
  0
CIRCLE
  8
1
 62
3
 10
453.7851632522225
 20
129.5977413329839
 30
0
 40
2.600000000000051
  0
CIRCLE
  8
1
 62
3
 10
453.7851632522225
 20
196.0977413329839
 30
0
 40
2.599999999999649
  0
CIRCLE
  8
1
 62
3
 10
453.7851632522225
 20
196.0977413329839
 30
0
 40
4.000000000000284
  0
CIRCLE
  8
1
 62
3
 10
453.7851632522225
 20
129.5977413329839
 30
0
 40
4.000000000000284
  0
CIRCLE
  8
1
 62
3
 10
387.2851632522223
 20
129.5977413329839
 30
0
 40
4
  0
CIRCLE
  8
1
 62
3
 10
387.2851632522223
 20
196.0977413329839
 30
0
 40
4
  0
CIRCLE
  8
1
 62
3
 10
438.1351617045536
 20
126.8484636221384
 30
0
 40
2.015999999999679
  0
CIRCLE
  8
1
 62
3
 10
402.9351647998911
 20
126.8484636221384
 30
0
 40
2.015999999999679
  0
CIRCLE
  8
1
 62
3
 10
420.535777024956
 20
162.8477413329838
 30
0
 40
31.00000000000006
  0
CIRCLE
  8
1
 62
3
 10
161.9068513433588
 20
162.8477413329838
 30
0
 40
11.84999999999999
  0
CIRCLE
  8
1
 62
3
 10
161.9068513433588
 20
162.8477413329838
 30
0
 40
36.65000000000001
  0
CIRCLE
  8
1
 62
3
 10
161.9068513433588
 20
162.8477413329838
 30
0
 40
33.5
  0
CIRCLE
  8
1
 62
3
 10
161.9068513433588
 20
162.8477413329838
 30
0
 40
11
  0
CIRCLE
  8
1
 62
3
 10
128.6568513433588
 20
196.0977413329838
 30
0
 40
2.750000000000069
  0
CIRCLE
  8
1
 62
3
 10
195.1568513433588
 20
196.0977413329838
 30
0
 40
2.750000000000086
  0
CIRCLE
  8
1
 62
3
 10
128.6568513433588
 20
129.5977413329838
 30
0
 40
2.749999999999998
  0
CIRCLE
  8
1
 62
3
 10
195.1568513433588
 20
129.5977413329838
 30
0
 40
2.749999999999922
  0
POLYLINE
  8
1
 62
3
 66
1
  0
VERTEX
  8
1
 10
321.6811332663165
 20
268.6454530410169
 30
0
 42
-0.001154420490727967
  0
VERTEX
  8
1
 10
322.4127249171723
 20
268.5668380163729
 30
0
 42
-0.003468734099921962
  0
VERTEX
  8
1
 10
323.142981985127
 20
268.4815318693496
 30
0
 42
-0.005796547176402046
  0
VERTEX
  8
1
 10
323.8705698872797
 20
268.3828434775677
 30
0
 42
-0.008136977558675434
  0
VERTEX
  8
1
 10
324.5941540407292
 20
268.2640817186477
 30
0
 42
-0.01756846700865615
  0
VERTEX
  8
1
 10
325.7903072282057
 20
268.0040599439541
 30
0
 42
-0.003142605946829749
  0
VERTEX
  8
1
 10
326.2664182810132
 20
267.8805052612309
 30
0
 42
-5.559773182017704e-005
  0
VERTEX
  8
1
 10
326.7419330200327
 20
267.7538547039073
 30
0
 42
0.003030683839468286
  0
VERTEX
  8
1
 10
327.2180514442991
 20
267.6300715538502
 30
0
 42
0.006125008534393285
  0
VERTEX
  8
1
 10
327.6959735528478
 20
267.5151190929261
 30
0
 42
0.009595418813343954
  0
VERTEX
  8
1
 10
328.3442916694481
 20
267.3805896251409
 30
0
 42
0.003443420274558785
  0
VERTEX
  8
1
 10
328.9961863151406
 20
267.2629580240751
 30
0
 42
0.001921277061853573
  0
VERTEX
  8
1
 10
329.6497775462666
 20
267.1522475191733
 30
0
 42
-0.003059807641699615
  0
VERTEX
  8
1
 10
330.3031854191669
 20
267.0384813398805
 30
0
 42
-0.006880434131722977
  0
VERTEX
  8
1
 10
330.9545299901827
 20
266.9116827156411
 30
0
 42
-0.005683946695118057
  0
VERTEX
  8
1
 10
331.5400537698012
 20
266.7806460673073
 30
0
 42
-0.001199148557944632
  0
VERTEX
  8
1
 10
332.1239211195527
 20
266.6415171303467
 30
0
 42
0.003285732452680605
  0
VERTEX
  8
1
 10
332.707693222478
 20
266.5049786956863
 30
0
 42
0.007799462787777147
  0
VERTEX
  8
1
 10
333.2929312616172
 20
266.3817135542531
 30
0
 42
0.01237618344493387
  0
VERTEX
  8
1
 10
333.8811964200107
 20
266.2824044969738
 30
0
 42
0.01495152526765935
  0
VERTEX
  8
1
 10
334.4961189704026
 20
266.2128775308538
 30
0
 42
0.009328849676097432
  0
VERTEX
  8
1
 10
335.114994959014
 20
266.1731966044746
 30
0
 42
0.008782865383504434
  0
VERTEX
  8
1
 10
335.7368360262901
 20
266.1559002079012
 30
0
 42
0.00321890557419471
  0
VERTEX
  8
1
 10
336.3606538126759
 20
266.1535268311982
 30
0
 42
0.002755082483425804
  0
VERTEX
  8
1
 10
336.9854599586167
 20
266.1586149644305
 30
0
  0
SEQEND
  8
1
  0
POLYLINE
  8
1
 62
3
 66
1
  0
VERTEX
  8
1
 10
320.6590130150457
 20
269.746271067695
 30
0
 42
-7.052380712958715e-005
  0
VERTEX
  8
1
 10
320.9495133775073
 20
269.7228957894487
 30
0
 42
-0.0002115044981515632
  0
VERTEX
  8
1
 10
321.2400464621859
 20
269.6993529194688
 30
0
 42
-0.0003522839051162551
  0
VERTEX
  8
1
 10
321.5306449912986
 20
269.6754748660214
 30
0
 42
-0.0004927261347717764
  0
VERTEX
  8
1
 10
321.8213416870623
 20
269.651094037373
 30
0
 42
-0.000632692768334731
  0
VERTEX
  8
1
 10
322.1121692716941
 20
269.6260428417899
 30
0
 42
-0.00282922489831666
  0
VERTEX
  8
1
 10
322.7817791811704
 20
269.564204745473
 30
0
 42
-0.005262177555072429
  0
VERTEX
  8
1
 10
323.4504657701915
 20
269.4915248723441
 30
0
 42
-0.007717915863717177
  0
VERTEX
  8
1
 10
324.1164391911083
 20
269.4015994943541
 30
0
 42
-0.01019790816424343
  0
VERTEX
  8
1
 10
324.7779095962715
 20
269.2880248834536
 30
0
 42
-0.0216548724466671
  0
VERTEX
  8
1
 10
325.8987893526816
 20
269.0210494552156
 30
0
 42
-0.003174607387893838
  0
VERTEX
  8
1
 10
326.3621463218824
 20
268.8874710233587
 30
0
 42
0.001341736710512523
  0
VERTEX
  8
1
 10
326.8249751890128
 20
268.7522057000759
 30
0
 42
0.00586761784408354
  0
VERTEX
  8
1
 10
327.2890930974511
 20
268.6237971694204
 30
0
 42
0.01043616403221864
  0
VERTEX
  8
1
 10
327.7563171905758
 20
268.5107891154452
 30
0
 42
0.015726764026848
  0
VERTEX
  8
1
 10
328.3974553411953
 20
268.3908125862848
 30
0
 42
0.004938296709021135
  0
VERTEX
  8
1
 10
329.0442642937825
 20
268.297245097751
 30
0
 42
0.001884020283250086
  0
VERTEX
  8
1
 10
329.6933426329071
 20
268.2123737817284
 30
0
 42
-0.006909369922584253
  0
VERTEX
  8
1
 10
330.3412889431386
 20
268.118485770101
 30
0
 42
-0.01379629701630326
  0
VERTEX
  8
1
 10
330.9847018090468
 20
267.9978681947532
 30
0
 42
-0.01224550147376201
  0
VERTEX
  8
1
 10
331.5846390134615
 20
267.8495690277568
 30
0
 42
-0.004376625229385905
  0
VERTEX
  8
1
 10
332.1804208630553
 20
267.6811224550096
 30
0
 42
0.003443735131251088
  0
VERTEX
  8
1
 10
332.7749351171972
 20
267.5118289163482
 30
0
 42
0.01135075693028934
  0
VERTEX
  8
1
 10
333.3710695352569
 20
267.3609888516091
 30
0
 42
0.01951810480750468
  0
VERTEX
  8
1
 10
333.9717118766037
 20
267.2479027006289
 30
0
 42
0.02289053426954747
  0
VERTEX
  8
1
 10
334.5659622005265
 20
267.1875028636461
 30
0
 42
0.01385585263741993
  0
VERTEX
  8
1
 10
335.1658787194358
 20
267.1708151635028
 30
0
 42
0.01336861782351765
  0
VERTEX
  8
1
 10
335.770044884585
 20
267.1869115659894
 30
0
 42
0.004535915093851959
  0
VERTEX
  8
1
 10
336.3770441472275
 20
267.2248640368958
 30
0
 42
0.004326632835753139
  0
VERTEX
  8
1
 10
336.9854599586167
 20
267.2737445420122
 30
0
  0
SEQEND
  8
1
  0
POLYLINE
  8
1
 62
3
 66
1
  0
VERTEX
  8
1
 10
336.9854599586167
 20
256.246271067695
 30
0
 42
-0.001607743817767728
  0
VERTEX
  8
1
 10
336.0773310396814
 20
256.2499364805428
 30
0
 42
-0.004839459238667117
  0
VERTEX
  8
1
 10
335.1708482273684
 20
256.2652757482944
 30
0
 42
-0.008112118624323534
  0
VERTEX
  8
1
 10
334.2676576282998
 20
256.3039627258533
 30
0
 42
-0.01142630948604943
  0
VERTEX
  8
1
 10
333.3694053490978
 20
256.3776712681233
 30
0
 42
-0.01474034783442187
  0
VERTEX
  8
1
 10
332.4777374963848
 20
256.4980752300081
 30
0
 42
-0.01091907975246083
  0
VERTEX
  8
1
 10
331.8636024307809
 20
256.6142291706718
 30
0
 42
-0.01003733773348756
  0
VERTEX
  8
1
 10
331.2537430131006
 20
256.7562756634791
 30
0
 42
-0.009167219348214215
  0
VERTEX
  8
1
 10
330.6484705485568
 20
256.921992944668
 30
0
 42
-0.008316733795489997
  0
VERTEX
  8
1
 10
330.0480963423625
 20
257.1091592504761
 30
0
 42
-0.02049271564584706
  0
VERTEX
  8
1
 10
328.4343471457177
 20
257.7162324627901
 30
0
 42
-0.01613454575088083
  0
VERTEX
  8
1
 10
327.4420039149881
 20
258.1762732103899
 30
0
 42
-0.01882779289648336
  0
VERTEX
  8
1
 10
326.4855050974408
 20
258.7037867225391
 30
0
 42
-0.02154182287545221
  0
VERTEX
  8
1
 10
325.5744537829747
 20
259.3068846618361
 30
0
 42
-0.02412403713669116
  0
VERTEX
  8
1
 10
324.7184530614887
 20
259.9936786908791
 30
0
 42
-0.01837071847596057
  0
VERTEX
  8
1
 10
323.9008680361746
 20
260.7816313494951
 30
0
 42
-0.003824838419025711
  0
VERTEX
  8
1
 10
323.1155800389134
 20
261.6084175523145
 30
0
 42
0.01068385427287591
  0
VERTEX
  8
1
 10
322.3270095617215
 20
262.4164866635075
 30
0
 42
0.02605597401766897
  0
VERTEX
  8
1
 10
321.4995770966155
 20
263.1482880472442
 30
0
 42
0.04330280254874944
  0
VERTEX
  8
1
 10
320.5977031356118
 20
263.746271067695
 30
0
 42
0.03453843384922641
  0
VERTEX
  8
1
 10
319.9349640542697
 20
264.0501290329419
 30
0
 42
0.01926728948012155
  0
VERTEX
  8
1
 10
319.2324186035562
 20
264.2847483546909
 30
0
 42
0.01966704674591816
  0
VERTEX
  8
1
 10
318.5000183758144
 20
264.4674386938164
 30
0
 42
0.005391877216852218
  0
VERTEX
  8
1
 10
317.7477149633869
 20
264.6155097111929
 30
0
 42
0.006832092944464769
  0
VERTEX
  8
1
 10
316.9854599586166
 20
264.746271067695
 30
0
  0
SEQEND
  8
1
  0
POLYLINE
  8
1
 62
3
 66
1
  0
VERTEX
  8
1
 10
336.9854599586167
 20
257.246271067695
 30
0
 42
-0.001607743817767728
  0
VERTEX
  8
1
 10
336.0773310396814
 20
257.2499364805428
 30
0
 42
-0.004839459238667117
  0
VERTEX
  8
1
 10
335.1708482273684
 20
257.2652757482944
 30
0
 42
-0.008112118624323534
  0
VERTEX
  8
1
 10
334.2676576282998
 20
257.3039627258533
 30
0
 42
-0.01142630948604943
  0
VERTEX
  8
1
 10
333.3694053490978
 20
257.3776712681233
 30
0
 42
-0.01474034783442187
  0
VERTEX
  8
1
 10
332.4777374963848
 20
257.4980752300081
 30
0
 42
-0.01091907975246083
  0
VERTEX
  8
1
 10
331.8636024307809
 20
257.6142291706718
 30
0
 42
-0.01003733773331068
  0
VERTEX
  8
1
 10
331.2537430131006
 20
257.7562756634791
 30
0
 42
-0.009167219348214215
  0
VERTEX
  8
1
 10
330.6484705485568
 20
257.921992944668
 30
0
 42
-0.008316733795489997
  0
VERTEX
  8
1
 10
330.0480963423625
 20
258.1091592504761
 30
0
 42
-0.02049271564584706
  0
VERTEX
  8
1
 10
328.4343471457177
 20
258.7162324627901
 30
0
 42
-0.01613454575088083
  0
VERTEX
  8
1
 10
327.4420039149881
 20
259.1762732103899
 30
0
 42
-0.01882779289648336
  0
VERTEX
  8
1
 10
326.4855050974408
 20
259.7037867225391
 30
0
 42
-0.02154182287545221
  0
VERTEX
  8
1
 10
325.5744537829747
 20
260.3068846618361
 30
0
 42
-0.02412403713669116
  0
VERTEX
  8
1
 10
324.7184530614887
 20
260.9936786908791
 30
0
 42
-0.01837071847596057
  0
VERTEX
  8
1
 10
323.9008680361746
 20
261.7816313494951
 30
0
 42
-0.003824838419128296
  0
VERTEX
  8
1
 10
323.1155800389134
 20
262.6084175523146
 30
0
 42
0.01068385427287702
  0
VERTEX
  8
1
 10
322.3270095617215
 20
263.4164866635074
 30
0
 42
0.02605597401761353
  0
VERTEX
  8
1
 10
321.4995770966155
 20
264.1482880472442
 30
0
 42
0.04330280254882486
  0
VERTEX
  8
1
 10
320.5977031356118
 20
264.746271067695
 30
0
 42
0.03453843384915127
  0
VERTEX
  8
1
 10
319.9349640542697
 20
265.0501290329419
 30
0
 42
0.01926728948015864
  0
VERTEX
  8
1
 10
319.2324186035562
 20
265.2847483546909
 30
0
 42
0.01966704674595348
  0
VERTEX
  8
1
 10
318.5000183758144
 20
265.4674386938164
 30
0
 42
0.005391877216780051
  0
VERTEX
  8
1
 10
317.7477149633869
 20
265.6155097111929
 30
0
 42
0.006832092944536937
  0
VERTEX
  8
1
 10
316.9854599586166
 20
265.746271067695
 30
0
  0
SEQEND
  8
1
  0
POLYLINE
  8
1
 62
3
 66
1
  0
VERTEX
  8
1
 10
336.9854599586167
 20
258.746271067695
 30
0
 42
-0.001902789264414824
  0
VERTEX
  8
1
 10
336.243394122939
 20
258.70047670733
 30
0
 42
-0.005745277525897816
  0
VERTEX
  8
1
 10
335.5031044999796
 20
258.6661309370562
 30
0
 42
-0.009686512557382931
  0
VERTEX
  8
1
 10
334.7663673024567
 20
258.6546823469649
 30
0
 42
-0.01374928444284441
  0
VERTEX
  8
1
 10
334.0349587430887
 20
258.6775795271474
 30
0
 42
-0.0178829513067107
  0
VERTEX
  8
1
 10
333.3106550345937
 20
258.746271067695
 30
0
 42
-0.01866086244702056
  0
VERTEX
  8
1
 10
332.5506985143255
 20
258.8772778496639
 30
0
 42
-0.0135331706970909
  0
VERTEX
  8
1
 10
331.797231252419
 20
259.0577767002919
 30
0
 42
-0.008418840654058965
  0
VERTEX
  8
1
 10
331.046737470194
 20
259.2727721599356
 30
0
 42
-0.003422876774998214
  0
VERTEX
  8
1
 10
330.2957013889703
 20
259.5072687689511
 30
0
 42
0.001454396476947873
  0
VERTEX
  8
1
 10
329.5406072300677
 20
259.746271067695
 30
0
 42
0.002341100074992454
  0
VERTEX
  8
1
 10
328.6972290670616
 20
260.0061902962843
 30
0
 42
-0.008094591874666587
  0
VERTEX
  8
1
 10
327.8605712595588
 20
260.2785786645123
 30
0
 42
-0.01670365432650165
  0
VERTEX
  8
1
 10
327.0466788705221
 20
260.5888200058196
 30
0
 42
-0.02578314228312301
  0
VERTEX
  8
1
 10
326.2715969629142
 20
260.9622981536463
 30
0
 42
-0.07276438933763439
  0
VERTEX
  8
1
 10
324.8370665021195
 20
262.0447310923209
 30
0
 42
-0.01438878185774643
  0
VERTEX
  8
1
 10
324.172657312469
 20
262.7411466464483
 30
0
 42
0.002813176268249238
  0
VERTEX
  8
1
 10
323.5234656032902
 20
263.4537371090732
 30
0
 42
0.02037324986585309
  0
VERTEX
  8
1
 10
322.8548139471272
 20
264.1225959854541
 30
0
 42
0.04059420823355053
  0
VERTEX
  8
1
 10
322.1320249165237
 20
264.6878167808491
 30
0
 42
0.05710425916597006
  0
VERTEX
  8
1
 10
321.2344084063443
 20
265.1420150211746
 30
0
 42
0.03290429397098055
  0
VERTEX
  8
1
 10
320.2489942418969
 20
265.4345416728626
 30
0
 42
0.03065123788438048
  0
VERTEX
  8
1
 10
319.1977318367485
 20
265.6058146330723
 30
0
 42
0.008913767507593009
  0
VERTEX
  8
1
 10
318.1025706044661
 20
265.6962517989633
 30
0
 42
0.009909907619640014
  0
VERTEX
  8
1
 10
316.9854599586166
 20
265.746271067695
 30
0
  0
SEQEND
  8
1
  0
POLYLINE
  8
1
 62
3
 66
1
  0
VERTEX
  8
1
 10
336.9854599586167
 20
259.746271067695
 30
0
 42
-0.001829921716636221
  0
VERTEX
  8
1
 10
336.2442449122895
 20
259.7023443025818
 30
0
 42
-0.00552141224544069
  0
VERTEX
  8
1
 10
335.5045933813429
 20
259.6693992287469
 30
0
 42
-0.009297014988952005
  0
VERTEX
  8
1
 10
334.7680688811577
 20
259.6584175374686
 30
0
 42
-0.01317426561340889
  0
VERTEX
  8
1
 10
334.0362349271143
 20
259.6803809200252
 30
0
 42
-0.01710602726124949
  0
VERTEX
  8
1
 10
333.3106550345937
 20
259.746271067695
 30
0
 42
-0.01816776250885746
  0
VERTEX
  8
1
 10
332.5484132359791
 20
259.8722613611681
 30
0
 42
-0.01395037294222291
  0
VERTEX
  8
1
 10
331.7926329753669
 20
260.0476828734419
 30
0
 42
-0.009739958315308961
  0
VERTEX
  8
1
 10
331.0409688336093
 20
260.2601092389792
 30
0
 42
-0.005623898474937971
  0
VERTEX
  8
1
 10
330.2910753915589
 20
260.4971140922427
 30
0
 42
-0.001607917713881193
  0
VERTEX
  8
1
 10
329.5406072300677
 20
260.746271067695
 30
0
 42
-0.003035046829948678
  0
VERTEX
  8
1
 10
328.693328154801
 20
261.0329008668103
 30
0
 42
-0.01003263971672813
  0
VERTEX
  8
1
 10
327.8565490013468
 20
261.3405113089298
 30
0
 42
-0.01731546574565125
  0
VERTEX
  8
1
 10
327.0444857224891
 20
261.690432026239
 30
0
 42
-0.02487359489824861
  0
VERTEX
  8
1
 10
326.2713542710114
 20
262.1039926509241
 30
0
 42
-0.03223808317315081
  0
VERTEX
  8
1
 10
325.5513705996977
 20
262.6025228151705
 30
0
 42
-0.02888700042263302
  0
VERTEX
  8
1
 10
324.8454152935365
 20
263.242395273682
 30
0
 42
-0.01142416437681675
  0
VERTEX
  8
1
 10
324.1837888772863
 20
263.9464311434659
 30
0
 42
0.005159818166320124
  0
VERTEX
  8
1
 10
323.5332055457992
 20
264.6563187673989
 30
0
 42
0.02241317470663009
  0
VERTEX
  8
1
 10
322.8603794939276
 20
265.3137464883579
 30
0
 42
0.04260597243958188
  0
VERTEX
  8
1
 10
322.1320249165237
 20
265.8604026492195
 30
0
 42
0.05849288245852386
  0
VERTEX
  8
1
 10
321.2330176859803
 20
266.2856502319124
 30
0
 42
0.03363910028930377
  0
VERTEX
  8
1
 10
320.2471399480781
 20
266.5455152152734
 30
0
 42
0.03098575730244015
  0
VERTEX
  8
1
 10
319.196109329657
 20
266.6813432491355
 30
0
 42
0.00902868457493251
  0
VERTEX
  8
1
 10
318.1016434575566
 20
266.7344799833317
 30
0
 42
0.009946353456231056
  0
VERTEX
  8
1
 10
316.9854599586166
 20
266.746271067695
 30
0
  0
SEQEND
  8
1
  0
POLYLINE
  8
1
 62
3
 66
1
  0
VERTEX
  8
1
 10
336.9854599586167
 20
261.246271067695
 30
0
 42
-0.001399310508315253
  0
VERTEX
  8
1
 10
336.3532804689114
 20
261.226122180649
 30
0
 42
-0.004208486187180182
  0
VERTEX
  8
1
 10
335.7217082645325
 20
261.2130767610494
 30
0
 42
-0.007044180568747507
  0
VERTEX
  8
1
 10
335.0913506308068
 20
261.2142382763428
 30
0
 42
-0.009906475772616026
  0
VERTEX
  8
1
 10
334.4628148530607
 20
261.2367101939753
 30
0
 42
-0.01276798874529757
  0
VERTEX
  8
1
 10
333.8367082166207
 20
261.2875959813935
 30
0
 42
-0.01604707638838363
  0
VERTEX
  8
1
 10
333.0862219879753
 20
261.3936415795231
 30
0
 42
-0.0139786090111409
  0
VERTEX
  8
1
 10
332.3414441054073
 20
261.5449322628477
 30
0
 42
-0.01197752447273249
  0
VERTEX
  8
1
 10
331.6036721097432
 20
261.7351195572514
 30
0
 42
-0.01006527445203999
  0
VERTEX
  8
1
 10
330.8742035418096
 20
261.9578549886182
 30
0
 42
-0.008241774927138863
  0
VERTEX
  8
1
 10
330.1543359424328
 20
262.206790082832
 30
0
 42
-0.003838553974045562
  0
VERTEX
  8
1
 10
329.6881904986772
 20
262.3807409398312
 30
0
 42
-0.001856704054642081
  0
VERTEX
  8
1
 10
329.2247499002336
 20
262.5597258544354
 30
0
 42
0.0001371936478596917
  0
VERTEX
  8
1
 10
328.7620418682726
 20
262.7402596940754
 30
0
 42
0.002130188905887842
  0
VERTEX
  8
1
 10
328.2980941239649
 20
262.9188573261818
 30
0
 42
0.004105463468108625
  0
VERTEX
  8
1
 10
327.8309343884807
 20
263.0920336181855
 30
0
 42
0.004136423689865642
  0
VERTEX
  8
1
 10
327.2521694757982
 20
263.2957957488936
 30
0
 42
-0.004610467601018842
  0
VERTEX
  8
1
 10
326.6739088479299
 20
263.5019892017933
 30
0
 42
-0.01190343574373836
  0
VERTEX
  8
1
 10
326.1044689793218
 20
263.7264664853547
 30
0
 42
-0.01931776423048503
  0
VERTEX
  8
1
 10
325.55216634442
 20
263.9850801080478
 30
0
 42
-0.02658956512601421
  0
VERTEX
  8
1
 10
325.0253174176707
 20
264.2936825783426
 30
0
 42
-0.02465029267630704
  0
VERTEX
  8
1
 10
324.466996237249
 20
264.710023570338
 30
0
 42
-0.007303506873494118
  0
VERTEX
  8
1
 10
323.9308224865965
 20
265.165553736124
 30
0
 42
0.009583372171275183
  0
VERTEX
  8
1
 10
323.3960481999712
 20
265.6158295654963
 30
0
 42
0.02737041927801283
  0
VERTEX
  8
1
 10
322.8419254116308
 20
266.0164075482502
 30
0
 42
0.04757618206167549
  0
VERTEX
  8
1
 10
322.2477061558328
 20
266.3228441741815
 30
0
 42
0.03703160076214725
  0
VERTEX
  8
1
 10
321.8335998480928
 20
266.4541324190303
 30
0
 42
0.01980714861969269
  0
VERTEX
  8
1
 10
321.3999448188396
 20
266.5390525210891
 30
0
 42
0.02086257844026669
  0
VERTEX
  8
1
 10
320.9527174263578
 20
266.5893746027068
 30
0
 42
0.004976522058834224
  0
VERTEX
  8
1
 10
320.4978940289315
 20
266.6168687862324
 30
0
 42
0.007214920840703167
  0
VERTEX
  8
1
 10
320.041450984845
 20
266.6333051940147
 30
0
 42
-0.0005860077343982494
  0
VERTEX
  8
1
 10
319.4204033739349
 20
266.6542879360904
 30
0
 42
-0.0004655068747480977
  0
VERTEX
  8
1
 10
318.8059220334676
 20
266.6763442999396
 30
0
 42
-0.0003378585556196396
  0
VERTEX
  8
1
 10
318.1963653958327
 20
266.6992058801191
 30
0
 42
-0.000204899279819142
  0
VERTEX
  8
1
 10
317.5900918934193
 20
266.7226042711853
 30
0
 42
-6.866814284347018e-005
  0
VERTEX
  8
1
 10
316.9854599586166
 20
266.746271067695
 30
0
  0
SEQEND
  8
1
  0
POLYLINE
  8
1
 62
3
 66
1
  0
VERTEX
  8
1
 10
336.9854599586167
 20
262.246271067695
 30
0
 42
-0.001437466414842067
  0
VERTEX
  8
1
 10
336.3528754288898
 20
262.2253119967824
 30
0
 42
-0.004324802430706562
  0
VERTEX
  8
1
 10
335.7209994444948
 20
262.2116589392828
 30
0
 42
-0.007243808653218946
  0
VERTEX
  8
1
 10
335.0905405507637
 20
262.2126179086093
 30
0
 42
-0.01019656978451645
  0
VERTEX
  8
1
 10
334.4622072930283
 20
262.2354949181753
 30
0
 42
-0.01315520811121644
  0
VERTEX
  8
1
 10
333.8367082166207
 20
262.2875959813935
 30
0
 42
-0.01633930251813453
  0
VERTEX
  8
1
 10
333.0874925245571
 20
262.3961829783624
 30
0
 42
-0.0137816654067753
  0
VERTEX
  8
1
 10
332.3440352777989
 20
262.5501152718242
 30
0
 42
-0.01127931597962426
  0
VERTEX
  8
1
 10
331.6069486496537
 20
262.7416734769455
 30
0
 42
-0.008860671032176947
  0
VERTEX
  8
1
 10
330.8768448134292
 20
262.9631382088925
 30
0
 42
-0.006521860467747883
  0
VERTEX
  8
1
 10
330.1543359424328
 20
263.206790082832
 30
0
 42
-0.003263998879606822
  0
VERTEX
  8
1
 10
329.685292960799
 20
263.3749451213511
 30
0
 42
-0.002743206220177462
  0
VERTEX
  8
1
 10
329.2191017044861
 20
263.5484280151427
 30
0
 42
-0.002214346597085112
  0
VERTEX
  8
1
 10
328.7550917835951
 20
263.7263577432102
 30
0
 42
-0.001680038634042736
  0
VERTEX
  8
1
 10
328.2925928082264
 20
263.9078532845567
 30
0
 42
-0.0011426482902316
  0
VERTEX
  8
1
 10
327.8309343884807
 20
264.0920336181855
 30
0
 42
-0.003025283605982915
  0
VERTEX
  8
1
 10
327.2515244612661
 20
264.3278197078051
 30
0
 42
-0.006884513992143353
  0
VERTEX
  8
1
 10
326.6768207075277
 20
264.5750741545273
 30
0
 42
-0.01075366762059242
  0
VERTEX
  8
1
 10
326.1112602203156
 20
264.8424130398292
 30
0
 42
-0.0145908298492849
  0
VERTEX
  8
1
 10
325.5592800926798
 20
265.138452445188
 30
0
 42
-0.01827915716355169
  0
VERTEX
  8
1
 10
325.0253174176707
 20
265.4718084520803
 30
0
 42
-0.01457721295491015
  0
VERTEX
  8
1
 10
324.4768285619321
 20
265.8712776836135
 30
0
 42
-0.001460479569506265
  0
VERTEX
  8
1
 10
323.9393777550492
 20
266.2896075138773
 30
0
 42
0.01170481162209031
  0
VERTEX
  8
1
 10
323.3984102498517
 20
266.6933063005848
 30
0
 42
0.02559818686942728
  0
VERTEX
  8
1
 10
322.8393712991697
 20
267.0488824014486
 30
0
 42
0.04086222631774532
  0
VERTEX
  8
1
 10
322.2477061558328
 20
267.3228441741815
 30
0
 42
0.03180568557315851
  0
VERTEX
  8
1
 10
321.8289542318572
 20
267.4470630269456
 30
0
 42
0.01804985857826343
  0
VERTEX
  8
1
 10
321.3940670685253
 20
267.5301081487086
 30
0
 42
0.01830108516234039
  0
VERTEX
  8
1
 10
320.9479303500824
 20
267.5820899460729
 30
0
 42
0.005464783304001888
  0
VERTEX
  8
1
 10
320.4954297607739
 20
267.6131188256409
 30
0
 42
0.006549699693100167
  0
VERTEX
  8
1
 10
320.041450984845
 20
267.6333051940147
 30
0
 42
0.0004093587784604902
  0
VERTEX
  8
1
 10
319.422549302917
 20
267.6575534691417
 30
0
 42
0.0003245172125285869
  0
VERTEX
  8
1
 10
318.8087832721105
 20
267.680698344008
 30
0
 42
0.0002340549036677401
  0
VERTEX
  8
1
 10
318.1988689796452
 20
267.7030156686789
 30
0
 42
0.0001422883529235377
  0
VERTEX
  8
1
 10
317.5915225127408
 20
267.7247812932196
 30
0
 42
4.708687529191845e-005
  0
VERTEX
  8
1
 10
316.9854599586166
 20
267.746271067695
 30
0
  0
SEQEND
  8
1
  0
POLYLINE
  8
1
 62
3
 66
1
  0
VERTEX
  8
1
 10
336.9854599586167
 20
263.746271067695
 30
0
 42
-0.001358152088050542
  0
VERTEX
  8
1
 10
336.3535437149492
 20
263.7210553140675
 30
0
 42
-0.004084509566323136
  0
VERTEX
  8
1
 10
335.7221689450988
 20
263.7027380065428
 30
0
 42
-0.006836327826127251
  0
VERTEX
  8
1
 10
335.0918771228825
 20
263.6982175912237
 30
0
 42
-0.009614512800389313
  0
VERTEX
  8
1
 10
334.4632097221174
 20
263.7143925142131
 30
0
 42
-0.01239487570141769
  0
VERTEX
  8
1
 10
333.8367082166207
 20
263.7581612216137
 30
0
 42
-0.01720460201217994
  0
VERTEX
  8
1
 10
333.0092518421299
 20
263.8668403756581
 30
0
 42
-0.01506268212941822
  0
VERTEX
  8
1
 10
332.188175678476
 20
264.0291079833907
 30
0
 42
-0.01298929339486003
  0
VERTEX
  8
1
 10
331.3750876284393
 20
264.2377526797871
 30
0
 42
-0.01101450300655881
  0
VERTEX
  8
1
 10
330.5715955947999
 20
264.4855630998229
 30
0
 42
-0.009143100764563357
  0
VERTEX
  8
1
 10
329.7793074803378
 20
264.7653278784735
 30
0
 42
-0.003751510980296008
  0
VERTEX
  8
1
 10
329.3436372578625
 20
264.9319016817443
 30
0
 42
-0.002072865824727854
  0
VERTEX
  8
1
 10
328.9106412448885
 20
265.1032623544355
 30
0
 42
-0.0003846956453413025
  0
VERTEX
  8
1
 10
328.4790269158033
 20
265.2765359584871
 30
0
 42
0.001309348898524708
  0
VERTEX
  8
1
 10
328.0475017449945
 20
265.4488485558386
 30
0
 42
0.003005986051702004
  0
VERTEX
  8
1
 10
327.6147732068495
 20
265.6173262084296
 30
0
 42
0.003951844711930274
  0
VERTEX
  8
1
 10
327.150762157694
 20
265.7905871541747
 30
0
 42
0.001611805709824051
  0
VERTEX
  8
1
 10
326.6846055119099
 20
265.9587632198355
 30
0
 42
0.001288536037414395
  0
VERTEX
  8
1
 10
326.2169977915048
 20
266.1244036761182
 30
0
 42
-0.0005425218246930364
  0
VERTEX
  8
1
 10
325.7486335184862
 20
266.2900577937286
 30
0
 42
-0.001862584057000814
  0
VERTEX
  8
1
 10
325.2802072148617
 20
266.458274843373
 30
0
 42
-0.001452496948212597
  0
VERTEX
  8
1
 10
324.627299002134
 20
266.6989823695145
 30
0
 42
0.002656236824407928
  0
VERTEX
  8
1
 10
323.9736822109038
 20
266.9381660190002
 30
0
 42
0.006791582524822022
  0
VERTEX
  8
1
 10
323.3174173227747
 20
267.1643526664067
 30
0
 42
0.01103558094090551
  0
VERTEX
  8
1
 10
322.6565648193501
 20
267.3660691863103
 30
0
 42
0.01535980820483014
  0
VERTEX
  8
1
 10
321.9891851822337
 20
267.5318424532874
 30
0
 42
0.02443126800998371
  0
VERTEX
  8
1
 10
321.0097067148554
 20
267.6938288628497
 30
0
 42
0.01606205456716754
  0
VERTEX
  8
1
 10
320.016050529247
 20
267.7764148146247
 30
0
 42
0.01393493870863777
  0
VERTEX
  8
1
 10
319.011761054966
 20
267.7994504230595
 30
0
 42
0.005770450064489271
  0
VERTEX
  8
1
 10
318.0003827215701
 20
267.7827858026006
 30
0
 42
0.00397297868869204
  0
VERTEX
  8
1
 10
316.9854599586166
 20
267.746271067695
 30
0
  0
SEQEND
  8
1
  0
POLYLINE
  8
1
 62
3
 66
1
  0
VERTEX
  8
1
 10
336.9854599586167
 20
264.746271067695
 30
0
 42
-0.001362471609848782
  0
VERTEX
  8
1
 10
336.3535159571081
 20
264.720964887402
 30
0
 42
-0.004097610774153376
  0
VERTEX
  8
1
 10
335.7221203688767
 20
264.7025797598783
 30
0
 42
-0.006858595752557798
  0
VERTEX
  8
1
 10
335.0918216072002
 20
264.6980367378928
 30
0
 42
-0.009646437364312427
  0
VERTEX
  8
1
 10
334.4631680853557
 20
264.714256874215
 30
0
 42
-0.0124367996036227
  0
VERTEX
  8
1
 10
333.8367082166207
 20
264.7581612216137
 30
0
 42
-0.0172393449976958
  0
VERTEX
  8
1
 10
333.0093500132167
 20
264.8671601874177
 30
0
 42
-0.01504120646977616
  0
VERTEX
  8
1
 10
332.1883780585277
 20
265.0297672764933
 30
0
 42
-0.01291158192507643
  0
VERTEX
  8
1
 10
331.3753451319124
 20
265.2385915483529
 30
0
 42
-0.01088102849116206
  0
VERTEX
  8
1
 10
330.5718040127295
 20
265.4862420625089
 30
0
 42
-0.008953596705537196
  0
VERTEX
  8
1
 10
329.7793074803378
 20
265.7653278784735
 30
0
 42
-0.003703781418255556
  0
VERTEX
  8
1
 10
329.3434469962706
 20
265.9312818669246
 30
0
 42
-0.002172491294043881
  0
VERTEX
  8
1
 10
328.9102750877113
 20
266.1020695249082
 30
0
 42
-0.0006319289788979135
  0
VERTEX
  8
1
 10
328.4785799938369
 20
266.2750800216619
 30
0
 42
0.0009139763723446086
  0
VERTEX
  8
1
 10
328.0471499538239
 20
266.4477025264231
 30
0
 42
0.002461932441333995
  0
VERTEX
  8
1
 10
327.6147732068495
 20
266.6173262084296
 30
0
 42
0.003473150353802365
  0
VERTEX
  8
1
 10
327.1514349861213
 20
266.7927790260399
 30
0
 42
0.002008603979572103
  0
VERTEX
  8
1
 10
326.685974942547
 20
266.9632244113715
 30
0
 42
0.002047564781032078
  0
VERTEX
  8
1
 10
326.2187274101382
 20
267.1300382513924
 30
0
 42
0.0005824769219681474
  0
VERTEX
  8
1
 10
325.750026722906
 20
267.2945964330702
 30
0
 42
0.0006242501457530058
  0
VERTEX
  8
1
 10
325.2802072148617
 20
267.458274843373
 30
0
 42
0.0003363676652841618
  0
VERTEX
  8
1
 10
324.6289170499492
 20
267.6837728239219
 30
0
 42
0.005230759132151197
  0
VERTEX
  8
1
 10
323.9751480920065
 20
267.9020082414805
 30
0
 42
0.006236406617936895
  0
VERTEX
  8
1
 10
323.3179220132572
 20
268.1047696270883
 30
0
 42
0.01123059924317474
  0
VERTEX
  8
1
 10
322.6562604859249
 20
268.2838455117847
 30
0
 42
0.01235024403553512
  0
VERTEX
  8
1
 10
321.9891851822337
 20
268.4310244266092
 30
0
 42
0.02178204566617855
  0
VERTEX
  8
1
 10
321.0047803420109
 20
268.57869294956
 30
0
 42
0.01290993169203926
  0
VERTEX
  8
1
 10
320.009482032121
 20
268.6580083836751
 30
0
 42
0.01287933557285715
  0
VERTEX
  8
1
 10
319.0060136199809
 20
268.6860590011634
 30
0
 42
0.0041304531622176
  0
VERTEX
  8
1
 10
317.9970984730071
 20
268.6799330742339
 30
0
 42
0.00430528732664132
  0
VERTEX
  8
1
 10
316.9854599586166
 20
268.6567188750955
 30
0
  0
SEQEND
  8
1
  0
POLYLINE
  8
1
 62
3
 66
1
  0
VERTEX
  8
1
 10
336.9854599586167
 20
268.746271067695
 30
0
 42
-0.00188893784110391
  0
VERTEX
  8
1
 10
336.3516939661057
 20
268.7075744385809
 30
0
 42
-0.005694027757114761
  0
VERTEX
  8
1
 10
335.7189318846226
 20
268.6785519667453
 30
0
 42
-0.009568406319903598
  0
VERTEX
  8
1
 10
335.0881776251954
 20
268.6688778094668
 30
0
 42
-0.01351495323541081
  0
VERTEX
  8
1
 10
334.4604350988521
 20
268.6882261240239
 30
0
 42
-0.04014634871258847
  0
VERTEX
  8
1
 10
333.02287579891
 20
268.8882838952989
 30
0
 42
-0.009124304351236547
  0
VERTEX
  8
1
 10
332.2139759917276
 20
269.078498627357
 30
0
 42
0.001534250010434169
  0
VERTEX
  8
1
 10
331.4062523197721
 20
269.2813850640055
 30
0
 42
0.01220105072976811
  0
VERTEX
  8
1
 10
330.5959483077426
 20
269.4614130053799
 30
0
 42
0.02318308017374686
  0
VERTEX
  8
1
 10
329.7793074803378
 20
269.5830522516162
 30
0
 42
0.01529747283878104
  0
VERTEX
  8
1
 10
329.3489529873234
 20
269.6136213201833
 30
0
 42
0.005656696756657261
  0
VERTEX
  8
1
 10
328.9165820284212
 20
269.6261667788878
 30
0
 42
0.006368138960566873
  0
VERTEX
  8
1
 10
328.4829348886774
 20
269.6283168107079
 30
0
 42
-0.0006029030482144451
  0
VERTEX
  8
1
 10
328.0487518531381
 20
269.6276995986216
 30
0
 42
-0.005000141994787437
  0
VERTEX
  8
1
 10
327.6147732068495
 20
269.6319433256068
 30
0
 42
-0.006579526751884134
  0
VERTEX
  8
1
 10
327.1468934823149
 20
269.6484258976706
 30
0
 42
-0.004151305535363385
  0
VERTEX
  8
1
 10
326.6798064625631
 20
269.6749287037276
 30
0
 42
-0.001715361460920618
  0
VERTEX
  8
1
 10
326.2132027058798
 20
269.7069009852447
 30
0
 42
0.0007228359940767174
  0
VERTEX
  8
1
 10
325.7467727705508
 20
269.7397919836889
 30
0
 42
0.003162479871094024
  0
VERTEX
  8
1
 10
325.2802072148617
 20
269.7690509405271
 30
0
 42
0.006187227354129373
  0
VERTEX
  8
1
 10
324.622920722185
 20
269.7979441918228
 30
0
 42
0.003818458239223866
  0
VERTEX
  8
1
 10
323.964963972603
 20
269.8136848120992
 30
0
 42
0.003855524038825692
  0
VERTEX
  8
1
 10
323.3065482660966
 20
269.8193282550658
 30
0
 42
0.001491465786011443
  0
VERTEX
  8
1
 10
322.6478849026465
 20
269.817929974432
 30
0
 42
0.001534251241677065
  0
VERTEX
  8
1
 10
321.9891851822337
 20
269.812545423907
 30
0
 42
0.0004844600512782654
  0
VERTEX
  8
1
 10
320.9879548450786
 20
269.801872639411
 30
0
 42
0.0003770640251666233
  0
VERTEX
  8
1
 10
319.9870480362112
 20
269.7894784637508
 30
0
 42
0.0002694207363712274
  0
VERTEX
  8
1
 10
318.9863838735597
 20
269.7757932447174
 30
0
 42
0.0001617307303031491
  0
VERTEX
  8
1
 10
317.9858814750522
 20
269.7612473301017
 30
0
 42
5.38932720319765e-005
  0
VERTEX
  8
1
 10
316.9854599586166
 20
269.746271067695
 30
0
  0
SEQEND
  8
1
  0
POLYLINE
  8
1
 62
3
 66
1
  0
VERTEX
  8
1
 10
336.9854599586167
 20
269.746271067695
 30
0
 42
-0.001888937841193283
  0
VERTEX
  8
1
 10
336.3516939661057
 20
269.7075744385809
 30
0
 42
-0.005694027757204414
  0
VERTEX
  8
1
 10
335.7189318846226
 20
269.6785519667453
 30
0
 42
-0.009568406319903598
  0
VERTEX
  8
1
 10
335.0881776251954
 20
269.6688778094668
 30
0
 42
-0.01351495323541081
  0
VERTEX
  8
1
 10
334.4604350988521
 20
269.6882261240239
 30
0
 42
-0.04014634871256267
  0
VERTEX
  8
1
 10
333.02287579891
 20
269.8882838952988
 30
0
 42
-0.009124304351036856
  0
VERTEX
  8
1
 10
332.2139759917276
 20
270.078498627357
 30
0
 42
0.001534250010434169
  0
VERTEX
  8
1
 10
331.4062523197721
 20
270.2813850640055
 30
0
 42
0.01220105072976811
  0
VERTEX
  8
1
 10
330.5959483077426
 20
270.4614130053799
 30
0
 42
0.02318308017374686
  0
VERTEX
  8
1
 10
329.7793074803378
 20
270.5830522516162
 30
0
 42
0.01529747283878104
  0
VERTEX
  8
1
 10
329.3489529873234
 20
270.6136213201833
 30
0
 42
0.005656696756657261
  0
VERTEX
  8
1
 10
328.9165820284212
 20
270.6261667788878
 30
0
 42
0.006368138960632379
  0
VERTEX
  8
1
 10
328.4829348886774
 20
270.6283168107078
 30
0
 42
-0.0006029030479526545
  0
VERTEX
  8
1
 10
328.0487518531381
 20
270.6276995986214
 30
0
 42
-0.005000141994656483
  0
VERTEX
  8
1
 10
327.6147732068495
 20
270.6319433256067
 30
0
 42
-0.006579526751762781
  0
VERTEX
  8
1
 10
327.1468934823149
 20
270.6484258976705
 30
0
 42
-0.004151305535242202
  0
VERTEX
  8
1
 10
326.6798064625631
 20
270.6749287037275
 30
0
 42
-0.001715361460556853
  0
VERTEX
  8
1
 10
326.2132027058798
 20
270.7069009852447
 30
0
 42
0.0007228359941977318
  0
VERTEX
  8
1
 10
325.7467727705508
 20
270.7397919836889
 30
0
 42
0.003162479871033627
  0
VERTEX
  8
1
 10
325.2802072148617
 20
270.7690509405271
 30
0
 42
0.00618722735414758
  0
VERTEX
  8
1
 10
324.622920722185
 20
270.7979441918228
 30
0
 42
0.003818458239292035
  0
VERTEX
  8
1
 10
323.964963972603
 20
270.8136848120992
 30
0
 42
0.003855524038671147
  0
VERTEX
  8
1
 10
323.3065482660966
 20
270.8193282550658
 30
0
 42
0.00149146578625214
  0
VERTEX
  8
1
 10
322.6478849026465
 20
270.817929974432
 30
0
 42
0.001534251241392848
  0
VERTEX
  8
1
 10
321.9891851822337
 20
270.812545423907
 30
0
 42
0.000484460051336219
  0
VERTEX
  8
1
 10
320.9879548450786
 20
270.8018726394111
 30
0
 42
0.0003770640251652911
  0
VERTEX
  8
1
 10
319.9870480362112
 20
270.7894784637508
 30
0
 42
0.0002694207363441379
  0
VERTEX
  8
1
 10
318.9863838735597
 20
270.7757932447174
 30
0
 42
0.0001617307303302385
  0
VERTEX
  8
1
 10
317.9858814750522
 20
270.7612473301017
 30
0
 42
5.389327200488705e-005
  0
VERTEX
  8
1
 10
316.9854599586166
 20
270.746271067695
 30
0
  0
SEQEND
  8
1
  0
POLYLINE
  8
1
 62
3
 66
1
  0
VERTEX
  8
1
 10
336.9854599586167
 20
271.246271067695
 30
0
 42
-0.001012204111016456
  0
VERTEX
  8
1
 10
336.354220117715
 20
271.2269520614221
 30
0
 42
-0.003041506933658246
  0
VERTEX
  8
1
 10
335.7233526499389
 20
271.2127607877858
 30
0
 42
-0.005083541123615262
  0
VERTEX
  8
1
 10
335.093229928414
 20
271.208824979423
 30
0
 42
-0.007140173251366646
  0
VERTEX
  8
1
 10
334.4642243262661
 20
271.2202723689703
 30
0
 42
-0.02015103824154018
  0
VERTEX
  8
1
 10
333.0996376378361
 20
271.3196904077119
 30
0
 42
-0.005713191267336605
  0
VERTEX
  8
1
 10
332.3640078656828
 20
271.4103151175733
 30
0
 42
-0.001504699508943236
  0
VERTEX
  8
1
 10
331.6286761555031
 20
271.5116932353127
 30
0
 42
0.002686391856234284
  0
VERTEX
  8
1
 10
330.892499762639
 20
271.6114131775948
 30
0
 42
0.006874857216687587
  0
VERTEX
  8
1
 10
330.1543359424328
 20
271.6970633610839
 30
0
 42
0.006540794941050774
  0
VERTEX
  8
1
 10
329.6903012595865
 20
271.7383240143699
 30
0
 42
0.00604678778766428
  0
VERTEX
  8
1
 10
329.2254904067903
 20
271.7678834927933
 30
0
 42
0.007915314743243371
  0
VERTEX
  8
1
 10
328.7603567400221
 20
271.784442445016
 30
0
 42
0.007448605158016334
  0
VERTEX
  8
1
 10
328.2953536152597
 20
271.7867015197003
 30
0
 42
0.01990100913014398
  0
VERTEX
  8
1
 10
327.2675102474957
 20
271.7354359369632
 30
0
 42
0.006705255688052299
  0
VERTEX
  8
1
 10
326.7054280661793
 20
271.677311653082
 30
0
 42
0.006951790059390065
  0
VERTEX
  8
1
 10
326.1444962582746
 20
271.6037736545492
 30
0
 42
0.002464144041447823
  0
VERTEX
  8
1
 10
325.584523237524
 20
271.5196070820492
 30
0
 42
0.002737693092470561
  0
VERTEX
  8
1
 10
325.0253174176707
 20
271.4295970762663
 30
0
 42
-0.0001339878579995759
  0
VERTEX
  8
1
 10
324.4704325953238
 20
271.3388266493615
 30
0
 42
-0.001401259120532776
  0
VERTEX
  8
1
 10
323.9156723313346
 20
271.2498241688345
 30
0
 42
-0.002671166501053724
  0
VERTEX
  8
1
 10
323.3605933523351
 20
271.1654015644344
 30
0
 42
-0.003942555142822153
  0
VERTEX
  8
1
 10
322.8047523849571
 20
271.0883707659109
 30
0
 42
-0.005212195615056731
  0
VERTEX
  8
1
 10
322.2477061558328
 20
271.0215437030131
 30
0
 42
-0.004276427742092743
  0
VERTEX
  8
1
 10
321.8076910046307
 20
270.9774938214174
 30
0
 42
-0.003618960281159948
  0
VERTEX
  8
1
 10
321.3668550740234
 20
270.9403819507025
 30
0
 42
-0.002963333241822373
  0
VERTEX
  8
1
 10
320.9254012019185
 20
270.9090643446216
 30
0
 42
-0.002309907759089078
  0
VERTEX
  8
1
 10
320.4835322262232
 20
270.8823972569282
 30
0
 42
-0.001658437888672268
  0
VERTEX
  8
1
 10
320.041450984845
 20
270.8592369413755
 30
0
 42
-0.001659181814435692
  0
VERTEX
  8
1
 10
319.4302743984249
 20
270.8312251136334
 30
0
 42
-0.001291066999856252
  0
VERTEX
  8
1
 10
318.8190833994543
 20
270.8068257212285
 30
0
 42
-0.0009224660058158546
  0
VERTEX
  8
1
 10
318.207881591071
 20
270.7851356553268
 30
0
 42
-0.0005535777015023054
  0
VERTEX
  8
1
 10
317.5966725764126
 20
270.7652518070937
 30
0
 42
-0.0001845410469882777
  0
VERTEX
  8
1
 10
316.9854599586166
 20
270.746271067695
 30
0
  0
SEQEND
  8
1
  0
POLYLINE
  8
1
 62
3
 66
1
  0
VERTEX
  8
1
 10
336.9854599586167
 20
272.246271067695
 30
0
 42
-0.001012204111016456
  0
VERTEX
  8
1
 10
336.354220117715
 20
272.2269520614221
 30
0
 42
-0.003041506933928421
  0
VERTEX
  8
1
 10
335.7233526499389
 20
272.2127607877859
 30
0
 42
-0.005083541123705469
  0
VERTEX
  8
1
 10
335.093229928414
 20
272.208824979423
 30
0
 42
-0.007140173251276324
  0
VERTEX
  8
1
 10
334.4642243262661
 20
272.2202723689703
 30
0
 42
-0.02015103824163025
  0
VERTEX
  8
1
 10
333.0996376378361
 20
272.3196904077119
 30
0
 42
-0.005713191267260719
  0
VERTEX
  8
1
 10
332.3640078656828
 20
272.4103151175732
 30
0
 42
-0.001504699508867296
  0
VERTEX
  8
1
 10
331.6286761555031
 20
272.5116932353127
 30
0
 42
0.002686391856234284
  0
VERTEX
  8
1
 10
330.892499762639
 20
272.6114131775948
 30
0
 42
0.006874857216687587
  0
VERTEX
  8
1
 10
330.1543359424328
 20
272.6970633610839
 30
0
 42
0.006540794940990153
  0
VERTEX
  8
1
 10
329.6903012595865
 20
272.73832401437
 30
0
 42
0.006046787787785965
  0
VERTEX
  8
1
 10
329.2254904067903
 20
272.7678834927933
 30
0
 42
0.007915314743121904
  0
VERTEX
  8
1
 10
328.7603567400221
 20
272.7844424450161
 30
0
 42
0.007448605158199087
  0
VERTEX
  8
1
 10
328.2953536152597
 20
272.7867015197003
 30
0
 42
0.01990100912990052
  0
VERTEX
  8
1
 10
327.2675102474957
 20
272.7354359369632
 30
0
 42
0.006705255688296558
  0
VERTEX
  8
1
 10
326.7054280661793
 20
272.677311653082
 30
0
 42
0.006951790059146027
  0
VERTEX
  8
1
 10
326.1444962582746
 20
272.6037736545492
 30
0
 42
0.002464144041692296
  0
VERTEX
  8
1
 10
325.584523237524
 20
272.5196070820492
 30
0
 42
0.00273769309222631
  0
VERTEX
  8
1
 10
325.0253174176707
 20
272.4295970762663
 30
0
 42
-0.0001339878578000689
  0
VERTEX
  8
1
 10
324.4704325953238
 20
272.3388266493615
 30
0
 42
-0.001401259120532776
  0
VERTEX
  8
1
 10
323.9156723313346
 20
272.2498241688345
 30
0
 42
-0.002671166501053724
  0
VERTEX
  8
1
 10
323.3605933523351
 20
272.1654015644344
 30
0
 42
-0.003942555142822153
  0
VERTEX
  8
1
 10
322.8047523849571
 20
272.0883707659109
 30
0
 42
-0.005212195615056731
  0
VERTEX
  8
1
 10
322.2477061558328
 20
272.0215437030131
 30
0
 42
-0.004276427742092743
  0
VERTEX
  8
1
 10
321.8076910046307
 20
271.9774938214174
 30
0
 42
-0.003618960281416024
  0
VERTEX
  8
1
 10
321.3668550740234
 20
271.9403819507025
 30
0
 42
-0.002963333241822373
  0
VERTEX
  8
1
 10
320.9254012019185
 20
271.9090643446216
 30
0
 42
-0.002309907758832727
  0
VERTEX
  8
1
 10
320.4835322262232
 20
271.8823972569282
 30
0
 42
-0.001658437888672268
  0
VERTEX
  8
1
 10
320.041450984845
 20
271.8592369413755
 30
0
 42
-0.001659181814250062
  0
VERTEX
  8
1
 10
319.4302743984249
 20
271.8312251136334
 30
0
 42
-0.001291066999670512
  0
VERTEX
  8
1
 10
318.8190833994543
 20
271.8068257212285
 30
0
 42
-0.0009224660058158546
  0
VERTEX
  8
1
 10
318.207881591071
 20
271.7851356553268
 30
0
 42
-0.0005535777015023054
  0
VERTEX
  8
1
 10
317.5966725764126
 20
271.7652518070937
 30
0
 42
-0.0001845410469882777
  0
VERTEX
  8
1
 10
316.9854599586166
 20
271.746271067695
 30
0
  0
SEQEND
  8
1
  0
POLYLINE
  8
1
 62
3
 66
1
  0
VERTEX
  8
1
 10
336.9854599586167
 20
276.246271067695
 30
0
 42
0.002401515546318478
  0
VERTEX
  8
1
 10
336.2409828966378
 20
276.3045792482475
 30
0
 42
0.007248840753279291
  0
VERTEX
  8
1
 10
335.4988848539525
 20
276.3483103836618
 30
0
 42
0.01229879808577862
  0
VERTEX
  8
1
 10
334.7615448498543
 20
276.3628874287999
 30
0
 42
0.01753962731828936
  0
VERTEX
  8
1
 10
334.0313419036368
 20
276.3337333385237
 30
0
 42
0.02289826929953761
  0
VERTEX
  8
1
 10
333.3106550345937
 20
276.246271067695
 30
0
 42
0.02623792913379057
  0
VERTEX
  8
1
 10
332.5409818952667
 20
276.0749479246783
 30
0
 42
0.01533451021635697
  0
VERTEX
  8
1
 10
331.7822306161294
 20
275.8384485392921
 30
0
 42
0.01262719634058505
  0
VERTEX
  8
1
 10
331.0313111262029
 20
275.5574524474977
 30
0
 42
0.00224374549196641
  0
VERTEX
  8
1
 10
330.2851333545086
 20
275.2526391852567
 30
0
 42
-0.002052424584265615
  0
VERTEX
  8
1
 10
329.5406072300677
 20
274.9446882885308
 30
0
 42
-0.004718784384136586
  0
VERTEX
  8
1
 10
328.7440654370657
 20
274.6302553660175
 30
0
 42
-0.002952234778121064
  0
VERTEX
  8
1
 10
327.9463760210839
 20
274.3294458774812
 30
0
 42
-0.001148070354338859
  0
VERTEX
  8
1
 10
327.1480338385661
 20
274.0358528502015
 30
0
 42
0.000669760510894571
  0
VERTEX
  8
1
 10
326.3495337459561
 20
273.7430693114582
 30
0
 42
0.002482044596558698
  0
VERTEX
  8
1
 10
325.5513705996977
 20
273.4446882885308
 30
0
 42
0.001978882975248421
  0
VERTEX
  8
1
 10
324.8740260263155
 20
273.1845624930726
 30
0
 42
-0.002424872975855717
  0
VERTEX
  8
1
 10
324.1953500633515
 20
272.9259948890907
 30
0
 42
-0.005965402688203244
  0
VERTEX
  8
1
 10
323.513411818761
 20
272.6791956003654
 30
0
 42
-0.009563208241552414
  0
VERTEX
  8
1
 10
322.8262804004999
 20
272.4543747506771
 30
0
 42
-0.01321986738209783
  0
VERTEX
  8
1
 10
322.1320249165237
 20
272.2617424638061
 30
0
 42
-0.01938778054356217
  0
VERTEX
  8
1
 10
321.1249171557458
 20
272.0546750190898
 30
0
 42
-0.01499239441259476
  0
VERTEX
  8
1
 10
320.1030059077657
 20
271.9169230180363
 30
0
 42
-0.01059728124996992
  0
VERTEX
  8
1
 10
319.0699920443836
 20
271.8311575997298
 30
0
 42
-0.006296230251621652
  0
VERTEX
  8
1
 10
318.0295764374005
 20
271.7800499032545
 30
0
 42
-0.002086734309531551
  0
VERTEX
  8
1
 10
316.9854599586166
 20
271.746271067695
 30
0
  0
SEQEND
  8
1
  0
POLYLINE
  8
1
 62
3
 66
1
  0
VERTEX
  8
1
 10
336.9854599586167
 20
277.246271067695
 30
0
 42
0.00240151554616682
  0
VERTEX
  8
1
 10
336.2409828966378
 20
277.3045792482475
 30
0
 42
0.007248840753393206
  0
VERTEX
  8
1
 10
335.4988848539525
 20
277.3483103836618
 30
0
 42
0.01229879808574176
  0
VERTEX
  8
1
 10
334.7615448498543
 20
277.3628874287999
 30
0
 42
0.01753962731824805
  0
VERTEX
  8
1
 10
334.0313419036368
 20
277.3337333385238
 30
0
 42
0.02289826929965624
  0
VERTEX
  8
1
 10
333.3106550345937
 20
277.246271067695
 30
0
 42
0.02623792913359703
  0
VERTEX
  8
1
 10
332.5409818952667
 20
277.0749479246784
 30
0
 42
0.0153345102166548
  0
VERTEX
  8
1
 10
331.7822306161294
 20
276.8384485392921
 30
0
 42
0.01262719634018465
  0
VERTEX
  8
1
 10
331.0313111262029
 20
276.5574524474977
 30
0
 42
0.002243745492400731
  0
VERTEX
  8
1
 10
330.2851333545086
 20
276.2526391852567
 30
0
 42
-0.002052424584265615
  0
VERTEX
  8
1
 10
329.5406072300677
 20
275.9446882885308
 30
0
 42
-0.004718784384136586
  0
VERTEX
  8
1
 10
328.7440654370657
 20
275.6302553660175
 30
0
 42
-0.002952234778245855
  0
VERTEX
  8
1
 10
327.9463760210839
 20
275.3294458774812
 30
0
 42
-0.001148070354276076
  0
VERTEX
  8
1
 10
327.1480338385661
 20
275.0358528502015
 30
0
 42
0.0006697605109574097
  0
VERTEX
  8
1
 10
326.3495337459561
 20
274.7430693114582
 30
0
 42
0.00248204459652739
  0
VERTEX
  8
1
 10
325.5513705996977
 20
274.4446882885308
 30
0
 42
0.001978882975279951
  0
VERTEX
  8
1
 10
324.8740260263155
 20
274.1845624930726
 30
0
 42
-0.002424872975636391
  0
VERTEX
  8
1
 10
324.1953500633515
 20
273.9259948890906
 30
0
 42
-0.005965402688130134
  0
VERTEX
  8
1
 10
323.513411818761
 20
273.6791956003654
 30
0
 42
-0.009563208241552414
  0
VERTEX
  8
1
 10
322.8262804004999
 20
273.4543747506771
 30
0
 42
-0.01321986738209783
  0
VERTEX
  8
1
 10
322.1320249165237
 20
273.2617424638061
 30
0
 42
-0.01938778054356217
  0
VERTEX
  8
1
 10
321.1249171557458
 20
273.0546750190898
 30
0
 42
-0.01499239441270397
  0
VERTEX
  8
1
 10
320.1030059077657
 20
272.9169230180363
 30
0
 42
-0.01059728124991545
  0
VERTEX
  8
1
 10
319.0699920443836
 20
272.8311575997297
 30
0
 42
-0.006296230251567082
  0
VERTEX
  8
1
 10
318.0295764374005
 20
272.7800499032545
 30
0
 42
-0.002086734309531551
  0
VERTEX
  8
1
 10
316.9854599586166
 20
272.746271067695
 30
0
  0
SEQEND
  8
1
  0
POLYLINE
  8
1
 62
3
 66
1
  0
VERTEX
  8
1
 10
336.9854599586167
 20
281.246271067695
 30
0
 42
0.004358729398528399
  0
VERTEX
  8
1
 10
336.0163459079435
 20
281.241743882509
 30
0
 42
0.01337584483500414
  0
VERTEX
  8
1
 10
335.064124246827
 20
281.2035021823479
 30
0
 42
0.02383563990216591
  0
VERTEX
  8
1
 10
334.1456873648239
 20
281.0978314522369
 30
0
 42
0.03589190169528414
  0
VERTEX
  8
1
 10
333.2779276514909
 20
280.8910171772008
 30
0
 42
0.04895632414656005
  0
VERTEX
  8
1
 10
332.4777374963847
 20
280.5493448422647
 30
0
 42
0.04576326853652134
  0
VERTEX
  8
1
 10
331.8199540490216
 20
280.1062006300029
 30
0
 42
0.02110922930104025
  0
VERTEX
  8
1
 10
331.2099980593088
 20
279.5641442715194
 30
0
 42
0.01598160533318389
  0
VERTEX
  8
1
 10
330.6264532136121
 20
278.9624631426943
 30
0
 42
-0.00109213469101588
  0
VERTEX
  8
1
 10
330.0479031982976
 20
278.340444619408
 30
0
 42
-0.01369804711987017
  0
VERTEX
  8
1
 10
329.4529316997308
 20
277.7373760775406
 30
0
 42
-0.02555441647285587
  0
VERTEX
  8
1
 10
328.5970079445592
 20
277.0044044767561
 30
0
 42
-0.02143501595994844
  0
VERTEX
  8
1
 10
327.6839032077453
 20
276.3607722425809
 30
0
 42
-0.01692967819391998
  0
VERTEX
  8
1
 10
326.725312484693
 20
275.789809533514
 30
0
 42
-0.0123382232184625
  0
VERTEX
  8
1
 10
325.7329307708061
 20
275.2748465080539
 30
0
 42
-0.007800748263449645
  0
VERTEX
  8
1
 10
324.7184530614887
 20
274.7992133246995
 30
0
 42
-0.005362192224391047
  0
VERTEX
  8
1
 10
323.9115808177925
 20
274.444437571579
 30
0
 42
-0.007366627213679875
  0
VERTEX
  8
1
 10
323.0971725069492
 20
274.1108083783578
 30
0
 42
-0.009412356290930577
  0
VERTEX
  8
1
 10
322.2741253253662
 20
273.8054565607122
 30
0
 42
-0.01149368119280695
  0
VERTEX
  8
1
 10
321.4413364694512
 20
273.5355129343189
 30
0
 42
-0.02517093435362132
  0
VERTEX
  8
1
 10
319.8852313735641
 20
273.154262849791
 30
0
 42
-0.008504618118709425
  0
VERTEX
  8
1
 10
319.1661083626155
 20
273.0280693951487
 30
0
 42
-0.006047552492666326
  0
VERTEX
  8
1
 10
318.4419969149913
 20
272.9226149483221
 30
0
 42
-0.003614339530341322
  0
VERTEX
  8
1
 10
317.7145598429165
 20
272.8309865067059
 30
0
 42
-0.001202089796682949
  0
VERTEX
  8
1
 10
316.9854599586166
 20
272.746271067695
 30
0
  0
SEQEND
  8
1
  0
POLYLINE
  8
1
 62
3
 66
1
  0
VERTEX
  8
1
 10
336.9854599586167
 20
282.246271067695
 30
0
 42
0.004358729398528399
  0
VERTEX
  8
1
 10
336.0163459079435
 20
282.241743882509
 30
0
 42
0.01337584483497438
  0
VERTEX
  8
1
 10
335.064124246827
 20
282.2035021823479
 30
0
 42
0.02383563990225678
  0
VERTEX
  8
1
 10
334.1456873648239
 20
282.0978314522369
 30
0
 42
0.03589190169516319
  0
VERTEX
  8
1
 10
333.2779276514909
 20
281.8910171772008
 30
0
 42
0.04895632414667935
  0
VERTEX
  8
1
 10
332.4777374963847
 20
281.5493448422647
 30
0
 42
0.04576326853640431
  0
VERTEX
  8
1
 10
331.8199540490216
 20
281.1062006300029
 30
0
 42
0.02110922930115777
  0
VERTEX
  8
1
 10
331.2099980593088
 20
280.5641442715194
 30
0
 42
0.01598160533304219
  0
VERTEX
  8
1
 10
330.6264532136121
 20
279.9624631426943
 30
0
 42
-0.00109213469101588
  0
VERTEX
  8
1
 10
330.0479031982976
 20
279.340444619408
 30
0
 42
-0.01369804711991525
  0
VERTEX
  8
1
 10
329.4529316997308
 20
278.7373760775406
 30
0
 42
-0.02555441647281499
  0
VERTEX
  8
1
 10
328.5970079445592
 20
278.004404476756
 30
0
 42
-0.02143501595990879
  0
VERTEX
  8
1
 10
327.6839032077453
 20
277.3607722425809
 30
0
 42
-0.01692967819391998
  0
VERTEX
  8
1
 10
326.725312484693
 20
276.789809533514
 30
0
 42
-0.0123382232184625
  0
VERTEX
  8
1
 10
325.7329307708061
 20
276.2748465080539
 30
0
 42
-0.007800748263449645
  0
VERTEX
  8
1
 10
324.7184530614887
 20
275.7992133246995
 30
0
 42
-0.005362192224391047
  0
VERTEX
  8
1
 10
323.9115808177925
 20
275.444437571579
 30
0
 42
-0.007366627213679875
  0
VERTEX
  8
1
 10
323.0971725069492
 20
275.1108083783578
 30
0
 42
-0.009412356290930577
  0
VERTEX
  8
1
 10
322.2741253253662
 20
274.8054565607122
 30
0
 42
-0.01149368119280695
  0
VERTEX
  8
1
 10
321.4413364694512
 20
274.5355129343189
 30
0
 42
-0.02517093435362132
  0
VERTEX
  8
1
 10
319.8852313735641
 20
274.154262849791
 30
0
 42
-0.008504618118939758
  0
VERTEX
  8
1
 10
319.1661083626155
 20
274.0280693951488
 30
0
 42
-0.006047552492743268
  0
VERTEX
  8
1
 10
318.4419969149913
 20
273.9226149483221
 30
0
 42
-0.003614339530341322
  0
VERTEX
  8
1
 10
317.7145598429165
 20
273.8309865067059
 30
0
 42
-0.001202089796529072
  0
VERTEX
  8
1
 10
316.9854599586166
 20
273.746271067695
 30
0
  0
SEQEND
  8
1
  0
POLYLINE
  8
1
 62
3
 66
1
  0
VERTEX
  8
1
 10
274.8755075142269
 20
268.6454530410169
 30
0
 42
-0.000294362523579963
  0
VERTEX
  8
1
 10
274.1525258935083
 20
268.5336064802864
 30
0
 42
-0.0008817296299720838
  0
VERTEX
  8
1
 10
273.4287263481564
 20
268.4233766811983
 30
0
 42
-0.001464990072313116
  0
VERTEX
  8
1
 10
272.703290953538
 20
268.3163804053946
 30
0
 42
-0.002041299421358972
  0
VERTEX
  8
1
 10
271.9754017850199
 20
268.2142344145179
 30
0
 42
-0.002607663120017985
  0
VERTEX
  8
1
 10
271.2442409179688
 20
268.1185554702103
 30
0
 42
-0.003565789052012894
  0
VERTEX
  8
1
 10
270.7667780571531
 20
268.0616057426892
 30
0
 42
-0.006974058786593496
  0
VERTEX
  8
1
 10
270.2886372851575
 20
268.0147634513115
 30
0
 42
-0.01046734541280009
  0
VERTEX
  8
1
 10
269.8108705745424
 20
267.9847166344385
 30
0
 42
-0.01406324816664644
  0
VERTEX
  8
1
 10
269.3345298978684
 20
267.9781533304313
 30
0
 42
-0.04238687832017193
  0
VERTEX
  8
1
 10
268.2057604666368
 20
268.0903668661126
 30
0
 42
-0.0127565571105245
  0
VERTEX
  8
1
 10
267.5550776316725
 20
268.2255010471267
 30
0
 42
-0.003311590302335381
  0
VERTEX
  8
1
 10
266.9059925335042
 20
268.3821649850033
 30
0
 42
0.006018803926409791
  0
VERTEX
  8
1
 10
266.2558789828332
 20
268.5353595440522
 30
0
 42
0.01543555656004021
  0
VERTEX
  8
1
 10
265.6021107903607
 20
268.6600855885831
 30
0
 42
0.0183517920611634
  0
VERTEX
  8
1
 10
265.0216425685613
 20
268.7306356774067
 30
0
 42
0.01056861445990429
  0
VERTEX
  8
1
 10
264.4375215883861
 20
268.7675490696074
 30
0
 42
0.01150728188677237
  0
VERTEX
  8
1
 10
263.8509680761279
 20
268.7786719608038
 30
0
 42
0.003776246101190567
  0
VERTEX
  8
1
 10
263.2632022580792
 20
268.7718505466141
 30
0
 42
0.004810538921321217
  0
VERTEX
  8
1
 10
262.6754443605328
 20
268.7549310226567
 30
0
 42
0.0009324995727460881
  0
VERTEX
  8
1
 10
262.0529326908282
 20
268.7332149674802
 30
0
 42
0.0007280294781952029
  0
VERTEX
  8
1
 10
261.4315269957792
 20
268.7094710114155
 30
0
 42
0.0005209755888220156
  0
VERTEX
  8
1
 10
260.8109507817219
 20
268.6842061296849
 30
0
 42
0.0003134104114767117
  0
VERTEX
  8
1
 10
260.1909275549924
 20
268.6579272975102
 30
0
 42
0.0001042969047231667
  0
VERTEX
  8
1
 10
259.5711808219268
 20
268.6311414901135
 30
0
  0
SEQEND
  8
1
  0
POLYLINE
  8
1
 62
3
 66
1
  0
VERTEX
  8
1
 10
275.8976277654978
 20
269.746271067695
 30
0
 42
0.0003148701003670792
  0
VERTEX
  8
1
 10
275.6064405496879
 20
269.7251344820112
 30
0
 42
0.0009449789259212893
  0
VERTEX
  8
1
 10
275.315392324998
 20
269.7032706314532
 30
0
 42
0.001576883993584655
  0
VERTEX
  8
1
 10
275.0246220825482
 20
269.6799522511465
 30
0
 42
0.002211090620065491
  0
VERTEX
  8
1
 10
274.7342688134586
 20
269.6544520762168
 30
0
 42
0.002848557154181942
  0
VERTEX
  8
1
 10
274.4444715088493
 20
269.6260428417899
 30
0
 42
0.00675641226931646
  0
VERTEX
  8
1
 10
273.7798418719833
 20
269.5479723149563
 30
0
 42
0.003949607810043517
  0
VERTEX
  8
1
 10
273.1171640845311
 20
269.4557076797889
 30
0
 42
0.002819681200338544
  0
VERTEX
  8
1
 10
272.4547093288782
 20
269.3543137550187
 30
0
 42
0.0004244089955996883
  0
VERTEX
  8
1
 10
271.7907487874099
 20
269.2488553593765
 30
0
 42
-0.00152677981376129
  0
VERTEX
  8
1
 10
271.1235536425117
 20
269.1443973115933
 30
0
 42
-0.003828713700395091
  0
VERTEX
  8
1
 10
270.6582220176015
 20
269.076280996904
 30
0
 42
-0.008077299979864918
  0
VERTEX
  8
1
 10
270.1918674969464
 20
269.0193048768902
 30
0
 42
-0.01246650744820742
  0
VERTEX
  8
1
 10
269.725855783492
 20
268.9816903430786
 30
0
 42
-0.0170294590960344
  0
VERTEX
  8
1
 10
269.261552580184
 20
268.9716587869964
 30
0
 42
-0.05240043144329115
  0
VERTEX
  8
1
 10
268.1504521308996
 20
269.1025514325787
 30
0
 42
-0.01461122410702173
  0
VERTEX
  8
1
 10
267.5061287186697
 20
269.2634490068906
 30
0
 42
-0.00205301963211455
  0
VERTEX
  8
1
 10
266.863902574127
 20
269.4466706117509
 30
0
 42
0.01039734553728153
  0
VERTEX
  8
1
 10
266.2203229181198
 20
269.6187625358041
 30
0
 42
0.02316068791098281
  0
VERTEX
  8
1
 10
265.5719389714966
 20
269.746271067695
 30
0
 42
0.02682260581794665
  0
VERTEX
  8
1
 10
264.9812495393263
 20
269.8020985988692
 30
0
 42
0.01284867864461007
  0
VERTEX
  8
1
 10
264.3855287063756
 20
269.8109780478845
 30
0
 42
0.01264018664587479
  0
VERTEX
  8
1
 10
263.7864515827544
 20
269.7893595471744
 30
0
 42
0.002393804698230386
  0
VERTEX
  8
1
 10
263.1856932785724
 20
269.7536932291723
 30
0
 42
-0.004389826407233157
  0
VERTEX
  8
1
 10
262.5849289039398
 20
269.7204292263117
 30
0
 42
-0.007114942061711801
  0
VERTEX
  8
1
 10
261.9801404254535
 20
269.7025678598928
 30
0
 42
-0.005563552051046846
  0
VERTEX
  8
1
 10
261.3767111883563
 20
269.7000596499376
 30
0
 42
-0.003986604090634593
  0
VERTEX
  8
1
 10
260.774301382301
 20
269.7090663073302
 30
0
 42
-0.002396062566234537
  0
VERTEX
  8
1
 10
260.1725711969402
 20
269.7257495429546
 30
0
 42
-0.0007992743058717374
  0
VERTEX
  8
1
 10
259.5711808219268
 20
269.746271067695
 30
0
  0
SEQEND
  8
1
  0
POLYLINE
  8
1
 62
3
 66
1
  0
VERTEX
  8
1
 10
259.5711808219268
 20
258.746271067695
 30
0
 42
0.0001520563530779765
  0
VERTEX
  8
1
 10
260.4716115339629
 20
258.7921824012539
 30
0
 42
0.0004559430653188571
  0
VERTEX
  8
1
 10
261.3723206911014
 20
258.8392061095388
 30
0
 42
0.0007586958596459137
  0
VERTEX
  8
1
 10
262.2735867384453
 20
258.8884545672755
 30
0
 42
0.00105984356315289
  0
VERTEX
  8
1
 10
263.1756881210968
 20
258.94104014919
 30
0
 42
0.001358440646002214
  0
VERTEX
  8
1
 10
264.0789032841587
 20
258.9980752300081
 30
0
 42
0.001876121247833432
  0
VERTEX
  8
1
 10
264.6886952311553
 20
259.0405438149991
 30
0
 42
0.005028464223451793
  0
VERTEX
  8
1
 10
265.2975962531308
 20
259.0914081712108
 30
0
 42
0.0067865482242861
  0
VERTEX
  8
1
 10
265.9040818812734
 20
259.1565330930428
 30
0
 42
0.01000373869082283
  0
VERTEX
  8
1
 10
266.5066276467714
 20
259.2417833748943
 30
0
 42
0.01181943118279758
  0
VERTEX
  8
1
 10
267.1037090808127
 20
259.3530238111648
 30
0
 42
0.02260296103156963
  0
VERTEX
  8
1
 10
268.0941388769569
 20
259.6091224588058
 30
0
 42
0.01776829577922786
  0
VERTEX
  8
1
 10
269.063766000442
 20
259.9453251240496
 30
0
 42
0.01769407885002454
  0
VERTEX
  8
1
 10
270.0116260896791
 20
260.3513128106042
 30
0
 42
0.0130402414565434
  0
VERTEX
  8
1
 10
270.9367547830796
 20
260.8167665221773
 30
0
 42
0.01325209981364013
  0
VERTEX
  8
1
 10
271.8381877190547
 20
261.3313672624768
 30
0
 42
0.006507225468297609
  0
VERTEX
  8
1
 10
272.6572435339396
 20
261.8428698199931
 30
0
 42
0.000349231292989423
  0
VERTEX
  8
1
 10
273.4668897618946
 20
262.3640628082329
 30
0
 42
-0.006990503468262122
  0
VERTEX
  8
1
 10
274.2790830749948
 20
262.8709948982365
 30
0
 42
-0.01414273780465458
  0
VERTEX
  8
1
 10
275.1057801453155
 20
263.3397147610438
 30
0
 42
-0.02139598757930378
  0
VERTEX
  8
1
 10
275.9589376449317
 20
263.746271067695
 30
0
 42
-0.01756986365204339
  0
VERTEX
  8
1
 10
276.652996646297
 20
264.0099086141543
 30
0
 42
-0.01351685745491969
  0
VERTEX
  8
1
 10
277.3659820703514
 20
264.2311211296407
 30
0
 42
-0.009528745766044027
  0
VERTEX
  8
1
 10
278.0931623114227
 20
264.4205148718975
 30
0
 42
-0.005654478827338395
  0
VERTEX
  8
1
 10
278.8298057638385
 20
264.5886960986678
 30
0
 42
-0.001873214916149024
  0
VERTEX
  8
1
 10
279.5711808219267
 20
264.746271067695
 30
0
  0
SEQEND
  8
1
  0
POLYLINE
  8
1
 62
3
 66
1
  0
VERTEX
  8
1
 10
259.5711808219268
 20
259.746271067695
 30
0
 42
0.0001520563532668254
  0
VERTEX
  8
1
 10
260.4716115339629
 20
259.792182401254
 30
0
 42
0.000455943065067003
  0
VERTEX
  8
1
 10
261.3723206911014
 20
259.8392061095388
 30
0
 42
0.0007586958599292428
  0
VERTEX
  8
1
 10
262.2735867384453
 20
259.8884545672755
 30
0
 42
0.001059843562869561
  0
VERTEX
  8
1
 10
263.1756881210968
 20
259.94104014919
 30
0
 42
0.001358440646285544
  0
VERTEX
  8
1
 10
264.0789032841587
 20
259.9980752300081
 30
0
 42
0.001876121247550046
  0
VERTEX
  8
1
 10
264.6886952311553
 20
260.0405438149991
 30
0
 42
0.005028464223735074
  0
VERTEX
  8
1
 10
265.2975962531308
 20
260.0914081712108
 30
0
 42
0.006786548224002259
  0
VERTEX
  8
1
 10
265.9040818812734
 20
260.1565330930428
 30
0
 42
0.01000373869115304
  0
VERTEX
  8
1
 10
266.5066276467714
 20
260.2417833748944
 30
0
 42
0.01181943118237414
  0
VERTEX
  8
1
 10
267.1037090808127
 20
260.3530238111648
 30
0
 42
0.02260296103203916
  0
VERTEX
  8
1
 10
268.0941388769569
 20
260.6091224588058
 30
0
 42
0.01776829577875948
  0
VERTEX
  8
1
 10
269.063766000442
 20
260.9453251240496
 30
0
 42
0.01769407885049204
  0
VERTEX
  8
1
 10
270.0116260896791
 20
261.3513128106042
 30
0
 42
0.01304024145609913
  0
VERTEX
  8
1
 10
270.9367547830796
 20
261.8167665221774
 30
0
 42
0.0132520998140361
  0
VERTEX
  8
1
 10
271.8381877190547
 20
262.3313672624768
 30
0
 42
0.006507225467924559
  0
VERTEX
  8
1
 10
272.6572435339396
 20
262.8428698199931
 30
0
 42
0.0003492312933621249
  0
VERTEX
  8
1
 10
273.4668897618946
 20
263.3640628082329
 30
0
 42
-0.006990503468210827
  0
VERTEX
  8
1
 10
274.2790830749948
 20
263.8709948982365
 30
0
 42
-0.0141427378045
  0
VERTEX
  8
1
 10
275.1057801453155
 20
264.3397147610438
 30
0
 42
-0.02139598757941241
  0
VERTEX
  8
1
 10
275.9589376449317
 20
264.746271067695
 30
0
 42
-0.01756986365204339
  0
VERTEX
  8
1
 10
276.652996646297
 20
265.0099086141543
 30
0
 42
-0.01351685745491969
  0
VERTEX
  8
1
 10
277.3659820703514
 20
265.2311211296407
 30
0
 42
-0.009528745766044027
  0
VERTEX
  8
1
 10
278.0931623114227
 20
265.4205148718975
 30
0
 42
-0.005654478827338395
  0
VERTEX
  8
1
 10
278.8298057638385
 20
265.5886960986678
 30
0
 42
-0.001873214916149024
  0
VERTEX
  8
1
 10
279.5711808219267
 20
265.746271067695
 30
0
  0
SEQEND
  8
1
  0
POLYLINE
  8
1
 62
3
 66
1
  0
VERTEX
  8
1
 10
259.5711808219268
 20
261.246271067695
 30
0
 42
0.001250144812503052
  0
VERTEX
  8
1
 10
260.3092635871582
 20
261.2165709081358
 30
0
 42
0.003757595866809901
  0
VERTEX
  8
1
 10
261.0465659072829
 20
261.1942957884663
 30
0
 42
0.006297950553925589
  0
VERTEX
  8
1
 10
261.7823073371941
 20
261.1868707485766
 30
0
 42
0.008870900990934637
  0
VERTEX
  8
1
 10
262.5157074317854
 20
261.2017208283561
 30
0
 42
0.01147156471235261
  0
VERTEX
  8
1
 10
263.2459857459497
 20
261.246271067695
 30
0
 42
0.01254792155257682
  0
VERTEX
  8
1
 10
264.0011366648327
 20
261.3288837730894
 30
0
 42
0.007042539110440386
  0
VERTEX
  8
1
 10
264.7538954928107
 20
261.4412242621851
 30
0
 42
0.005557307952244595
  0
VERTEX
  8
1
 10
265.5060836417998
 20
261.5729336729305
 30
0
 42
9.171228541844008e-005
  0
VERTEX
  8
1
 10
266.2595225237162
 20
261.7136531432743
 30
0
 42
-0.002321053770372074
  0
VERTEX
  8
1
 10
267.0160335504758
 20
261.8530238111648
 30
0
 42
-0.001201310525893544
  0
VERTEX
  8
1
 10
267.8330693735072
 20
261.9949011476709
 30
0
 42
0.005027277254631635
  0
VERTEX
  8
1
 10
268.6481351186271
 20
262.1428565485443
 30
0
 42
0.01135044803570227
  0
VERTEX
  8
1
 10
269.4536066152683
 20
262.3164952983615
 30
0
 42
0.01794427143881431
  0
VERTEX
  8
1
 10
270.2418596928635
 20
262.5354226816991
 30
0
 42
0.04827825323421995
  0
VERTEX
  8
1
 10
271.7030234974915
 20
263.1588425457875
 30
0
 42
0.008490223132765092
  0
VERTEX
  8
1
 10
272.3826758222572
 20
263.5450465538327
 30
0
 42
0.003152034215405565
  0
VERTEX
  8
1
 10
273.0553860570175
 20
263.9483085603225
 30
0
 42
-0.009118567119237095
  0
VERTEX
  8
1
 10
273.7323131036468
 20
264.3390811183102
 30
0
 42
-0.01940348389063974
  0
VERTEX
  8
1
 10
274.4246158640197
 20
264.6878167808491
 30
0
 42
-0.03006721513014371
  0
VERTEX
  8
1
 10
275.3960328160903
 20
265.0556979511034
 30
0
 42
-0.02315593798540137
  0
VERTEX
  8
1
 10
276.4060471278348
 20
265.3194522461009
 30
0
 42
-0.01618042258612554
  0
VERTEX
  8
1
 10
277.4450094593346
 20
265.505111384656
 30
0
 42
-0.009504695469740221
  0
VERTEX
  8
1
 10
278.5032704706715
 20
265.6387070855826
 30
0
 42
-0.003129060246725538
  0
VERTEX
  8
1
 10
279.5711808219267
 20
265.746271067695
 30
0
  0
SEQEND
  8
1
  0
POLYLINE
  8
1
 62
3
 66
1
  0
VERTEX
  8
1
 10
259.5711808219268
 20
262.246271067695
 30
0
 42
0.001152801735499782
  0
VERTEX
  8
1
 10
260.3086273685209
 20
262.2189374172339
 30
0
 42
0.003463756523333891
  0
VERTEX
  8
1
 10
261.0454525246676
 20
262.198437179388
 30
0
 42
0.005799164164920589
  0
VERTEX
  8
1
 10
261.7810348999196
 20
262.1916037667727
 30
0
 42
0.008158172994379667
  0
VERTEX
  8
1
 10
262.5147531038294
 20
262.2052705920033
 30
0
 42
0.01053592694594233
  0
VERTEX
  8
1
 10
263.2459857459497
 20
262.246271067695
 30
0
 42
0.01177436222929837
  0
VERTEX
  8
1
 10
264.0028023637499
 20
262.3226879601859
 30
0
 42
0.007768041546175603
  0
VERTEX
  8
1
 10
264.7572398217091
 20
262.4287845373778
 30
0
 42
0.006923755484744085
  0
VERTEX
  8
1
 10
265.5102737512208
 20
262.5573479426712
 30
0
 42
0.002936010792561881
  0
VERTEX
  8
1
 10
266.2628797836786
 20
262.7011653194667
 30
0
 42
0.00213716040401045
  0
VERTEX
  8
1
 10
267.0160335504758
 20
262.8530238111648
 30
0
 42
0.0005152325845932641
  0
VERTEX
  8
1
 10
267.8350999948583
 20
263.0226987787524
 30
0
 42
0.008980172020361757
  0
VERTEX
  8
1
 10
268.6497613582147
 20
263.2076614754021
 30
0
 42
0.009777534548922605
  0
VERTEX
  8
1
 10
269.4538131624167
 20
263.4222212928287
 30
0
 42
0.01845505424875402
  0
VERTEX
  8
1
 10
270.2410509293365
 20
263.6806876227469
 30
0
 42
0.03922143116269836
  0
VERTEX
  8
1
 10
271.6984682910998
 20
264.3535771028904
 30
0
 42
0.006762279807537494
  0
VERTEX
  8
1
 10
272.3764708627224
 20
264.7458081581022
 30
0
 42
-0.001664850240758836
  0
VERTEX
  8
1
 10
273.0498089475353
 20
265.1462388695393
 30
0
 42
-0.01113972042388501
  0
VERTEX
  8
1
 10
273.7290135973606
 20
265.5270450842342
 30
0
 42
-0.020968632546953
  0
VERTEX
  8
1
 10
274.4246158640197
 20
265.8604026492195
 30
0
 42
-0.03144394759803383
  0
VERTEX
  8
1
 10
275.395808059139
 20
266.2000394423773
 30
0
 42
-0.02411662718852649
  0
VERTEX
  8
1
 10
276.4057474518997
 20
266.4313674958933
 30
0
 42
-0.01677980776428986
  0
VERTEX
  8
1
 10
277.4447472428914
 20
266.5814639946779
 30
0
 42
-0.009824377807826962
  0
VERTEX
  8
1
 10
278.5031206327039
 20
266.6774061236417
 30
0
 42
-0.003228644692527596
  0
VERTEX
  8
1
 10
279.5711808219267
 20
266.746271067695
 30
0
  0
SEQEND
  8
1
  0
POLYLINE
  8
1
 62
3
 66
1
  0
VERTEX
  8
1
 10
259.5711808219268
 20
263.746271067695
 30
0
 42
-0.0006197544449264457
  0
VERTEX
  8
1
 10
260.200058040063
 20
263.7669928040682
 30
0
 42
-0.001858534659256799
  0
VERTEX
  8
1
 10
260.8291535407649
 20
263.784600352033
 30
0
 42
-0.003094675195971311
  0
VERTEX
  8
1
 10
261.4586856065983
 20
263.7959795231811
 30
0
 42
-0.004324913475629248
  0
VERTEX
  8
1
 10
262.088872520129
 20
263.7980161291041
 30
0
 42
-0.005543773682273906
  0
VERTEX
  8
1
 10
262.7199325639228
 20
263.7875959813935
 30
0
 42
-0.004520796364471087
  0
VERTEX
  8
1
 10
263.4590298511167
 20
263.7588913420203
 30
0
 42
0.0007805678299826755
  0
VERTEX
  8
1
 10
264.1982177371862
 20
263.7246492227262
 30
0
 42
0.00609270514159395
  0
VERTEX
  8
1
 10
264.9360942070775
 20
263.7006269317487
 30
0
 42
0.01150964957827773
  0
VERTEX
  8
1
 10
265.6712572457369
 20
263.7025817773258
 30
0
 42
0.01700876146763129
  0
VERTEX
  8
1
 10
266.4023048381106
 20
263.746271067695
 30
0
 42
0.01240697077912456
  0
VERTEX
  8
1
 10
266.8673319067956
 20
263.8016448911434
 30
0
 42
0.006037178883507286
  0
VERTEX
  8
1
 10
267.331143629658
 20
263.8743096410813
 30
0
 42
0.00558935094189127
  0
VERTEX
  8
1
 10
267.7947819735731
 20
263.9580351251055
 30
0
 42
0.0007533041593342788
  0
VERTEX
  8
1
 10
268.2592889054163
 20
264.0465911508135
 30
0
 42
-0.002573584257707635
  0
VERTEX
  8
1
 10
268.7257063920628
 20
264.1337475258022
 30
0
 42
-0.001804763928909428
  0
VERTEX
  8
1
 10
269.3004760870954
 20
264.2339661240791
 30
0
 42
0.004933510209261131
  0
VERTEX
  8
1
 10
269.8740536340404
 20
264.3376707345882
 30
0
 42
0.01176870411043041
  0
VERTEX
  8
1
 10
270.44080803055
 20
264.4598181614238
 30
0
 42
0.01888827476056809
  0
VERTEX
  8
1
 10
270.9951082742767
 20
264.6153652086804
 30
0
 42
0.05449544957770229
  0
VERTEX
  8
1
 10
272.0936793204477
 20
265.1062700444115
 30
0
 42
0.00592494679391561
  0
VERTEX
  8
1
 10
272.6401452743534
 20
265.4345593246044
 30
0
 42
5.930991546669851e-005
  0
VERTEX
  8
1
 10
273.1831943756556
 20
265.7697054721908
 30
0
 42
-0.01842206213847525
  0
VERTEX
  8
1
 10
273.7352997754195
 20
266.0772774383299
 30
0
 42
-0.03355665101512635
  0
VERTEX
  8
1
 10
274.3089346247107
 20
266.3228441741815
 30
0
 42
-0.02601541318575976
  0
VERTEX
  8
1
 10
274.7319167306714
 20
266.4436616037012
 30
0
 42
-0.01999312491765283
  0
VERTEX
  8
1
 10
275.1679258444871
 20
266.5258045826088
 30
0
 42
-0.01415542656713945
  0
VERTEX
  8
1
 10
275.6130694224212
 20
266.5785849487399
 30
0
 42
-0.008632739803966616
  0
VERTEX
  8
1
 10
276.0634549207372
 20
266.6113145399301
 30
0
 42
-0.003342474864746921
  0
VERTEX
  8
1
 10
276.5151897956984
 20
266.6333051940147
 30
0
 42
-0.0009058135989685668
  0
VERTEX
  8
1
 10
277.1321374483521
 20
266.6591246735526
 30
0
 42
-0.000713543198764597
  0
VERTEX
  8
1
 10
277.7452521360671
 20
266.6827932832226
 30
0
 42
-0.0005145810281688436
  0
VERTEX
  8
1
 10
278.355492100078
 20
266.7048487404917
 30
0
 42
-0.0003107331200460995
  0
VERTEX
  8
1
 10
278.9638155816197
 20
266.7258287628268
 30
0
 42
-0.0001039106373799773
  0
VERTEX
  8
1
 10
279.5711808219267
 20
266.746271067695
 30
0
  0
SEQEND
  8
1
  0
POLYLINE
  8
1
 62
3
 66
1
  0
VERTEX
  8
1
 10
259.5711808219268
 20
264.746271067695
 30
0
 42
-0.0005686270057002614
  0
VERTEX
  8
1
 10
260.2003792168192
 20
264.7659789287307
 30
0
 42
-0.001705583657890198
  0
VERTEX
  8
1
 10
260.8297156000883
 20
264.7828260701923
 30
0
 42
-0.002841296066459007
  0
VERTEX
  8
1
 10
261.4593279601108
 20
264.793951772506
 30
0
 42
-0.003973764666339058
  0
VERTEX
  8
1
 10
262.0893542852634
 20
264.7964953160977
 30
0
 42
-0.005099253580600393
  0
VERTEX
  8
1
 10
262.7199325639228
 20
264.7875959813935
 30
0
 42
-0.0042224636617119
  0
VERTEX
  8
1
 10
263.4580590346885
 20
264.7619559686311
 30
0
 42
0.0005439850099876292
  0
VERTEX
  8
1
 10
264.1962442830191
 20
264.7308789279304
 30
0
 42
0.005315690746585911
  0
VERTEX
  8
1
 10
264.9336035233857
 20
264.7084894022408
 30
0
 42
0.0101494650315909
  0
VERTEX
  8
1
 10
265.6692519702592
 20
264.7089119345125
 30
0
 42
0.0150246851279517
  0
VERTEX
  8
1
 10
266.4023048381106
 20
264.746271067695
 30
0
 42
0.01137546385994407
  0
VERTEX
  8
1
 10
266.8694690937199
 20
264.7948983222459
 30
0
 42
0.007443944908741481
  0
VERTEX
  8
1
 10
267.3353004169402
 20
264.8611876949038
 30
0
 42
0.007896505749672208
  0
VERTEX
  8
1
 10
267.7998897677511
 20
264.9419110860969
 30
0
 42
0.00399718284713466
  0
VERTEX
  8
1
 10
268.2633281061321
 20
265.0338403962536
 30
0
 42
0.004492470942415501
  0
VERTEX
  8
1
 10
268.7257063920628
 20
265.1337475258022
 30
0
 42
0.002764412573783595
  0
VERTEX
  8
1
 10
269.300142098756
 20
265.2666216495757
 30
0
 42
0.009311519232738104
  0
VERTEX
  8
1
 10
269.8704971561029
 20
265.4131480988094
 30
0
 42
0.008520636601384394
  0
VERTEX
  8
1
 10
270.4341960571843
 20
265.5796021889953
 30
0
 42
0.01512273039585048
  0
VERTEX
  8
1
 10
270.9886632950807
 20
265.7722592356249
 30
0
 42
0.01430393938659974
  0
VERTEX
  8
1
 10
271.5313233628727
 20
265.99739455419
 30
0
 42
0.01731454526689042
  0
VERTEX
  8
1
 10
272.0865889455811
 20
266.2700796693127
 30
0
 42
0.003504480622695939
  0
VERTEX
  8
1
 10
272.63401420602
 20
266.5621643396341
 30
0
 42
-0.006277921058109245
  0
VERTEX
  8
1
 10
273.1815678012885
 20
266.8504514143934
 30
0
 42
-0.01631292714586269
  0
VERTEX
  8
1
 10
273.7372183884857
 20
267.1117437428295
 30
0
 42
-0.02662680848179436
  0
VERTEX
  8
1
 10
274.3089346247107
 20
267.3228441741815
 30
0
 42
-0.0207443617571531
  0
VERTEX
  8
1
 10
274.7363764539779
 20
267.4338370594566
 30
0
 42
-0.01631089988936783
  0
VERTEX
  8
1
 10
275.1735683983997
 20
267.5133743225326
 30
0
 42
-0.01199063797526145
  0
VERTEX
  8
1
 10
275.6176649452867
 20
267.5684612449546
 30
0
 42
-0.007845844435912946
  0
VERTEX
  8
1
 10
276.0658205819495
 20
267.6061031082671
 30
0
 42
-0.003838265879417687
  0
VERTEX
  8
1
 10
276.5151897956984
 20
267.6333051940147
 30
0
 42
-0.002306500364991173
  0
VERTEX
  8
1
 10
277.1300773880693
 20
267.6636628818683
 30
0
 42
-0.001809730331393046
  0
VERTEX
  8
1
 10
277.7425053890233
 20
267.6888442276435
 30
0
 42
-0.001301101935151383
  0
VERTEX
  8
1
 10
278.3530886964148
 20
267.71014331686
 30
0
 42
-0.0007840297047613528
  0
VERTEX
  8
1
 10
278.9624422080979
 20
267.7288542350373
 30
0
 42
-0.0002619039525120189
  0
VERTEX
  8
1
 10
279.5711808219267
 20
267.746271067695
 30
0
  0
SEQEND
  8
1
  0
POLYLINE
  8
1
 62
3
 66
1
  0
VERTEX
  8
1
 10
259.5711808219268
 20
266.246271067695
 30
0
 42
-0.0002378208920107265
  0
VERTEX
  8
1
 10
260.2006953488576
 20
266.2534378092789
 30
0
 42
-0.000713357377827077
  0
VERTEX
  8
1
 10
260.8302688311554
 20
266.2594073731628
 30
0
 42
-0.001188552287347093
  0
VERTEX
  8
1
 10
261.4599602241875
 20
266.2629825816466
 30
0
 42
-0.001663092466878691
  0
VERTEX
  8
1
 10
262.089828483321
 20
266.2629662570303
 30
0
 42
-0.002136537293387777
  0
VERTEX
  8
1
 10
262.7199325639228
 20
266.2581612216137
 30
0
 42
-0.001865631803356704
  0
VERTEX
  8
1
 10
263.5322140280336
 20
266.244690983609
 30
0
 42
0.0005141892358395161
  0
VERTEX
  8
1
 10
264.3445398887886
 20
266.2290242695459
 30
0
 42
0.002895590790767833
  0
VERTEX
  8
1
 10
265.1564650911165
 20
266.2189036590933
 30
0
 42
0.005289608783588301
  0
VERTEX
  8
1
 10
265.9675445799459
 20
266.2220717319201
 30
0
 42
0.007694918188326403
  0
VERTEX
  8
1
 10
266.7773333002057
 20
266.246271067695
 30
0
 42
0.004343499979535748
  0
VERTEX
  8
1
 10
267.2093495379398
 20
266.269601461642
 30
0
 42
0.0002859975227836074
  0
VERTEX
  8
1
 10
267.6413407308202
 20
266.2969440701846
 30
0
 42
-0.001341803219904574
  0
VERTEX
  8
1
 10
268.0737772321824
 20
266.3240991506752
 30
0
 42
-0.003766903632603917
  0
VERTEX
  8
1
 10
268.5071293953618
 20
266.3468669604661
 30
0
 42
-0.006169435875749734
  0
VERTEX
  8
1
 10
268.9418675736938
 20
266.3610477569092
 30
0
 42
-0.004876619092896751
  0
VERTEX
  8
1
 10
269.4121773664043
 20
266.3646653498707
 30
0
 42
0.001180039295826229
  0
VERTEX
  8
1
 10
269.8827165865538
 20
266.364810615104
 30
0
 42
0.00725967078493984
  0
VERTEX
  8
1
 10
270.3515575095468
 20
266.3728697925029
 30
0
 42
0.01351855179286847
  0
VERTEX
  8
1
 10
270.816772410788
 20
266.4002291219613
 30
0
 42
0.0199209340099122
  0
VERTEX
  8
1
 10
271.2764335656817
 20
266.458274843373
 30
0
 42
0.03139252909778483
  0
VERTEX
  8
1
 10
271.9450866377593
 20
266.61357743925
 30
0
 42
0.0133661253954617
  0
VERTEX
  8
1
 10
272.6029170138479
 20
266.829905316385
 30
0
 42
0.008041575925373225
  0
VERTEX
  8
1
 10
273.2555230571605
 20
267.0759386565729
 30
0
 42
-0.006199739085324106
  0
VERTEX
  8
1
 10
273.9085031309101
 20
267.3203576416088
 30
0
 42
-0.01768287072625461
  0
VERTEX
  8
1
 10
274.5674555983097
 20
267.5318424532874
 30
0
 42
-0.03095415732668609
  0
VERTEX
  8
1
 10
275.5391371604191
 20
267.7361216605169
 30
0
 42
-0.02393841117524797
  0
VERTEX
  8
1
 10
276.5301943776044
 20
267.8328052115144
 30
0
 42
-0.01676213531406435
  0
VERTEX
  8
1
 10
277.5357833360968
 20
267.8487920203378
 30
0
 42
-0.009855059173506618
  0
VERTEX
  8
1
 10
278.5510601221272
 20
267.8109810010454
 30
0
 42
-0.003245338130063208
  0
VERTEX
  8
1
 10
279.5711808219267
 20
267.746271067695
 30
0
  0
SEQEND
  8
1
  0
POLYLINE
  8
1
 62
3
 66
1
  0
VERTEX
  8
1
 10
259.5711808219268
 20
267.246271067695
 30
0
 42
-0.0002335519102235489
  0
VERTEX
  8
1
 10
260.2007220729714
 20
267.2533523197638
 30
0
 42
-0.0007005663858921755
  0
VERTEX
  8
1
 10
260.8303155983546
 20
267.2592577665113
 30
0
 42
-0.001167288473389648
  0
VERTEX
  8
1
 10
261.4600136724151
 20
267.2628116026163
 30
0
 42
-0.00163344221518905
  0
VERTEX
  8
1
 10
262.0898685694916
 20
267.2628380227575
 30
0
 42
-0.002098630677719132
  0
VERTEX
  8
1
 10
262.7199325639228
 20
267.2581612216137
 30
0
 42
-0.001836296502023269
  0
VERTEX
  8
1
 10
263.5321229696614
 20
267.2449822761904
 30
0
 42
0.0004944346747811512
  0
VERTEX
  8
1
 10
264.3443528034469
 20
267.2296227490796
 30
0
 42
0.002826535781167718
  0
VERTEX
  8
1
 10
265.1562275079915
 20
267.2196636792885
 30
0
 42
0.005169687816600849
  0
VERTEX
  8
1
 10
265.9673525260071
 20
267.2226861058246
 30
0
 42
0.007522252505496628
  0
VERTEX
  8
1
 10
266.7773333002057
 20
267.246271067695
 30
0
 42
0.004271185294025535
  0
VERTEX
  8
1
 10
267.2095167315936
 20
267.2690666149292
 30
0
 42
0.0004085886509742933
  0
VERTEX
  8
1
 10
267.6416614344967
 20
267.2959181502217
 30
0
 42
-0.001118848494146369
  0
VERTEX
  8
1
 10
268.0741678490547
 20
267.3228495808185
 30
0
 42
-0.003415133681197937
  0
VERTEX
  8
1
 10
268.5074364154071
 20
267.3458848139657
 30
0
 42
-0.005694717497659881
  0
VERTEX
  8
1
 10
268.9418675736938
 20
267.3610477569092
 30
0
 42
-0.004574985680781141
  0
VERTEX
  8
1
 10
269.4115835771268
 20
267.3665648612213
 30
0
 42
0.0009489473346490602
  0
VERTEX
  8
1
 10
269.8815070227646
 20
267.3686799678077
 30
0
 42
0.006488725919536594
  0
VERTEX
  8
1
 10
270.3500290658849
 20
267.3777592308845
 30
0
 42
0.01215971397408973
  0
VERTEX
  8
1
 10
270.8155408617649
 20
267.4041688046675
 30
0
 42
0.01793657943387907
  0
VERTEX
  8
1
 10
271.2764335656817
 20
267.458274843373
 30
0
 42
0.02806143278812253
  0
VERTEX
  8
1
 10
271.943216623215
 20
267.5995838298686
 30
0
 42
0.01206734520092009
  0
VERTEX
  8
1
 10
272.60113784633
 20
267.795255673506
 30
0
 42
0.007302900515435188
  0
VERTEX
  8
1
 10
273.2547697439413
 20
268.0175479822194
 30
0
 42
-0.005441792991624484
  0
VERTEX
  8
1
 10
273.9086848249631
 20
268.2387183639424
 30
0
 42
-0.0156735263937052
  0
VERTEX
  8
1
 10
274.5674555983097
 20
268.4310244266092
 30
0
 42
-0.02763614220706148
  0
VERTEX
  8
1
 10
275.5440992308756
 20
268.6208676603301
 30
0
 42
-0.0214013937649235
  0
VERTEX
  8
1
 10
276.5368104715466
 20
268.7142413313685
 30
0
 42
-0.01504769255773152
  0
VERTEX
  8
1
 10
277.5415724182961
 20
268.7352628303952
 30
0
 42
-0.008883408330808518
  0
VERTEX
  8
1
 10
278.5543681690983
 20
268.7080495480806
 30
0
 42
-0.002932426850952415
  0
VERTEX
  8
1
 10
279.5711808219267
 20
268.6567188750955
 30
0
  0
SEQEND
  8
1
  0
POLYLINE
  8
1
 62
3
 66
1
  0
VERTEX
  8
1
 10
259.5711808219268
 20
271.2151089210362
 30
0
 42
-0.001460442418308592
  0
VERTEX
  8
1
 10
260.2042093380575
 20
271.2512085557661
 30
0
 42
-0.004397959821813172
  0
VERTEX
  8
1
 10
260.8364183122552
 20
271.2798413891464
 30
0
 42
-0.00737972278239371
  0
VERTEX
  8
1
 10
261.4669882025873
 20
271.2935406198278
 30
0
 42
-0.01041556889187673
  0
VERTEX
  8
1
 10
262.0950994671208
 20
271.2848394464604
 30
0
 42
-0.01348354551995212
  0
VERTEX
  8
1
 10
262.7199325639228
 20
271.246271067695
 30
0
 42
-0.01852174853764874
  0
VERTEX
  8
1
 10
263.5430977761982
 20
271.1406396556977
 30
0
 42
-0.01562583279979404
  0
VERTEX
  8
1
 10
264.3597334586809
 20
270.9785414066142
 30
0
 42
-0.01270868136951014
  0
VERTEX
  8
1
 10
265.1705266086543
 20
270.7692588635294
 30
0
 42
-0.009851910915065995
  0
VERTEX
  8
1
 10
265.9761642234014
 20
270.522074569528
 30
0
 42
-0.007085593377814923
  0
VERTEX
  8
1
 10
266.7773333002057
 20
270.246271067695
 30
0
 42
-0.0001477941851704807
  0
VERTEX
  8
1
 10
267.2072974856375
 20
270.0907544617
 30
0
 42
0.005767172919319261
  0
VERTEX
  8
1
 10
267.6374491793549
 20
269.9405976441803
 30
0
 42
0.01182779522928089
  0
VERTEX
  8
1
 10
268.0690722077054
 20
269.8067663554494
 30
0
 42
0.01824629362270154
  0
VERTEX
  8
1
 10
268.5034503970359
 20
269.7002263358205
 30
0
 42
0.02476807313193408
  0
VERTEX
  8
1
 10
268.9418675736938
 20
269.6319433256068
 30
0
 42
0.02753061669688285
  0
VERTEX
  8
1
 10
269.4027332315553
 20
269.6089112049709
 30
0
 42
0.01481336585960212
  0
VERTEX
  8
1
 10
269.8679858199765
 20
269.6250794941654
 30
0
 42
0.01190430324298545
  0
VERTEX
  8
1
 10
270.3362621786658
 20
269.6664746051699
 30
0
 42
0.002183927244623731
  0
VERTEX
  8
1
 10
270.8061991473314
 20
269.7191229499641
 30
0
 42
-0.005081831715104155
  0
VERTEX
  8
1
 10
271.2764335656817
 20
269.7690509405271
 30
0
 42
-0.01107023940307851
  0
VERTEX
  8
1
 10
271.9368360991253
 20
269.8154988286801
 30
0
 42
-0.008484735428552109
  0
VERTEX
  8
1
 10
272.5956336474786
 20
269.8359762024862
 30
0
 42
-0.005824984950411618
  0
VERTEX
  8
1
 10
273.2533321323729
 20
269.8375790805537
 30
0
 42
-0.003132588015418319
  0
VERTEX
  8
1
 10
273.9104374754396
 20
269.8274034814912
 30
0
 42
-0.0004300197765799383
  0
VERTEX
  8
1
 10
274.5674555983097
 20
269.812545423907
 30
0
 42
0.001259723772489901
  0
VERTEX
  8
1
 10
275.5670391640573
 20
269.7925953300909
 30
0
 42
0.0009782375386077867
  0
VERTEX
  8
1
 10
276.5673970491221
 20
269.7771087179906
 30
0
 42
0.0006981689222619242
  0
VERTEX
  8
1
 10
277.5683356736748
 20
269.7649697171772
 30
0
 42
0.000418432913525685
  0
VERTEX
  8
1
 10
278.5696614578861
 20
269.7550624572216
 30
0
 42
0.0001395634116203858
  0
VERTEX
  8
1
 10
279.5711808219267
 20
269.746271067695
 30
0
  0
SEQEND
  8
1
  0
POLYLINE
  8
1
 62
3
 66
1
  0
VERTEX
  8
1
 10
259.5711808219268
 20
272.246271067695
 30
0
 42
-0.001393915121751082
  0
VERTEX
  8
1
 10
260.2042161380348
 20
272.2747123725217
 30
0
 42
-0.004196304011966027
  0
VERTEX
  8
1
 10
260.8364302122157
 20
272.2960433511417
 30
0
 42
-0.007037433262232204
  0
VERTEX
  8
1
 10
261.4670018025421
 20
272.3031536773484
 30
0
 42
-0.009926024469204004
  0
VERTEX
  8
1
 10
262.0951096670868
 20
272.288933024935
 30
0
 42
-0.01284330496700019
  0
VERTEX
  8
1
 10
262.7199325639228
 20
272.246271067695
 30
0
 42
-0.01770265890846279
  0
VERTEX
  8
1
 10
263.5431123190311
 20
272.137733599082
 30
0
 42
-0.01507171499084202
  0
VERTEX
  8
1
 10
264.359751069795
 20
271.9750222233161
 30
0
 42
-0.01241504341041577
  0
VERTEX
  8
1
 10
265.1705400166331
 20
271.7665795818566
 30
0
 42
-0.0098047101229268
  0
VERTEX
  8
1
 10
265.9761703599638
 20
271.5208483161631
 30
0
 42
-0.007270830576724405
  0
VERTEX
  8
1
 10
266.7773333002057
 20
271.246271067695
 30
0
 42
-0.0002864829083168417
  0
VERTEX
  8
1
 10
267.2072959501797
 20
271.0910612882494
 30
0
 42
0.005668233751463385
  0
VERTEX
  8
1
 10
267.6374472660802
 20
270.9409799689025
 30
0
 42
0.01176641970667062
  0
VERTEX
  8
1
 10
268.0690706843427
 20
270.8070707650695
 30
0
 42
0.01822351206910546
  0
VERTEX
  8
1
 10
268.5034496414021
 20
270.7003773321658
 30
0
 42
0.02478922320236877
  0
VERTEX
  8
1
 10
268.9418675736938
 20
270.6319433256067
 30
0
 42
0.02758139801216577
  0
VERTEX
  8
1
 10
269.4027336760889
 20
270.6088223749667
 30
0
 42
0.01483379378712365
  0
VERTEX
  8
1
 10
269.8679863807718
 20
270.6249674319124
 30
0
 42
0.01193127750343484
  0
VERTEX
  8
1
 10
270.3362626334558
 20
270.6663837256701
 30
0
 42
0.00219047892593257
  0
VERTEX
  8
1
 10
270.8061993798546
 20
270.7190764854663
 30
0
 42
-0.005086201686667623
  0
VERTEX
  8
1
 10
271.2764335656817
 20
270.7690509405271
 30
0
 42
-0.01108267781611369
  0
VERTEX
  8
1
 10
271.9368359016386
 20
270.815538291937
 30
0
 42
-0.00849392305451113
  0
VERTEX
  8
1
 10
272.5956333967042
 20
270.8360263140818
 30
0
 42
-0.005830763332785086
  0
VERTEX
  8
1
 10
273.2533319270543
 20
270.8376201088597
 30
0
 42
-0.003134911106183305
  0
VERTEX
  8
1
 10
273.9104373688642
 20
270.8274247781688
 30
0
 42
-0.0004288851270630541
  0
VERTEX
  8
1
 10
274.5674555983097
 20
270.812545423907
 30
0
 42
0.001263637240727512
  0
VERTEX
  8
1
 10
275.5670392684255
 20
270.7925744744707
 30
0
 42
0.0009812774421051806
  0
VERTEX
  8
1
 10
276.5673971882796
 20
270.777080910497
 30
0
 42
0.0007003385917482194
  0
VERTEX
  8
1
 10
277.5683357954376
 20
270.7649453856203
 30
0
 42
0.0004197335023373836
  0
VERTEX
  8
1
 10
278.5696615274649
 20
270.7550485534748
 30
0
 42
0.0001399970766611879
  0
VERTEX
  8
1
 10
279.5711808219267
 20
270.746271067695
 30
0
  0
SEQEND
  8
1
  0
POLYLINE
  8
1
 62
3
 66
1
  0
VERTEX
  8
1
 10
259.5711808219268
 20
273.7403114463259
 30
0
 42
-0.00148784828916523
  0
VERTEX
  8
1
 10
260.2032742163259
 20
273.7717893769452
 30
0
 42
-0.004476505034154407
  0
VERTEX
  8
1
 10
260.834781849225
 20
273.7956958059781
 30
0
 42
-0.007497884543595564
  0
VERTEX
  8
1
 10
261.4651179591241
 20
273.8044592318383
 30
0
 42
-0.01055265308886797
  0
VERTEX
  8
1
 10
262.0936967845234
 20
273.7905081529394
 30
0
 42
-0.0136082376581286
  0
VERTEX
  8
1
 10
262.7199325639228
 20
273.746271067695
 30
0
 42
-0.01778042054228281
  0
VERTEX
  8
1
 10
263.4746130350646
 20
273.6440173291498
 30
0
 42
-0.01672861272984049
  0
VERTEX
  8
1
 10
264.2225915003814
 20
273.4895298289354
 30
0
 42
-0.01573533131217099
  0
VERTEX
  8
1
 10
264.9614669575462
 20
273.2861691979936
 30
0
 42
-0.0148238959020026
  0
VERTEX
  8
1
 10
265.6888384042317
 20
273.0372960672661
 30
0
 42
-0.01400939333529064
  0
VERTEX
  8
1
 10
266.4023048381106
 20
272.746271067695
 30
0
 42
-0.00575598649189343
  0
VERTEX
  8
1
 10
266.865276999511
 20
272.5346504111637
 30
0
 42
0.0007264045254031229
  0
VERTEX
  8
1
 10
267.3251233646981
 20
272.3188374108444
 30
0
 42
0.007266235803738593
  0
VERTEX
  8
1
 10
267.7858238045805
 20
272.1115437685719
 30
0
 42
0.01402911607746306
  0
VERTEX
  8
1
 10
268.2513581900658
 20
271.9254811861815
 30
0
 42
0.02092265011944048
  0
VERTEX
  8
1
 10
268.7257063920628
 20
271.7733613655083
 30
0
 42
0.02585205553175032
  0
VERTEX
  8
1
 10
269.2717775196348
 20
271.65308331557
 30
0
 42
0.01307870543563658
  0
VERTEX
  8
1
 10
269.8296669760621
 20
271.5750615143434
 30
0
 42
0.01031549261542676
  0
VERTEX
  8
1
 10
270.3950825657845
 20
271.5228023091617
 30
0
 42
0.0004827589534816946
  0
VERTEX
  8
1
 10
270.9637320932415
 20
271.4798120473582
 30
0
 42
-0.006885535425778945
  0
VERTEX
  8
1
 10
271.5313233628727
 20
271.4295970762663
 30
0
 42
-0.008649353238127856
  0
VERTEX
  8
1
 10
272.0907556614684
 20
271.3604077189368
 30
0
 42
-0.004805729940423911
  0
VERTEX
  8
1
 10
272.6465713936869
 20
271.2764141998744
 30
0
 42
-0.0009220831189694082
  0
VERTEX
  8
1
 10
273.2004321027915
 20
271.1862100221514
 30
0
 42
0.00298010510517677
  0
VERTEX
  8
1
 10
273.753999332045
 20
271.0983886888403
 30
0
 42
0.006887240875483068
  0
VERTEX
  8
1
 10
274.3089346247107
 20
271.0215437030131
 30
0
 42
0.007194387541141365
  0
VERTEX
  8
1
 10
274.748064707101
 20
270.9732935286478
 30
0
 42
0.004252160956982568
  0
VERTEX
  8
1
 10
275.1886656072996
 20
270.9350662683577
 30
0
 42
0.004734714785724705
  0
VERTEX
  8
1
 10
275.6303269834017
 20
270.9047334190864
 30
0
 42
0.001808389311849665
  0
VERTEX
  8
1
 10
276.072638493503
 20
270.8801664777778
 30
0
 42
0.002305351000448323
  0
VERTEX
  8
1
 10
276.5151897956984
 20
270.8592369413755
 30
0
 42
3.675170171996581e-005
  0
VERTEX
  8
1
 10
277.1267790885936
 20
270.8331837048743
 30
0
 42
0.001837690898507639
  0
VERTEX
  8
1
 10
277.7381076563891
 20
270.8094371762165
 30
0
 42
0.0005865993103925693
  0
VERTEX
  8
1
 10
278.3492406803597
 20
270.7874206784412
 30
0
 42
0.0003522223079933702
  0
VERTEX
  8
1
 10
278.9602433417807
 20
270.7665575345877
 30
0
 42
0.0001173843013263756
  0
VERTEX
  8
1
 10
279.5711808219267
 20
270.746271067695
 30
0
  0
SEQEND
  8
1
  0
POLYLINE
  8
1
 62
3
 66
1
  0
VERTEX
  8
1
 10
259.5711808219268
 20
274.7403114463259
 30
0
 42
-0.00148784828916523
  0
VERTEX
  8
1
 10
260.2032742163259
 20
274.7717893769452
 30
0
 42
-0.004476505034154407
  0
VERTEX
  8
1
 10
260.834781849225
 20
274.7956958059781
 30
0
 42
-0.007497884543595564
  0
VERTEX
  8
1
 10
261.4651179591241
 20
274.8044592318383
 30
0
 42
-0.01055265308886797
  0
VERTEX
  8
1
 10
262.0936967845234
 20
274.7905081529394
 30
0
 42
-0.0136082376581286
  0
VERTEX
  8
1
 10
262.7199325639228
 20
274.746271067695
 30
0
 42
-0.01778042054228281
  0
VERTEX
  8
1
 10
263.4746130350646
 20
274.6440173291498
 30
0
 42
-0.01672861272984049
  0
VERTEX
  8
1
 10
264.2225915003814
 20
274.4895298289354
 30
0
 42
-0.01573533131224273
  0
VERTEX
  8
1
 10
264.9614669575462
 20
274.2861691979936
 30
0
 42
-0.01482389590186357
  0
VERTEX
  8
1
 10
265.6888384042317
 20
274.0372960672662
 30
0
 42
-0.01400939333522113
  0
VERTEX
  8
1
 10
266.4023048381106
 20
273.746271067695
 30
0
 42
-0.005755986491792841
  0
VERTEX
  8
1
 10
266.865276999511
 20
273.5346504111638
 30
0
 42
0.0007264045255043752
  0
VERTEX
  8
1
 10
267.3251233646981
 20
273.3188374108444
 30
0
 42
0.007266235803636614
  0
VERTEX
  8
1
 10
267.7858238045805
 20
273.1115437685718
 30
0
 42
0.01402911607766877
  0
VERTEX
  8
1
 10
268.2513581900658
 20
272.9254811861815
 30
0
 42
0.02092265011918307
  0
VERTEX
  8
1
 10
268.7257063920628
 20
272.7733613655083
 30
0
 42
0.02585205553201006
  0
VERTEX
  8
1
 10
269.2717775196348
 20
272.65308331557
 30
0
 42
0.01307870543537558
  0
VERTEX
  8
1
 10
269.8296669760621
 20
272.5750615143434
 30
0
 42
0.01031549261568847
  0
VERTEX
  8
1
 10
270.3950825657845
 20
272.5228023091617
 30
0
 42
0.0004827589534816946
  0
VERTEX
  8
1
 10
270.9637320932415
 20
272.4798120473582
 30
0
 42
-0.006885535425778945
  0
VERTEX
  8
1
 10
271.5313233628727
 20
272.4295970762663
 30
0
 42
-0.008649353238127856
  0
VERTEX
  8
1
 10
272.0907556614684
 20
272.3604077189368
 30
0
 42
-0.004805729940423911
  0
VERTEX
  8
1
 10
272.6465713936869
 20
272.2764141998744
 30
0
 42
-0.0009220831189694082
  0
VERTEX
  8
1
 10
273.2004321027915
 20
272.1862100221514
 30
0
 42
0.002980105104976373
  0
VERTEX
  8
1
 10
273.753999332045
 20
272.0983886888403
 30
0
 42
0.006887240875683418
  0
VERTEX
  8
1
 10
274.3089346247107
 20
272.0215437030131
 30
0
 42
0.007194387540940182
  0
VERTEX
  8
1
 10
274.748064707101
 20
271.9732935286478
 30
0
 42
0.004252160957184188
  0
VERTEX
  8
1
 10
275.1886656072996
 20
271.9350662683577
 30
0
 42
0.004734714785522972
  0
VERTEX
  8
1
 10
275.6303269834017
 20
271.9047334190864
 30
0
 42
0.001808389312052115
  0
VERTEX
  8
1
 10
276.072638493503
 20
271.8801664777778
 30
0
 42
0.002305351000245929
  0
VERTEX
  8
1
 10
276.5151897956984
 20
271.8592369413755
 30
0
 42
3.675170192224845e-005
  0
VERTEX
  8
1
 10
277.1267790885936
 20
271.8331837048743
 30
0
 42
0.0018376908983053
  0
VERTEX
  8
1
 10
277.7381076563891
 20
271.8094371762165
 30
0
 42
0.0005865993103925693
  0
VERTEX
  8
1
 10
278.3492406803597
 20
271.7874206784412
 30
0
 42
0.0003522223079933702
  0
VERTEX
  8
1
 10
278.9602433417807
 20
271.7665575345877
 30
0
 42
0.0001173843013263756
  0
VERTEX
  8
1
 10
279.5711808219267
 20
271.746271067695
 30
0
  0
SEQEND
  8
1
  0
POLYLINE
  8
1
 62
3
 66
1
  0
VERTEX
  8
1
 10
259.5711808219268
 20
276.246271067695
 30
0
 42
-0.002401515546312483
  0
VERTEX
  8
1
 10
260.3156578839057
 20
276.3045792482475
 30
0
 42
-0.007270061774084061
  0
VERTEX
  8
1
 10
261.057755926591
 20
276.3483103836618
 30
0
 42
-0.01231149283695376
  0
VERTEX
  8
1
 10
261.7950959306892
 20
276.3628874287999
 30
0
 42
-0.01755354876937003
  0
VERTEX
  8
1
 10
262.5252988769066
 20
276.3337333385237
 30
0
 42
-0.02286882021835347
  0
VERTEX
  8
1
 10
263.2459857459497
 20
276.246271067695
 30
0
 42
-0.02422950548626371
  0
VERTEX
  8
1
 10
264.0156588852768
 20
276.0749479246784
 30
0
 42
-0.01734588071484319
  0
VERTEX
  8
1
 10
264.7744101644141
 20
275.8384485392921
 30
0
 42
-0.01066198829465404
  0
VERTEX
  8
1
 10
265.5253296543406
 20
275.5574524474977
 30
0
 42
-0.004244675796636096
  0
VERTEX
  8
1
 10
266.2715074260348
 20
275.2526391852568
 30
0
 42
0.002052424584173355
  0
VERTEX
  8
1
 10
267.0160335504758
 20
274.9446882885308
 30
0
 42
0.006058712418373259
  0
VERTEX
  8
1
 10
267.8125753434779
 20
274.6302553660175
 30
0
 42
0.001620781604089608
  0
VERTEX
  8
1
 10
268.6102647594596
 20
274.3294458774812
 30
0
 42
0.002483729581218994
  0
VERTEX
  8
1
 10
269.4086069419773
 20
274.0358528502015
 30
0
 42
-0.000669760510894571
  0
VERTEX
  8
1
 10
270.2071070345872
 20
273.7430693114582
 30
0
 42
-0.002478661273250833
  0
VERTEX
  8
1
 10
271.0052701808457
 20
273.4446882885308
 30
0
 42
-0.001095647322331596
  0
VERTEX
  8
1
 10
271.6826147542279
 20
273.1845624930726
 30
0
 42
0.002424872975911339
  0
VERTEX
  8
1
 10
272.361290717192
 20
272.9259948890907
 30
0
 42
0.005958294520688206
  0
VERTEX
  8
1
 10
273.0432289617824
 20
272.6791956003654
 30
0
 42
0.009559540633506156
  0
VERTEX
  8
1
 10
273.7303603800435
 20
272.4543747506771
 30
0
 42
0.01321742970665671
  0
VERTEX
  8
1
 10
274.4246158640197
 20
272.2617424638061
 30
0
 42
0.02072492854076867
  0
VERTEX
  8
1
 10
275.4317236247975
 20
272.0546750190898
 30
0
 42
0.01367359041637083
  0
VERTEX
  8
1
 10
276.4536348727777
 20
271.9169230180363
 30
0
 42
0.01190594914397002
  0
VERTEX
  8
1
 10
277.4866487361597
 20
271.8311575997297
 30
0
 42
0.004970428984544774
  0
VERTEX
  8
1
 10
278.5270643431429
 20
271.7800499032545
 30
0
 42
0.003400932166041645
  0
VERTEX
  8
1
 10
279.5711808219267
 20
271.746271067695
 30
0
  0
SEQEND
  8
1
  0
POLYLINE
  8
1
 62
3
 66
1
  0
VERTEX
  8
1
 10
259.5711808219268
 20
277.246271067695
 30
0
 42
-0.002401515546160825
  0
VERTEX
  8
1
 10
260.3156578839057
 20
277.3045792482475
 30
0
 42
-0.007270061773854899
  0
VERTEX
  8
1
 10
261.057755926591
 20
277.3483103836618
 30
0
 42
-0.01231149283687648
  0
VERTEX
  8
1
 10
261.7950959306892
 20
277.3628874287999
 30
0
 42
-0.01755354876929229
  0
VERTEX
  8
1
 10
262.5252988769066
 20
277.3337333385238
 30
0
 42
-0.02286882021827616
  0
VERTEX
  8
1
 10
263.2459857459497
 20
277.246271067695
 30
0
 42
-0.02422950548640434
  0
VERTEX
  8
1
 10
264.0156588852768
 20
277.0749479246784
 30
0
 42
-0.01734588071484319
  0
VERTEX
  8
1
 10
264.7744101644141
 20
276.8384485392921
 30
0
 42
-0.01066198829465404
  0
VERTEX
  8
1
 10
265.5253296543406
 20
276.5574524474977
 30
0
 42
-0.00424467579650531
  0
VERTEX
  8
1
 10
266.2715074260348
 20
276.2526391852568
 30
0
 42
0.002052424584173355
  0
VERTEX
  8
1
 10
267.0160335504758
 20
275.9446882885308
 30
0
 42
0.006058712418373259
  0
VERTEX
  8
1
 10
267.8125753434779
 20
275.6302553660175
 30
0
 42
0.001620781604089608
  0
VERTEX
  8
1
 10
268.6102647594596
 20
275.3294458774812
 30
0
 42
0.00248372958118763
  0
VERTEX
  8
1
 10
269.4086069419773
 20
275.0358528502015
 30
0
 42
-0.0006697605109574097
  0
VERTEX
  8
1
 10
270.2071070345872
 20
274.7430693114582
 30
0
 42
-0.002478661273250833
  0
VERTEX
  8
1
 10
271.0052701808457
 20
274.4446882885308
 30
0
 42
-0.001095647322331596
  0
VERTEX
  8
1
 10
271.6826147542279
 20
274.1845624930726
 30
0
 42
0.002424872975691736
  0
VERTEX
  8
1
 10
272.361290717192
 20
273.9259948890906
 30
0
 42
0.005958294520981482
  0
VERTEX
  8
1
 10
273.0432289617824
 20
273.6791956003654
 30
0
 42
0.009559540633176721
  0
VERTEX
  8
1
 10
273.7303603800435
 20
273.4543747506771
 30
0
 42
0.01321742970698656
  0
VERTEX
  8
1
 10
274.4246158640197
 20
273.2617424638061
 30
0
 42
0.02072492854043846
  0
VERTEX
  8
1
 10
275.4317236247975
 20
273.0546750190898
 30
0
 42
0.01367359041669986
  0
VERTEX
  8
1
 10
276.4536348727777
 20
272.9169230180363
 30
0
 42
0.01190594914364013
  0
VERTEX
  8
1
 10
277.4866487361597
 20
272.8311575997297
 30
0
 42
0.004970428984874573
  0
VERTEX
  8
1
 10
278.5270643431429
 20
272.7800499032545
 30
0
 42
0.003400932165712294
  0
VERTEX
  8
1
 10
279.5711808219267
 20
272.746271067695
 30
0
  0
SEQEND
  8
1
  0
POLYLINE
  8
1
 62
3
 66
1
  0
VERTEX
  8
1
 10
259.5711808219268
 20
278.746271067695
 30
0
 42
-0.001282843573409955
  0
VERTEX
  8
1
 10
260.4804863592208
 20
278.642544727488
 30
0
 42
-0.003855547891145103
  0
VERTEX
  8
1
 10
261.3878516353029
 20
278.5295863111915
 30
0
 42
-0.006445299873558997
  0
VERTEX
  8
1
 10
262.2913363889612
 20
278.3981637427156
 30
0
 42
-0.009049879607973023
  0
VERTEX
  8
1
 10
263.1890003589838
 20
278.2390449459709
 30
0
 42
-0.01164617623649444
  0
VERTEX
  8
1
 10
264.0789032841587
 20
278.0429978448677
 30
0
 42
-0.008743508454643299
  0
VERTEX
  8
1
 10
264.6952556806212
 20
277.8799145668037
 30
0
 42
-0.008173065875571393
  0
VERTEX
  8
1
 10
265.30639081597
 20
277.6958831244036
 30
0
 42
-0.007621914706861268
  0
VERTEX
  8
1
 10
265.911830332753
 20
277.49250382202
 30
0
 42
-0.007091699758012065
  0
VERTEX
  8
1
 10
266.5110958735179
 20
277.2713769640058
 30
0
 42
-0.006583037128315209
  0
VERTEX
  8
1
 10
267.1037090808127
 20
277.0341028547133
 30
0
 42
-0.008713060780432692
  0
VERTEX
  8
1
 10
268.0625026471416
 20
276.6146505403029
 30
0
 42
-0.005295441891725836
  0
VERTEX
  8
1
 10
269.0087099588429
 20
276.1687083114247
 30
0
 42
-0.001863754328461822
  0
VERTEX
  8
1
 10
269.948968351204
 20
275.7090032867503
 30
0
 42
0.00156229224464198
  0
VERTEX
  8
1
 10
270.8899151595122
 20
275.2482625849514
 30
0
 42
0.004976995968757988
  0
VERTEX
  8
1
 10
271.8381877190547
 20
274.7992133246995
 30
0
 42
0.00669609514417381
  0
VERTEX
  8
1
 10
272.6417709796446
 20
274.4414011185858
 30
0
 42
0.007803666421407262
  0
VERTEX
  8
1
 10
273.455387321677
 20
274.1070407643982
 30
0
 42
0.0101129658890167
  0
VERTEX
  8
1
 10
274.2792870260022
 20
273.8024760122829
 30
0
 42
0.01131361176744108
  0
VERTEX
  8
1
 10
275.1137203734704
 20
273.5340506123862
 30
0
 42
0.02500283413414763
  0
VERTEX
  8
1
 10
276.6721718942717
 20
273.1549667928475
 30
0
 42
0.007638934575827718
  0
VERTEX
  8
1
 10
277.391549067651
 20
273.0290079858908
 30
0
 42
0.006629896808450169
  0
VERTEX
  8
1
 10
278.1155334340598
 20
272.9234362152214
 30
0
 42
0.002849043767503563
  0
VERTEX
  8
1
 10
278.8425892624883
 20
272.831455802077
 30
0
 42
0.001877809742518583
  0
VERTEX
  8
1
 10
279.5711808219267
 20
272.746271067695
 30
0
  0
SEQEND
  8
1
  0
POLYLINE
  8
1
 62
3
 66
1
  0
VERTEX
  8
1
 10
259.5711808219268
 20
279.746271067695
 30
0
 42
-0.001282843573286498
  0
VERTEX
  8
1
 10
260.4804863592208
 20
279.642544727488
 30
0
 42
-0.003855547891021867
  0
VERTEX
  8
1
 10
261.3878516353029
 20
279.5295863111915
 30
0
 42
-0.006445299873558997
  0
VERTEX
  8
1
 10
262.2913363889612
 20
279.3981637427156
 30
0
 42
-0.009049879607912178
  0
VERTEX
  8
1
 10
263.1890003589838
 20
279.2390449459709
 30
0
 42
-0.01164617623643359
  0
VERTEX
  8
1
 10
264.0789032841587
 20
279.0429978448677
 30
0
 42
-0.008743508454556917
  0
VERTEX
  8
1
 10
264.6952556806212
 20
278.8799145668038
 30
0
 42
-0.008173065875655998
  0
VERTEX
  8
1
 10
265.30639081597
 20
278.6958831244036
 30
0
 42
-0.007621914706777553
  0
VERTEX
  8
1
 10
265.911830332753
 20
278.4925038220201
 30
0
 42
-0.007091699757929016
  0
VERTEX
  8
1
 10
266.5110958735179
 20
278.2713769640058
 30
0
 42
-0.006583037128315209
  0
VERTEX
  8
1
 10
267.1037090808127
 20
278.0341028547133
 30
0
 42
-0.008713060780432692
  0
VERTEX
  8
1
 10
268.0625026471416
 20
277.6146505403029
 30
0
 42
-0.005295441891725836
  0
VERTEX
  8
1
 10
269.0087099588429
 20
277.1687083114247
 30
0
 42
-0.001863754328461822
  0
VERTEX
  8
1
 10
269.948968351204
 20
276.7090032867503
 30
0
 42
0.00156229224464198
  0
VERTEX
  8
1
 10
270.8899151595122
 20
276.2482625849514
 30
0
 42
0.004976995968757988
  0
VERTEX
  8
1
 10
271.8381877190547
 20
275.7992133246995
 30
0
 42
0.00669609514417381
  0
VERTEX
  8
1
 10
272.6417709796446
 20
275.4414011185858
 30
0
 42
0.007803666421407262
  0
VERTEX
  8
1
 10
273.455387321677
 20
275.1070407643982
 30
0
 42
0.0101129658890167
  0
VERTEX
  8
1
 10
274.2792870260022
 20
274.8024760122829
 30
0
 42
0.01131361176744108
  0
VERTEX
  8
1
 10
275.1137203734704
 20
274.5340506123862
 30
0
 42
0.02500283413414763
  0
VERTEX
  8
1
 10
276.6721718942717
 20
274.1549667928475
 30
0
 42
0.007638934575827718
  0
VERTEX
  8
1
 10
277.391549067651
 20
274.0290079858908
 30
0
 42
0.006629896808450169
  0
VERTEX
  8
1
 10
278.1155334340598
 20
273.9234362152214
 30
0
 42
0.002849043767503563
  0
VERTEX
  8
1
 10
278.8425892624883
 20
273.831455802077
 30
0
 42
0.001877809742518583
  0
VERTEX
  8
1
 10
279.5711808219267
 20
273.746271067695
 30
0
  0
SEQEND
  8
1
  0
POLYLINE
  8
1
 62
3
 66
1
  0
VERTEX
  8
1
 10
297.240125839936
 20
273.746271067695
 30
0
 42
0.006401683006023363
  0
VERTEX
  8
1
 10
296.7445444517297
 20
272.9221408986787
 30
0
 42
0.02019686451646017
  0
VERTEX
  8
1
 10
296.3100581623823
 20
272.1040432719165
 30
0
 42
0.03911197960768611
  0
VERTEX
  8
1
 10
295.9977620707529
 20
271.2980107296625
 30
0
 42
0.06467125169445198
  0
VERTEX
  8
1
 10
295.8687512757005
 20
270.5100758141705
 30
0
 42
0.09177780810714745
  0
VERTEX
  8
1
 10
295.9841208760839
 20
269.746271067695
 30
0
 42
0.06213484501136299
  0
VERTEX
  8
1
 10
296.2810608835968
 20
269.1424883538589
 30
0
 42
0.01032167272021372
  0
VERTEX
  8
1
 10
296.6881859412742
 20
268.5497112250588
 30
0
 42
-0.008968366807579321
  0
VERTEX
  8
1
 10
297.1119159333014
 20
267.9588254531768
 30
0
 42
-0.04086910226534949
  0
VERTEX
  8
1
 10
297.4586707438639
 20
267.3607168100949
 30
0
 42
-0.08398492570934266
  0
VERTEX
  8
1
 10
297.634870257147
 20
266.746271067695
 30
0
 42
-0.05745879019286405
  0
VERTEX
  8
1
 10
297.6250930567142
 20
266.3577772525788
 30
0
 42
-0.04092577827213732
  0
VERTEX
  8
1
 10
297.5357079352392
 20
265.9616126475401
 30
0
 42
-0.02623680826011725
  0
VERTEX
  8
1
 10
297.3866168729824
 20
265.5596949500595
 30
0
 42
-0.01444012508566484
  0
VERTEX
  8
1
 10
297.1977218502045
 20
265.1539418576175
 30
0
 42
-0.004595698193192097
  0
VERTEX
  8
1
 10
296.988924847166
 20
264.746271067695
 30
0
  0
SEQEND
  8
1
  0
POLYLINE
  8
1
 62
3
 66
1
  0
VERTEX
  8
1
 10
298.1013863865769
 20
273.746271067695
 30
0
 42
0.005610045220763737
  0
VERTEX
  8
1
 10
297.6222219129254
 20
273.144742330818
 30
0
 42
0.01766205651879172
  0
VERTEX
  8
1
 10
297.1874882598557
 20
272.5435957781601
 30
0
 42
0.03408297587032216
  0
VERTEX
  8
1
 10
296.8416162479495
 20
271.9432135939409
 30
0
 42
0.05686596115258061
  0
VERTEX
  8
1
 10
296.6290366977887
 20
271.3439779623794
 30
0
 42
0.08472232245193524
  0
VERTEX
  8
1
 10
296.5941804299549
 20
270.746271067695
 30
0
 42
0.1038365951311159
  0
VERTEX
  8
1
 10
296.8545888219855
 20
269.9544264908896
 30
0
 42
0.01466668619469926
  0
VERTEX
  8
1
 10
297.3446428756159
 20
269.1622295378435
 30
0
 42
0.0136340814959304
  0
VERTEX
  8
1
 10
297.9018649418362
 20
268.3659548732002
 30
0
 42
-0.04258924877931801
  0
VERTEX
  8
1
 10
298.3637773716368
 20
267.561877161603
 30
0
 42
-0.09880128485634478
  0
VERTEX
  8
1
 10
298.5679025160079
 20
266.746271067695
 30
0
 42
-0.05425642054196173
  0
VERTEX
  8
1
 10
298.5329705911525
 20
266.3504736731204
 30
0
 42
-0.03886192777683663
  0
VERTEX
  8
1
 10
298.4208462190925
 20
265.9518745415955
 30
0
 42
-0.02511887737130828
  0
VERTEX
  8
1
 10
298.2508275116292
 20
265.5511741073579
 30
0
 42
-0.01391435860736973
  0
VERTEX
  8
1
 10
298.0422125805636
 20
265.1490728046452
 30
0
 42
-0.004443253589491103
  0
VERTEX
  8
1
 10
297.8142995376969
 20
264.746271067695
 30
0
  0
SEQEND
  8
1
  0
ARC
  8
1
 62
3
 10
387.5357770249559
 20
195.8477413329838
 30
0
 40
7
 50
90
 51
180
  0
ARC
  8
1
 62
3
 10
453.5357770249559
 20
195.8477413329838
 30
0
 40
7
 50
0
 51
90
  0
ARC
  8
1
 62
3
 10
453.5357770249559
 20
129.8477413329838
 30
0
 40
6.999999999999986
 50
270
 51
0
  0
ARC
  8
1
 62
3
 10
387.5357770249559
 20
129.8477413329838
 30
0
 40
7
 50
180
 51
270
  0
ARC
  8
1
 62
3
 10
307.1433336913502
 20
25.60847122308529
 30
0
 40
0.5000000000005116
 50
90
 51
180
  0
ARC
  8
1
 62
3
 10
307.1433336913502
 20
88.60847122308591
 30
0
 40
0.5
 50
180
 51
270
  0
ARC
  8
1
 62
3
 10
329.3430336913499
 20
28.30847122308562
 30
0
 40
2.200000000000017
 50
270
 51
0
  0
ARC
  8
1
 62
3
 10
329.3430336913499
 20
85.90847122308561
 30
0
 40
2.20000000000033
 50
0
 51
90
  0
ARC
  8
1
 62
3
 10
441.6351632522225
 20
139.2106930745501
 30
0
 40
0.8000000000001251
 50
180
 51
311.5783115319667
  0
ARC
  8
1
 62
3
 10
399.4351632522224
 20
139.1901844007898
 30
0
 40
0.8000000000001387
 50
228.2704652751598
 51
0
  0
ARC
  8
1
 62
3
 10
414.0351632522224
 20
193.4653833061992
 30
0
 40
0.799999999999969
 50
349.2722664569498
 51
0
  0
ARC
  8
1
 62
3
 10
414.0351632522224
 20
193.8741816702187
 30
0
 40
0.8000000000000114
 50
0
 51
101.8322690484973
  0
ARC
  8
1
 62
3
 10
427.0351632522224
 20
193.8741816702187
 30
0
 40
0.8000000000000895
 50
78.16773095150271
 51
180
  0
ARC
  8
1
 62
3
 10
438.8351632522224
 20
131.347754898432
 30
0
 40
2.000000000000125
 50
306.869897645845
 51
0
  0
ARC
  8
1
 62
3
 10
391.5351632522223
 20
133.8477413329835
 30
0
 40
3
 50
0
 51
90
  0
ARC
  8
1
 62
3
 10
391.5351632522223
 20
191.8477413329839
 30
0
 40
3
 50
270
 51
0
  0
ARC
  8
1
 62
3
 10
449.5351632522225
 20
133.8477413329835
 30
0
 40
3
 50
90
 51
180
  0
ARC
  8
1
 62
3
 10
449.5351632522225
 20
191.8477413329839
 30
0
 40
3
 50
180
 51
270
  0
ARC
  8
1
 62
3
 10
384.0351632522223
 20
187.3477413329839
 30
0
 40
1.5
 50
90
 51
180
  0
ARC
  8
1
 62
3
 10
396.0351632522223
 20
199.3477413329839
 30
0
 40
1.5
 50
90
 51
180
  0
ARC
  8
1
 62
3
 10
445.0351632522225
 20
199.3477413329839
 30
0
 40
1.5
 50
0
 51
90
  0
ARC
  8
1
 62
3
 10
457.0351632522225
 20
187.3477413329839
 30
0
 40
1.5
 50
0
 51
90
  0
ARC
  8
1
 62
3
 10
457.0351632522225
 20
138.3477413329835
 30
0
 40
1.5
 50
270
 51
0
  0
ARC
  8
1
 62
3
 10
384.0351632522223
 20
138.3477413329835
 30
0
 40
1.5
 50
180
 51
270
  0
ARC
  8
1
 62
3
 10
396.0351632522223
 20
124.5977413329833
 30
0
 40
1.5
 50
180
 51
270
  0
ARC
  8
1
 62
3
 10
445.0351632522225
 20
124.5977413329833
 30
0
 40
1.5
 50
270
 51
0
  0
ARC
  8
1
 62
3
 10
402.2351632522224
 20
131.3477548984324
 30
0
 40
2
 50
180
 51
233.1301023541607
  0
ARC
  8
1
 62
3
 10
439.0351632522215
 20
123.8477413329839
 30
0
 40
1.000000000001094
 50
270
 51
0
  0
ARC
  8
1
 62
3
 10
402.0351632522224
 20
123.8477413329839
 30
0
 40
0.9999999999998863
 50
180
 51
270
  0
ARC
  8
1
 62
3
 10
425.4251632522225
 20
194.8377413329839
 30
0
 40
0.009999999999990905
 50
0
 51
90
  0
ARC
  8
1
 62
3
 10
415.6451632522226
 20
194.8377413329839
 30
0
 40
0.009999999999990905
 50
90
 51
180
  0
ARC
  8
1
 62
3
 10
438.1985595221711
 20
126.3641958483588
 30
0
 40
0.03120000000006718
 50
45.00000000005536
 51
97.45844905620898
  0
ARC
  8
1
 62
3
 10
438.0717638869365
 20
126.3641958483588
 30
0
 40
0.03120000000018737
 50
82.54155094368751
 51
134.9999999997232
  0
ARC
  8
1
 62
3
 10
438.6194294783334
 20
126.9118614397557
 30
0
 40
0.03120000000012747
 50
135.0000000002768
 51
187.4584490560775
  0
ARC
  8
1
 62
3
 10
438.6194294783334
 20
126.7850658045211
 30
0
 40
0.03120000000007214
 50
172.5415509438967
 51
224.9999999998524
  0
ARC
  8
1
 62
3
 10
438.0717638869365
 20
127.332731395918
 30
0
 40
0.03119999999995665
 50
225.0000000002952
 51
277.4584490563091
  0
ARC
  8
1
 62
3
 10
438.1985595221711
 20
127.332731395918
 30
0
 40
0.03120000000019408
 50
262.5415509437944
 51
314.9999999996309
  0
ARC
  8
1
 62
3
 10
437.6508939307743
 20
126.7850658045211
 30
0
 40
0.03119999999995665
 50
314.9999999997047
 51
7.458449056157512
  0
ARC
  8
1
 62
3
 10
437.6508939307743
 20
126.9118614397557
 30
0
 40
0.03119999999984484
 50
352.5415509438684
 51
45.00000000016608
  0
ARC
  8
1
 62
3
 10
402.9985626175086
 20
126.3641958483588
 30
0
 40
0.03120000000002699
 50
45.00000000012917
 51
97.45844905600197
  0
ARC
  8
1
 62
3
 10
402.871766982274
 20
126.3641958483588
 30
0
 40
0.03120000000019475
 50
82.54155094358401
 51
134.9999999998708
  0
ARC
  8
1
 62
3
 10
403.4194325736708
 20
126.9118614397557
 30
0
 40
0.03120000000004709
 50
135.0000000001292
 51
187.4584490561046
  0
ARC
  8
1
 62
3
 10
403.4194325736708
 20
126.7850658045211
 30
0
 40
0.03119999999995941
 50
172.5415509438696
 51
225
  0
ARC
  8
1
 62
3
 10
402.871766982274
 20
127.332731395918
 30
0
 40
0.03120000000003704
 50
225.0000000001477
 51
277.4584490564126
  0
ARC
  8
1
 62
3
 10
402.9985626175086
 20
127.332731395918
 30
0
 40
0.03120000000017933
 50
262.5415509440014
 51
314.9999999997786
  0
ARC
  8
1
 62
3
 10
402.4508970261119
 20
126.7850658045211
 30
0
 40
0.03119999999991645
 50
314.9999999996309
 51
7.458449056171063
  0
ARC
  8
1
 62
3
 10
402.4508970261119
 20
126.9118614397557
 30
0
 40
0.03119999999978848
 50
352.5415509438549
 51
45.00000000023989
  0
ARC
  8
1
 62
3
 10
427.0351632522224
 20
193.4653833061992
 30
0
 40
0.8000000000000114
 50
180
 51
190.7103357656778
  0
ARC
  8
1
 62
3
 10
433.223446035231
 20
175.6204673326569
 30
0
 40
1
 50
270
 51
0
  0
ARC
  8
1
 62
3
 10
433.223446035231
 20
185.6204673326569
 30
0
 40
1
 50
0
 51
90
  0
ARC
  8
1
 62
3
 10
407.2234460352311
 20
185.6204673326569
 30
0
 40
1
 50
90
 51
180
  0
ARC
  8
1
 62
3
 10
407.2234460352311
 20
175.6204673326569
 30
0
 40
1
 50
180
 51
270
  0
ARC
  8
1
 62
3
 10
307.1433336913502
 20
194.3477413329841
 30
0
 40
0.5
 50
180
 51
270
  0
ARC
  8
1
 62
3
 10
329.3430336913499
 20
134.0477413329838
 30
0
 40
2.200000000000017
 50
270
 51
0
  0
ARC
  8
1
 62
3
 10
329.3430336913499
 20
191.6477413329838
 30
0
 40
2.20000000000033
 50
0
 51
90
  0
ARC
  8
1
 62
3
 10
305.0230413262415
 20
122.9991213132887
 30
0
 40
0.2999999999998977
 50
180
 51
270
  0
ARC
  8
1
 62
3
 10
305.0630413262416
 20
122.9991213132885
 30
0
 40
0.2999999999999972
 50
270
 51
0
  0
ARC
  8
1
 62
3
 10
194.9068513433588
 20
195.8477413329838
 30
0
 40
7
 50
0
 51
90
  0
ARC
  8
1
 62
3
 10
128.9068513433588
 20
195.8477413329838
 30
0
 40
7
 50
90
 51
180
  0
ARC
  8
1
 62
3
 10
194.9068513433588
 20
129.8477413329838
 30
0
 40
6.999999999999986
 50
270
 51
0
  0
ARC
  8
1
 62
3
 10
128.9068513433588
 20
129.8477413329838
 30
0
 40
7
 50
180
 51
270
  0
ARC
  8
1
 62
3
 10
160.0968513433588
 20
157.8455019857491
 30
0
 40
0.6899999999999977
 50
90
 51
180
  0
ARC
  8
1
 62
3
 10
160.0968513433588
 20
157.8377413329838
 30
0
 40
0.6899999999999977
 50
180
 51
270
  0
ARC
  8
1
 62
3
 10
163.7168513433588
 20
157.8455019857491
 30
0
 40
0.6899999999999977
 50
0
 51
90
  0
ARC
  8
1
 62
3
 10
163.7168513433588
 20
157.8377413329838
 30
0
 40
0.6899999999999977
 50
270
 51
0
  0
ARC
  8
1
 62
3
 10
160.0768513433587
 20
157.8177413329838
 30
0
 40
1.669999999999902
 50
180
 51
270
  0
ARC
  8
1
 62
3
 10
163.7368513433588
 20
157.8177413329838
 30
0
 40
1.669999999999988
 50
270
 51
0
  0
ARC
  8
1
 62
3
 10
307.1433336913502
 20
131.347741332984
 30
0
 40
0.5
 50
90
 51
156.4218215218481
  0
TEXT
  8
1
 62
2
 10
285.8085771246736
 20
238.991713154447
 30
0
 40
4
  1
付属ケーブル
 41
0.9
  0
TEXT
  8
1
 62
2
 10
350.6688310935919
 20
284.1079891693679
 30
0
 40
3.200000000000001
  1
1
 50
90
 41
0.9
  0
TEXT
  8
1
 62
2
 10
350.7239254475957
 20
252.2010715854789
 30
0
 40
3.199999999999999
  1
11
 50
90
 41
0.9
  0
TEXT
  8
1
 62
2
 10
248.6934501656758
 20
254.4350558769123
 30
0
 40
3.200000000000001
  1
9
 50
90
 41
0.9
  0
TEXT
  8
1
 62
2
 10
248.1348911117847
 20
282.8219259508416
 30
0
 40
3.200000000000001
  1
1
 50
90
 41
0.9
  0
TEXT
  8
1
 62
2
 10
277.9613416081853
 20
-5.835732084724015
 30
0
 40
5
  1
FY8S15-D3
 41
0.9
  0
INSERT
  8
0
  2
1
 10
292.9246838849339
 20
34.40485020229473
 30
0
  0
ENDSEC
  0
EOF
