  0
SECTION
  2
HEADER
  9
$ACADVER
  1
AC1009
  9
$INSBASE
 10
0
 20
0
  9
$EXTMIN
 10
125.3057920024573
 20
-11.75341075729054
  9
$EXTMAX
 10
478.1075897055308
 20
297.2442894971129
  9
$LIMMIN
 10
125.3057920024573
 20
-11.75341075729054
  9
$LIMMAX
 10
478.1075897055308
 20
297.2442894971129
  9
$VIEWCTR
 10
10
 20
10
  9
$VIEWSIZE
 40
10
  9
$SNAPMODE
 70
0
  9
$SNAPUNIT
 10
1
 20
1
  9
$SNAPBASE
 10
0
 20
0
  9
$SNAPANG
 50
0
  9
$SNAPSTYLE
 70
0
  9
$SNAPISOPAIR
 70
0
  9
$GRIDMODE
 70
0
  9
$GRIDUNIT
 10
0
 20
0
  9
$ORTHOMODE
 70
0
  9
$REGENMODE
 70
1
  9
$FILLMODE
 70
1
  9
$QTEXTMODE
 70
0
  9
$DRAGMODE
 70
2
  9
$LTSCALE
 40
1
  9
$OSMODE
 70
0
  9
$ATTMODE
 70
1
  9
$TEXTSIZE
 40
3.5
  9
$TRACEWID
 40
0.5
  9
$TEXTSTYLE
  7
STANDARD
  9
$CLAYER
  8
0
  9
$CELTYPE
  6
BYLAYER
  9
$CECOLOR
 62
256
  9
$DIMSCALE
 40
1
  9
$DIMASZ
 40
0.18
  9
$DIMEXO
 40
0.0625
  9
$DIMDLI
 40
0.38
  9
$DIMRND
 40
0
  9
$DIMDLE
 40
0
  9
$DIMEXE
 40
0.18
  9
$DIMTP
 40
0
  9
$DIMTM
 40
0
  9
$DIMTXT
 40
0.18
  9
$DIMCEN
 40
0.09
  9
$DIMTSZ
 40
0
  9
$DIMTOL
 70
0
  9
$DIMLIM
 70
0
  9
$DIMTIH
 70
1
  9
$DIMTOH
 70
1
  9
$DIMSE1
 70
0
  9
$DIMSE2
 70
0
  9
$DIMTAD
 70
0
  9
$DIMZIN
 70
0
  9
$DIMBLK
  1

  9
$DIMASO
 70
1
  9
$DIMSHO
 70
1
  9
$DIMPOST
  1

  9
$DIMAPOST
  1

  9
$DIMALT
 70
0
  9
$DIMALTD
 70
2
  9
$DIMALTF
 40
25.4
  9
$DIMLFAC
 40
1
  9
$DIMTOFL
 70
0
  9
$DIMTVP
 40
0
  9
$DIMTIX
 70
0
  9
$DIMSOXD
 70
0
  9
$DIMSAH
 70
0
  9
$DIMBLK1
  1

  9
$DIMBLK2
  1

  9
$DIMSTYLE
  2
*UNNAMED
  9
$DIMCLRD
 70
0
  9
$DIMCLRE
 70
0
  9
$DIMCLRT
 70
0
  9
$DIMTFAC
 40
1
  9
$DIMGAP
 40
0.09
  9
$LUNITS
 70
2
  9
$LUPREC
 70
4
  9
$AXISMODE
 70
0
  9
$AXISUNIT
 10
0
 20
0
  9
$SKETCHINC
 40
0.1
  9
$FILLETRAD
 40
2
  9
$AUNITS
 70
0
  9
$AUPREC
 70
0
  9
$MENU
  1
ACAD
  9
$ELEVATION
 40
0
  9
$THICKNESS
 40
0
  9
$VIEWDIR
 10
0
 20
0
 30
1
  9
$LIMCHECK
 70
0
  9
$BLIPMODE
 70
1
  9
$CHAMFERA
 40
0
  9
$CHAMFERB
 40
0
  9
$FASTZOOM
 70
1
  9
$SKPOLY
 70
0
  9
$ANGBASE
 50
0
  9
$ANGDIR
 70
0
  9
$PDMODE
 70
0
  9
$PDSIZE
 40
0
  9
$PLINEWID
 40
0
  9
$COORDS
 70
2
  0
ENDSEC
  0
SECTION
  2
TABLES
  0
TABLE
  2
DIMSTYLE
 70
0
  0
ENDTAB
  0
TABLE
  2
LTYPE
 70
9
  0
LTYPE
  2
CONTINUOUS
 70
64
  3
Solid line
 72
65
 73
0
 40
0
  0
LTYPE
  2
BORDER
 70
64
  3
__ __ . __ __ .
 72
65
 73
6
 40
16.24745121000997
 49
4.642128917145705
 49
-2.321064458572852
 49
4.642128917145705
 49
-2.321064458572852
 49
0
 49
-2.321064458572852
  0
LTYPE
  2
CENTER
 70
64
  3
____ _ ____ _
 72
65
 73
4
 40
18.56851566858282
 49
11.60532229286426
 49
-2.321064458572852
 49
2.321064458572852
 49
-2.321064458572852
  0
LTYPE
  2
DASHDOT
 70
64
  3
__ . __ . __ .
 72
65
 73
4
 40
9.28425783429141
 49
4.642128917145705
 49
-2.321064458572852
 49
0
 49
-2.321064458572852
  0
LTYPE
  2
DASHED
 70
64
  3
__ __ __ __ __
 72
65
 73
2
 40
6.963193375718557
 49
4.642128917145705
 49
-2.321064458572852
  0
LTYPE
  2
DIVIDE
 70
64
  3
__ . . __ . . 
 72
65
 73
6
 40
11.60532229286426
 49
4.642128917145705
 49
-2.321064458572852
 49
0
 49
-2.321064458572852
 49
0
 49
-2.321064458572852
  0
LTYPE
  2
DOT
 70
64
  3
..............
 72
65
 73
4
 40
4.642128917145705
 49
0
 49
-2.321064458572852
 49
0
 49
-2.321064458572852
  0
LTYPE
  2
HIDDEN
 70
64
  3
_ _ _ _ _ _ _
 72
65
 73
2
 40
3.481596687859279
 49
2.321064458572852
 49
-1.160532229286426
  0
LTYPE
  2
PHANTOM
 70
64
  3
_____ _ _ _____ _ _ 
 72
65
 73
6
 40
23.21064458572852
 49
11.60532229286426
 49
-2.321064458572852
 49
2.321064458572852
 49
-2.321064458572852
 49
2.321064458572852
 49
-2.321064458572852
  0
ENDTAB
  0
TABLE
  2
LAYER
 70
4
  0
LAYER
  2
1
 70
0
 62
7
  6
CONTINUOUS
  0
LAYER
  2
2
 70
0
 62
7
  6
CONTINUOUS
  0
LAYER
  2
0
 70
0
 62
7
  6
CONTINUOUS
  0
ENDTAB
  0
TABLE
  2
STYLE
 70
4
  0
STYLE
  2
STANDARD
 70
0
 40
0
 41
1
 50
0
 71
0
 42
3.5
  3
txt
  4

  0
STYLE
  2
SIMPLEX
 70
0
 40
0
 41
1
 50
0
 71
0
 42
3.5
  3
simplex
  4

  0
STYLE
  2
COMPLEX
 70
0
 40
0
 41
1
 50
0
 71
0
 42
3.5
  3
complex
  4

  0
STYLE
  2
ITALIC
 70
0
 40
0
 41
1
 50
0
 71
0
 42
3.5
  3
italic
  4

  0
ENDTAB
  0
TABLE
  2
VIEW
 70
0
  0
ENDTAB
  0
ENDSEC
  0
SECTION
  2
BLOCKS
  0
ENDSEC
  0
SECTION
  2
ENTITIES
  0
LINE
  8
1
 62
2
 10
283.1844855756772
 20
56.03336988345377
 30
0
 11
279.1430336913499
 21
63.03336988345377
 31
0
  0
LINE
  8
1
 62
2
 10
282.1844855756772
 20
56.03336988345377
 30
0
 11
278.1430336913499
 21
63.03336988345377
 31
0
  0
LINE
  8
1
 62
2
 10
281.1844855756772
 20
56.03336988345377
 30
0
 11
277.1430336913499
 21
63.03336988345377
 31
0
  0
LINE
  8
2
 62
1
  6
CENTER
 10
273.9066336913499
 20
56.63336988345374
 30
0
 11
284.5430336913499
 21
56.63336988345374
 31
0
  0
LINE
  8
2
 62
1
  6
CENTER
 10
273.9975336913498
 20
62.43336988345375
 30
0
 11
284.4975336913498
 21
62.43336988345375
 31
0
  0
LINE
  8
1
 62
3
 10
275.5430336913499
 20
56.03336988345377
 30
0
 11
284.5430336913499
 21
56.03336988345377
 31
0
  0
LINE
  8
1
 62
3
 10
275.5430336913499
 20
63.03336988345377
 30
0
 11
284.5430336913499
 21
63.0333698834536
 31
0
  0
LINE
  8
1
 62
3
 10
275.5430336913499
 20
56.03336988345377
 30
0
 11
275.5430336913499
 21
63.03336988345377
 31
0
  0
LINE
  8
1
 62
2
 10
283.1844855756772
 20
159.3477413329838
 30
0
 11
279.1430336913499
 21
166.3477413329838
 31
0
  0
LINE
  8
1
 62
2
 10
282.1844855756772
 20
159.3477413329838
 30
0
 11
278.1430336913499
 21
166.3477413329838
 31
0
  0
LINE
  8
1
 62
2
 10
281.1844855756772
 20
159.3477413329838
 30
0
 11
277.1430336913499
 21
166.3477413329838
 31
0
  0
LINE
  8
2
 62
1
  6
CENTER
 10
273.9066336913499
 20
159.9477413329838
 30
0
 11
284.5430336913499
 21
159.9477413329838
 31
0
  0
LINE
  8
2
 62
1
  6
CENTER
 10
273.9975336913498
 20
165.7477413329838
 30
0
 11
284.4975336913498
 21
165.7477413329838
 31
0
  0
LINE
  8
1
 62
3
 10
275.5430336913499
 20
159.3477413329838
 30
0
 11
284.5430336913499
 21
159.3477413329838
 31
0
  0
LINE
  8
1
 62
3
 10
275.5430336913499
 20
166.3477413329838
 30
0
 11
284.5430336913499
 21
166.3477413329836
 31
0
  0
LINE
  8
1
 62
3
 10
275.5430336913499
 20
159.3477413329838
 30
0
 11
275.5430336913499
 21
166.3477413329838
 31
0
  0
LINE
  8
1
 62
3
 10
295.5430336913499
 20
21.53336988345377
 30
0
 11
294.0430336913499
 21
21.53336988345377
 31
0
  0
LINE
  8
1
 62
3
 10
295.5430336913499
 20
21.53336988345377
 30
0
 11
295.5430336913499
 21
90.81073488637965
 31
0
  0
LINE
  8
1
 62
3
 10
297.1430336913499
 20
79.03336988345377
 30
0
 11
297.1430336913499
 21
73.53336988345377
 31
0
  0
LINE
  8
1
 62
3
 10
295.5430336913499
 20
79.03336988345377
 30
0
 11
297.1430336913499
 21
79.03336988345377
 31
0
  0
LINE
  8
1
 62
3
 10
297.1430336913499
 20
79.23336988345388
 30
0
 11
297.1430336913499
 21
79.03336988345377
 31
0
  0
LINE
  8
1
 62
3
 10
298.8430413262412
 20
77.49586988345386
 30
0
 11
298.6680413262413
 21
77.49586988345386
 31
0
  0
LINE
  8
1
 62
3
 10
298.6680413262413
 20
77.49586988345386
 30
0
 11
298.6680413262413
 21
76.77086988345396
 31
0
  0
LINE
  8
1
 62
3
 10
298.6680413262413
 20
76.77086988345396
 30
0
 11
298.8430413262412
 21
76.77086988345396
 31
0
  0
LINE
  8
1
 62
3
 10
297.9554667883003
 20
79.23336988345376
 30
0
 11
297.1430336913499
 21
79.23336988345388
 31
0
  0
LINE
  8
1
 62
3
 10
297.1430336913499
 20
75.03336988345366
 30
0
 11
297.9554667883004
 21
75.03336988345377
 31
0
  0
LINE
  8
1
 62
3
 10
297.1430336913499
 20
40.03336988345377
 30
0
 11
297.1430336913499
 21
39.83336988345367
 31
0
  0
LINE
  8
1
 62
3
 10
299.5430336913507
 20
38.22024524653058
 30
0
 11
299.5430336913507
 21
27.03336988345377
 31
0
  0
LINE
  8
1
 62
3
 10
295.5430336913499
 20
27.03336988345389
 30
0
 11
299.5430336913507
 21
27.03336988345377
 31
0
  0
LINE
  8
1
 62
3
 10
297.1430336913499
 20
40.03336988345377
 30
0
 11
295.5430336913499
 21
40.03336988345377
 31
0
  0
LINE
  8
1
 62
3
 10
297.1430336913499
 20
45.53336988345377
 30
0
 11
297.1430336913499
 21
40.03336988345377
 31
0
  0
LINE
  8
1
 62
3
 10
301.6436082477164
 20
28.03336988345349
 30
0
 11
300.4433336913502
 21
28.03336988345349
 31
0
  0
LINE
  8
1
 62
3
 10
302.4430336913499
 20
51.84199928644195
 30
0
 11
302.6430336913499
 21
52.03336988345377
 31
0
  0
LINE
  8
1
 62
3
 10
302.6430336913499
 20
49.03336988345377
 30
0
 11
302.4430336913499
 21
49.22474048046577
 31
0
  0
LINE
  8
1
 62
3
 10
302.6430336913499
 20
52.03336988345377
 30
0
 11
302.6430336913499
 21
49.03336988345377
 31
0
  0
LINE
  8
1
 62
3
 10
302.4430336913499
 20
73.53336988345377
 30
0
 11
301.8276085809764
 21
73.53336988345377
 31
0
  0
LINE
  8
1
 62
3
 10
302.4430336913499
 20
45.53336988345377
 30
0
 11
303.1430336913499
 21
45.53336988345377
 31
0
  0
LINE
  8
1
 62
3
 10
297.1430336913499
 20
73.53336988345377
 30
0
 11
297.1430336913499
 21
45.53336988345377
 31
0
  0
LINE
  8
1
 62
3
 10
303.1430336913499
 20
73.53336988345377
 30
0
 11
302.4430336913499
 21
73.53336988345377
 31
0
  0
LINE
  8
1
 62
3
 10
303.1430336913499
 20
45.53336988345377
 30
0
 11
303.1430336913499
 21
73.53336988345377
 31
0
  0
LINE
  8
1
 62
3
 10
297.1430336913499
 20
45.53336988345377
 30
0
 11
301.8276085809764
 21
45.53336988345377
 31
0
  0
LINE
  8
1
 62
3
 10
302.4430336913499
 20
49.22474048046577
 30
0
 11
301.8276085809764
 21
49.22474048046577
 31
0
  0
LINE
  8
1
 62
3
 10
302.4430336913499
 20
51.84199928644195
 30
0
 11
301.8276085809764
 21
51.84199928644195
 31
0
  0
LINE
  8
1
 62
3
 10
301.8276085809764
 20
49.22474048046577
 30
0
 11
301.8276085809764
 21
45.53336988345377
 31
0
  0
LINE
  8
1
 62
3
 10
301.8276085809764
 20
45.53336988345377
 30
0
 11
302.4430336913499
 21
45.53336988345377
 31
0
  0
LINE
  8
1
 62
3
 10
301.8276085809764
 20
51.84199928644195
 30
0
 11
301.8276085809764
 21
67.2247404804656
 31
0
  0
LINE
  8
1
 62
3
 10
301.8276085809764
 20
73.53336988345377
 30
0
 11
297.1430336913499
 21
73.53336988345377
 31
0
  0
LINE
  8
1
 62
3
 10
302.4430336913499
 20
69.84199928644178
 30
0
 11
302.6430336913499
 21
70.03336988345377
 31
0
  0
LINE
  8
1
 62
3
 10
302.6430336913499
 20
67.03336988345377
 30
0
 11
302.4430336913499
 21
67.2247404804656
 31
0
  0
LINE
  8
1
 62
3
 10
302.6430336913499
 20
70.03336988345377
 30
0
 11
302.6430336913499
 21
67.03336988345377
 31
0
  0
LINE
  8
1
 62
3
 10
302.4430336913499
 20
67.2247404804656
 30
0
 11
301.8276085809764
 21
67.2247404804656
 31
0
  0
LINE
  8
1
 62
3
 10
302.4430336913499
 20
69.84199928644178
 30
0
 11
301.8276085809764
 21
69.84199928644178
 31
0
  0
LINE
  8
1
 62
3
 10
301.8276085809764
 20
69.84199928644178
 30
0
 11
301.8276085809764
 21
73.53336988345377
 31
0
  0
LINE
  8
1
 62
3
 10
300.4433336913502
 20
73.53336988345377
 30
0
 11
300.4433336913502
 21
88.93336988345375
 31
0
  0
LINE
  8
1
 62
3
 10
299.9430591349841
 20
45.53336988345377
 30
0
 11
299.9430591349841
 21
33.4833698834541
 31
0
  0
LINE
  8
1
 62
3
 10
299.5430336913507
 20
45.53336988345377
 30
0
 11
299.5430336913507
 21
34.73341307371398
 31
0
  0
LINE
  8
1
 62
3
 10
300.4433336913502
 20
91.033369883454
 30
0
 11
301.6436082477164
 21
91.033369883454
 31
0
  0
LINE
  8
1
 62
3
 10
300.4433336913502
 20
88.93336988345375
 30
0
 11
300.4433336913502
 21
91.033369883454
 31
0
  0
LINE
  8
1
 62
3
 10
299.9430591349841
 20
88.93336988345375
 30
0
 11
300.4433336913502
 21
88.93336988345375
 31
0
  0
LINE
  8
1
 62
3
 10
302.1433336913503
 20
90.53336988345406
 30
0
 11
330.3430336913501
 21
90.53336988345377
 31
0
  0
LINE
  8
1
 62
3
 10
299.9430591349841
 20
30.13045339423918
 30
0
 11
299.9430591349841
 21
33.4833698834541
 31
0
  0
LINE
  8
1
 62
3
 10
299.9430591349841
 20
88.93336988345375
 30
0
 11
299.9430591349841
 21
73.53336988345377
 31
0
  0
LINE
  8
1
 62
3
 10
299.9430591349841
 20
30.13336988345397
 30
0
 11
300.4430591349841
 21
30.13336988345397
 31
0
  0
LINE
  8
1
 62
3
 10
332.5430336913502
 20
53.53336988345377
 30
0
 11
332.6430336913501
 21
53.53336988345377
 31
0
  0
LINE
  8
1
 62
3
 10
332.9430336913501
 20
63.3333698834539
 30
0
 11
332.94303369135
 21
55.73336988345388
 31
0
  0
LINE
  8
1
 62
3
 10
332.94303369135
 20
53.83336988345378
 30
0
 11
332.6430336913501
 21
53.53336988345377
 31
0
  0
LINE
  8
1
 62
3
 10
332.6430336913501
 20
65.53336988345417
 30
0
 11
332.94303369135
 21
65.23336988345399
 31
0
  0
LINE
  8
1
 62
3
 10
332.94303369135
 20
55.23336988345399
 30
0
 11
332.94303369135
 21
63.83336988345378
 31
0
  0
LINE
  8
1
 62
3
 10
332.94303369135
 20
65.23336988345399
 30
0
 11
332.94303369135
 21
63.83336988345378
 31
0
  0
LINE
  8
1
 62
3
 10
332.6430336913501
 20
65.53336988345417
 30
0
 11
332.5430336913502
 21
65.53336988345377
 31
0
  0
LINE
  8
1
 62
3
 10
332.94303369135
 20
55.23336988345399
 30
0
 11
332.94303369135
 21
53.83336988345378
 31
0
  0
LINE
  8
1
 62
3
 10
332.5430336913502
 20
53.53336988345377
 30
0
 11
332.5430336913502
 21
59.53336988345377
 31
0
  0
LINE
  8
1
 62
3
 10
330.3430336913501
 20
28.53336988345377
 30
0
 11
302.1433336913503
 21
28.533369883454
 31
0
  0
LINE
  8
1
 62
3
 10
332.5430336913502
 20
53.53336988345377
 30
0
 11
332.5430336913502
 21
30.73336988345388
 31
0
  0
LINE
  8
1
 62
3
 10
332.5430336913502
 20
59.53336988345377
 30
0
 11
332.5430336913502
 21
65.53336988345377
 31
0
  0
LINE
  8
1
 62
3
 10
332.5430336913502
 20
88.33336988345378
 30
0
 11
332.5430336913502
 21
65.53336988345377
 31
0
  0
LINE
  8
1
 62
3
 10
298.6680413262413
 20
41.57086988345368
 30
0
 11
298.8430413262412
 21
41.57086988345368
 31
0
  0
LINE
  8
1
 62
3
 10
298.6680413262413
 20
42.29586988345359
 30
0
 11
298.6680413262413
 21
41.57086988345368
 31
0
  0
LINE
  8
1
 62
3
 10
298.8430413262412
 20
42.29586988345359
 30
0
 11
298.6680413262413
 21
42.29586988345359
 31
0
  0
LINE
  8
1
 62
3
 10
297.1430336913499
 20
39.83336988345367
 30
0
 11
297.9554667883003
 21
39.83336988345378
 31
0
  0
LINE
  8
1
 62
3
 10
297.9554667883004
 20
44.03336988345377
 30
0
 11
297.1430336913499
 21
44.03336988345389
 31
0
  0
LINE
  8
1
 62
3
 10
299.5430336913507
 20
92.03336988345377
 30
0
 11
295.5430336913499
 21
92.03336988345366
 31
0
  0
LINE
  8
1
 62
3
 10
299.5430336913507
 20
92.03336988345377
 30
0
 11
299.5430336913507
 21
73.53336988345377
 31
0
  0
LINE
  8
1
 62
3
 10
287.5430336913499
 20
96.03336988345366
 30
0
 11
287.5430336913499
 21
23.03336988345366
 31
0
  0
LINE
  8
1
 62
3
 10
287.5430336913502
 20
99.53336988345428
 30
0
 11
294.0430336913499
 21
99.53336988345406
 31
0
  0
LINE
  8
1
 62
3
 10
295.5430336913499
 20
90.81073488637965
 30
0
 11
295.5430336913499
 21
97.53336988345389
 31
0
  0
LINE
  8
1
 62
3
 10
284.5430336913499
 20
63.0333698834536
 30
0
 11
284.5430336913499
 21
26.03336988345349
 31
0
  0
LINE
  8
1
 62
3
 10
287.5430336913499
 20
19.53336988345377
 30
0
 11
294.0430336913499
 21
19.53336988345366
 31
0
  0
LINE
  8
1
 62
3
 10
287.5430336913499
 20
23.03336988345366
 30
0
 11
287.5430336913499
 21
19.53336988345377
 31
0
  0
LINE
  8
1
 62
3
 10
284.5430336913499
 20
23.38336988345357
 30
0
 11
284.8930336913497
 21
23.03336988345366
 31
0
  0
LINE
  8
1
 62
3
 10
287.5430336913499
 20
23.03336988345366
 30
0
 11
284.8930336913497
 21
23.03336988345366
 31
0
  0
LINE
  8
1
 62
3
 10
284.5430336913499
 20
26.03336988345349
 30
0
 11
284.5430336913499
 21
23.38336988345357
 31
0
  0
LINE
  8
1
 62
3
 10
287.5430336913502
 20
99.53336988345428
 30
0
 11
287.5430336913499
 21
96.03336988345366
 31
0
  0
LINE
  8
1
 62
3
 10
284.5430336913499
 20
95.68336988345375
 30
0
 11
284.8930336913497
 21
96.03336988345366
 31
0
  0
LINE
  8
1
 62
3
 10
284.8930336913497
 20
96.03336988345366
 30
0
 11
287.5430336913499
 21
96.03336988345366
 31
0
  0
LINE
  8
1
 62
3
 10
284.5430336913499
 20
95.68336988345375
 30
0
 11
284.5430336913499
 21
93.03336988345366
 31
0
  0
LINE
  8
1
 62
3
 10
284.5430336913499
 20
93.03336988345366
 30
0
 11
284.5430336913499
 21
63.0333698834536
 31
0
  0
LINE
  8
1
 62
1
 10
337.94303369135
 20
59.53336988345377
 30
0
 11
265.266838262533
 21
59.53336988345377
 31
0
  0
LINE
  8
1
 62
3
 10
294.0430336913499
 20
99.53336988345406
 30
0
 11
294.0430336913499
 21
97.53336988345389
 31
0
  0
LINE
  8
1
 62
3
 10
295.5430336913499
 20
97.53336988345389
 30
0
 11
294.0430336913499
 21
97.53336988345389
 31
0
  0
LINE
  8
1
 62
3
 10
294.0430336913499
 20
97.53336988345389
 30
0
 11
294.0430336913499
 21
19.53336988345366
 31
0
  0
LINE
  8
1
 62
3
 10
294.0430336913499
 20
96.78336988345389
 30
0
 11
295.5430336913499
 21
96.78336988345389
 31
0
  0
LINE
  8
1
 62
3
 10
294.0430336913499
 20
88.78336988345389
 30
0
 11
295.5430336913499
 21
88.78336988345389
 31
0
  0
LINE
  8
1
 62
3
 10
294.0430336913499
 20
85.53336988345389
 30
0
 11
295.5430336913499
 21
85.53336988345389
 31
0
  0
LINE
  8
1
 62
3
 10
294.0430336913499
 20
33.53336988345338
 30
0
 11
295.5430336913499
 21
33.53336988345338
 31
0
  0
LINE
  8
1
 62
3
 10
294.0430336913499
 20
30.28336988345389
 30
0
 11
295.5430336913499
 21
30.28336988345389
 31
0
  0
LINE
  8
1
 62
3
 10
294.0430336913499
 20
22.28336988345389
 30
0
 11
295.5430336913499
 21
22.28336988345389
 31
0
  0
LINE
  8
1
 62
3
 10
300.4433336913502
 20
28.03336988345349
 30
0
 11
300.4433336913502
 21
45.53336988345377
 31
0
  0
LINE
  8
1
 62
1
 10
435.358203478264
 20
118.8477413329839
 30
0
 11
435.358203478264
 21
205.597741332984
 31
0
  0
LINE
  8
1
 62
3
 10
449.045872488539
 20
175.6204673326567
 30
0
 11
449.045872488539
 21
185.6204673326567
 31
0
  0
LINE
  8
1
 62
3
 10
448.045872488539
 20
186.6204673326567
 30
0
 11
422.0458724885392
 21
186.6204673326567
 31
0
  0
LINE
  8
1
 62
3
 10
421.0458724885392
 20
185.6204673326567
 30
0
 11
421.0458724885392
 21
175.6204673326567
 31
0
  0
LINE
  8
1
 62
3
 10
422.0458724885392
 20
174.6204673326567
 30
0
 11
448.045872488539
 21
174.6204673326567
 31
0
  0
LINE
  8
1
 62
1
 10
478.1075897055308
 20
162.8477413329837
 30
0
 11
392.6075897055301
 21
162.8477413329837
 31
0
  0
LINE
  8
1
 62
3
 10
416.1961518777633
 20
123.0977413329833
 30
0
 11
414.3575897055302
 21
123.0977413329833
 31
0
  0
LINE
  8
1
 62
3
 10
416.8554368637629
 20
127.3738715185586
 30
0
 11
417.2953852109927
 21
126.9339231713288
 31
0
  0
LINE
  8
1
 62
3
 10
416.8554368637629
 20
126.3230557257182
 30
0
 11
417.2953852109927
 21
126.763004072948
 31
0
  0
LINE
  8
1
 62
3
 10
418.2829991496195
 20
127.7506180115749
 30
0
 11
417.8430508023895
 21
127.3106696643449
 31
0
  0
LINE
  8
1
 62
3
 10
417.6677145401387
 20
127.3150868282153
 30
0
 11
417.232183356779
 21
127.7506180115749
 31
0
  0
LINE
  8
1
 62
3
 10
417.672131704009
 20
127.3106696643449
 30
0
 11
417.6677145401387
 21
127.3150868282153
 31
0
  0
LINE
  8
1
 62
3
 10
418.6597456426358
 20
126.3230557257182
 30
0
 11
418.2197972954057
 21
126.763004072948
 31
0
  0
LINE
  8
1
 62
3
 10
418.6597456426358
 20
127.3738715185586
 30
0
 11
418.2197972954057
 21
126.9339231713288
 31
0
  0
LINE
  8
1
 62
3
 10
417.232183356779
 20
125.9463092327019
 30
0
 11
417.672131704009
 21
126.3862575799319
 31
0
  0
LINE
  8
1
 62
3
 10
418.2829991496195
 20
125.9463092327019
 30
0
 11
417.8430508023897
 21
126.3862575799319
 31
0
  0
LINE
  8
1
 62
3
 10
452.0554337684253
 20
127.3738715185585
 30
0
 11
452.4953821156552
 21
126.9339231713287
 31
0
  0
LINE
  8
1
 62
3
 10
452.0554337684253
 20
126.3230557257181
 30
0
 11
452.4953821156552
 21
126.7630040729479
 31
0
  0
LINE
  8
1
 62
3
 10
453.4829960542821
 20
127.7506180115748
 30
0
 11
453.0430477070519
 21
127.3106696643448
 31
0
  0
LINE
  8
1
 62
3
 10
452.8677114448013
 20
127.3150868282151
 30
0
 11
452.4321802614414
 21
127.7506180115748
 31
0
  0
LINE
  8
1
 62
3
 10
452.8721286086714
 20
127.3106696643448
 30
0
 11
452.8677114448013
 21
127.3150868282151
 31
0
  0
LINE
  8
1
 62
3
 10
453.8597425472981
 20
126.3230557257181
 30
0
 11
453.4197942000682
 21
126.7630040729479
 31
0
  0
LINE
  8
1
 62
3
 10
453.8597425472981
 20
127.3738715185585
 30
0
 11
453.4197942000682
 21
126.9339231713287
 31
0
  0
LINE
  8
1
 62
3
 10
452.4321802614414
 20
125.9463092327018
 30
0
 11
452.8721286086714
 21
126.3862575799318
 31
0
  0
LINE
  8
1
 62
3
 10
453.4829960542821
 20
125.9463092327018
 30
0
 11
453.043047707052
 21
126.3862575799318
 31
0
  0
LINE
  8
1
 62
3
 10
449.7575897055304
 20
122.8477413329828
 30
0
 11
453.8575897055303
 21
122.8477413329828
 31
0
  0
LINE
  8
1
 62
3
 10
421.7575897055304
 20
122.8477413329829
 30
0
 11
416.8575897055314
 21
122.8477413329829
 31
0
  0
LINE
  8
1
 62
3
 10
421.7575897055304
 20
121.8477413329839
 30
0
 11
421.7575897055304
 21
131.5477413329836
 31
0
  0
LINE
  8
1
 62
3
 10
421.7575897055304
 20
131.5477413329836
 30
0
 11
424.7575897055304
 21
131.5477413329836
 31
0
  0
LINE
  8
1
 62
3
 10
449.7575897055304
 20
131.5477413329835
 30
0
 11
449.7575897055304
 21
121.8477413329838
 31
0
  0
LINE
  8
1
 62
3
 10
449.7575897055304
 20
121.8477413329838
 30
0
 11
421.7575897055304
 21
121.8477413329839
 31
0
  0
LINE
  8
1
 62
3
 10
424.7575897055304
 20
131.5477413329836
 30
0
 11
424.7575897055304
 21
129.5477413329836
 31
0
  0
LINE
  8
1
 62
3
 10
424.7575897055304
 20
129.5477413329836
 30
0
 11
446.7575897055304
 21
129.5477413329835
 31
0
  0
LINE
  8
1
 62
3
 10
446.7575897055304
 20
129.5477413329835
 30
0
 11
446.7575897055304
 21
131.5477413329835
 31
0
  0
LINE
  8
1
 62
3
 10
446.7575897055304
 20
131.5477413329835
 30
0
 11
449.7575897055304
 21
131.5477413329835
 31
0
  0
LINE
  8
1
 62
3
 10
430.4675897055307
 20
194.8477413329837
 30
0
 11
440.2475897055304
 21
194.8477413329837
 31
0
  0
LINE
  8
1
 62
3
 10
430.4575897055307
 20
194.8377413329837
 30
0
 11
430.4575897055307
 21
193.4579354625625
 31
0
  0
LINE
  8
1
 62
3
 10
440.2575897055304
 20
194.8377413329837
 30
0
 11
440.2575897055304
 21
193.4579354625625
 31
0
  0
LINE
  8
1
 62
3
 10
415.8575897055303
 20
123.8477413329839
 30
0
 11
415.8575897055303
 21
126.247741332983
 31
0
  0
LINE
  8
1
 62
3
 10
454.8575897055303
 20
123.8477413329838
 30
0
 11
454.8575897055303
 21
126.2477413329828
 31
0
  0
LINE
  8
1
 62
3
 10
415.8575897055303
 20
127.4477413329829
 30
0
 11
415.8575897055303
 21
138.7494828380908
 31
0
  0
LINE
  8
1
 62
3
 10
454.8575897055303
 20
127.4477413329828
 30
0
 11
454.8575897055303
 21
138.7484895446004
 31
0
  0
LINE
  8
1
 62
3
 10
471.8575897055303
 20
188.8477413329838
 30
0
 11
464.3575897055303
 21
188.8477413329838
 31
0
  0
LINE
  8
1
 62
3
 10
473.3575897055303
 20
138.3477413329832
 30
0
 11
473.3575897055303
 21
187.3477413329838
 31
0
  0
LINE
  8
1
 62
3
 10
398.8575897055302
 20
136.8477413329833
 30
0
 11
406.3575897055302
 21
136.8477413329833
 31
0
  0
LINE
  8
1
 62
3
 10
397.3575897055302
 20
138.3477413329833
 30
0
 11
397.3575897055302
 21
187.3477413329838
 31
0
  0
LINE
  8
1
 62
3
 10
461.3575897055303
 20
199.3477413329837
 30
0
 11
461.3575897055303
 21
191.8477413329838
 31
0
  0
LINE
  8
1
 62
3
 10
459.8575897055303
 20
200.8477413329837
 30
0
 11
410.8575897055302
 21
200.8477413329837
 31
0
  0
LINE
  8
1
 62
3
 10
464.3575897055303
 20
136.8477413329832
 30
0
 11
471.8575897055303
 21
136.8477413329832
 31
0
  0
LINE
  8
1
 62
3
 10
461.3575897055303
 20
133.8477413329832
 30
0
 11
461.3575897055303
 21
124.5977413329832
 31
0
  0
LINE
  8
1
 62
3
 10
409.3575897055302
 20
191.8477413329838
 30
0
 11
409.3575897055302
 21
199.3477413329837
 31
0
  0
LINE
  8
1
 62
3
 10
406.3575897055302
 20
188.8477413329838
 30
0
 11
398.8575897055302
 21
188.8477413329838
 31
0
  0
LINE
  8
1
 62
3
 10
409.3575897055302
 20
124.5977413329833
 30
0
 11
409.3575897055302
 21
133.8477413329833
 31
0
  0
LINE
  8
1
 62
3
 10
456.3575897055303
 20
123.0977413329832
 30
0
 11
458.3575897055303
 21
123.0977413329832
 31
0
  0
LINE
  8
1
 62
3
 10
414.3575897055302
 20
123.0977413329833
 30
0
 11
412.3575897055302
 21
123.0977413329833
 31
0
  0
LINE
  8
1
 62
3
 10
458.6860168302767
 20
123.0977413329832
 30
0
 11
459.8575897055303
 21
123.0977413329832
 31
0
  0
LINE
  8
1
 62
1
 10
406.5477657922915
 20
196.0977413329837
 30
0
 11
397.6674136187688
 21
196.0977413329837
 31
0
  0
LINE
  8
1
 62
1
 10
402.1075897055302
 20
191.6575652462222
 30
0
 11
402.1075897055302
 21
200.537917419745
 31
0
  0
LINE
  8
1
 62
1
 10
402.1075897055302
 20
134.0379174197451
 30
0
 11
402.1075897055302
 21
125.1575652462225
 31
0
  0
LINE
  8
1
 62
1
 10
406.5477657922915
 20
129.5977413329839
 30
0
 11
397.6674136187688
 21
129.5977413329839
 31
0
  0
LINE
  8
1
 62
3
 10
410.8575897055302
 20
123.0977413329833
 30
0
 11
412.0291625807841
 21
123.0977413329833
 31
0
  0
LINE
  8
1
 62
1
 10
468.6075897055303
 20
125.1575652462224
 30
0
 11
468.6075897055303
 21
134.037917419745
 31
0
  0
LINE
  8
1
 62
1
 10
473.0477657922918
 20
129.5977413329838
 30
0
 11
464.1674136187688
 21
129.5977413329838
 31
0
  0
LINE
  8
1
 62
1
 10
473.0477657922918
 20
196.0977413329837
 30
0
 11
464.1674136187688
 21
196.0977413329837
 31
0
  0
LINE
  8
1
 62
1
 10
468.6075897055303
 20
200.537917419745
 30
0
 11
468.6075897055303
 21
191.6575652462222
 31
0
  0
LINE
  8
1
 62
3
 10
412.3575897055302
 20
123.0977413329833
 30
0
 11
412.0291625807841
 21
123.0977413329833
 31
0
  0
LINE
  8
1
 62
3
 10
458.3575897055303
 20
123.0977413329832
 30
0
 11
458.6860168302767
 21
123.0977413329832
 31
0
  0
LINE
  8
1
 62
3
 10
456.3575897055303
 20
123.0977413329832
 30
0
 11
454.5190275332962
 21
123.0977413329832
 31
0
  0
LINE
  8
1
 62
3
 10
415.0575897055304
 20
139.1901844007897
 30
0
 11
415.0575897055304
 21
139.4194447570417
 31
0
  0
LINE
  8
1
 62
3
 10
455.6575897055303
 20
131.3477548984318
 30
0
 11
455.6575897055303
 21
139.21069307455
 31
0
  0
LINE
  8
1
 62
3
 10
429.6575897055303
 20
193.465383306199
 30
0
 11
429.6575897055303
 21
193.8741816702186
 31
0
  0
LINE
  8
1
 62
3
 10
441.0575897055304
 20
193.465383306199
 30
0
 11
441.0575897055304
 21
193.8741816702186
 31
0
  0
LINE
  8
1
 62
3
 10
457.6653303870306
 20
139.2127100089736
 30
0
 11
456.9885041832982
 21
138.6122535894755
 31
0
  0
LINE
  8
1
 62
3
 10
455.6575897055303
 20
139.21069307455
 30
0
 11
455.6575897055303
 21
139.4183811454696
 31
0
  0
LINE
  8
1
 62
3
 10
415.0575897055304
 20
131.3477548984324
 30
0
 11
415.0575897055304
 21
139.1528147286966
 31
0
  0
LINE
  8
1
 62
3
 10
300.4433336913502
 20
192.2477413329838
 30
0
 11
300.4433336913502
 21
194.347741332984
 31
0
  0
LINE
  8
1
 62
3
 10
299.943059134984
 20
192.2477413329838
 30
0
 11
300.4433336913502
 21
192.2477413329838
 31
0
  0
LINE
  8
1
 62
3
 10
302.1433336913502
 20
193.8477413329841
 30
0
 11
330.34303369135
 21
193.8477413329838
 31
0
  0
LINE
  8
1
 62
3
 10
299.943059134984
 20
150.8477413329843
 30
0
 11
299.943059134984
 21
136.7977413329841
 31
0
  0
LINE
  8
1
 62
3
 10
299.943059134984
 20
133.4448248437692
 30
0
 11
299.943059134984
 21
136.7977413329841
 31
0
  0
LINE
  8
1
 62
3
 10
299.943059134984
 20
192.2477413329838
 30
0
 11
299.943059134984
 21
133.4448248437692
 31
0
  0
LINE
  8
1
 62
3
 10
300.443059134984
 20
194.347741332984
 30
0
 11
301.6433336913502
 21
194.347741332984
 31
0
  0
LINE
  8
1
 62
3
 10
299.943059134984
 20
175.8477413329841
 30
0
 11
299.5430336913507
 21
175.8477413329841
 31
0
  0
LINE
  8
1
 62
3
 10
299.943059134984
 20
133.4477413329839
 30
0
 11
300.443059134984
 21
133.4477413329839
 31
0
  0
LINE
  8
1
 62
3
 10
299.5430336913507
 20
149.8477413329837
 30
0
 11
299.943059134984
 21
149.8477413329837
 31
0
  0
LINE
  8
1
 62
3
 10
332.5430336913502
 20
156.8477413329838
 30
0
 11
332.64303369135
 21
156.8477413329838
 31
0
  0
LINE
  8
1
 62
3
 10
332.9430336913501
 20
166.6477413329839
 30
0
 11
332.9430336913499
 21
159.0477413329839
 31
0
  0
LINE
  8
1
 62
3
 10
332.9430336913499
 20
157.1477413329838
 30
0
 11
332.64303369135
 21
156.8477413329838
 31
0
  0
LINE
  8
1
 62
3
 10
332.64303369135
 20
168.8477413329841
 30
0
 11
332.9430336913499
 21
168.547741332984
 31
0
  0
LINE
  8
1
 62
3
 10
332.9430336913499
 20
158.547741332984
 30
0
 11
332.9430336913499
 21
167.1477413329838
 31
0
  0
LINE
  8
1
 62
3
 10
332.9430336913499
 20
168.547741332984
 30
0
 11
332.9430336913499
 21
167.1477413329838
 31
0
  0
LINE
  8
1
 62
3
 10
332.64303369135
 20
168.8477413329841
 30
0
 11
332.5430336913502
 21
168.8477413329838
 31
0
  0
LINE
  8
1
 62
3
 10
332.9430336913499
 20
158.547741332984
 30
0
 11
332.9430336913499
 21
157.1477413329838
 31
0
  0
LINE
  8
1
 62
3
 10
332.5430336913502
 20
156.8477413329838
 30
0
 11
332.5430336913502
 21
162.8477413329838
 31
0
  0
LINE
  8
1
 62
3
 10
332.5430336913502
 20
135.2477413329838
 30
0
 11
332.5430336913502
 21
134.0477413329838
 31
0
  0
LINE
  8
1
 62
3
 10
330.34303369135
 20
131.8477413329838
 30
0
 11
302.1433336913502
 21
131.847741332984
 31
0
  0
LINE
  8
1
 62
3
 10
332.5430336913502
 20
156.8477413329838
 30
0
 11
332.5430336913502
 21
135.2477413329838
 31
0
  0
LINE
  8
1
 62
3
 10
332.5430336913502
 20
162.8477413329838
 30
0
 11
332.5430336913502
 21
168.8477413329838
 31
0
  0
LINE
  8
1
 62
3
 10
332.5430336913502
 20
191.6477413329838
 30
0
 11
332.5430336913502
 21
190.4477413329838
 31
0
  0
LINE
  8
1
 62
3
 10
332.5430336913502
 20
190.4477413329838
 30
0
 11
332.5430336913502
 21
168.8477413329838
 31
0
  0
LINE
  8
1
 62
3
 10
152.9068513433588
 20
122.8477413329838
 30
0
 11
152.9068513433588
 21
120.8477413329838
 31
0
  0
LINE
  8
1
 62
3
 10
180.9068513433588
 20
122.8477413329838
 30
0
 11
180.9068513433588
 21
120.8477413329838
 31
0
  0
LINE
  8
1
 62
3
 10
189.9068513433588
 20
122.8477413329838
 30
0
 11
166.9068513433588
 21
122.8477413329838
 31
0
  0
LINE
  8
1
 62
3
 10
166.9068513433588
 20
122.8477413329838
 30
0
 11
143.9068513433588
 21
122.8477413329838
 31
0
  0
LINE
  8
1
 62
3
 10
143.9068513433588
 20
122.8477413329838
 30
0
 11
142.2499970938664
 21
122.8477413329838
 31
0
  0
LINE
  8
1
 62
3
 10
190.735278468105
 20
122.8477413329838
 30
0
 11
189.9068513433588
 21
122.8477413329838
 31
0
  0
LINE
  8
1
 62
3
 10
298.6680413262412
 20
126.4859636221384
 30
0
 11
298.8430413262412
 21
126.4859636221384
 31
0
  0
LINE
  8
1
 62
3
 10
298.6680413262412
 20
127.2109636221383
 30
0
 11
298.6680413262412
 21
126.4859636221384
 31
0
  0
LINE
  8
1
 62
3
 10
298.8430413262412
 20
127.2109636221383
 30
0
 11
298.6680413262412
 21
127.2109636221383
 31
0
  0
LINE
  8
1
 62
3
 10
297.1430336913499
 20
124.7484636221384
 30
0
 11
297.9554667883002
 21
124.7484636221385
 31
0
  0
LINE
  8
1
 62
3
 10
297.9554667883003
 20
128.9484636221385
 30
0
 11
297.1430336913499
 21
128.9484636221386
 31
0
  0
LINE
  8
1
 62
3
 10
299.5430336913507
 20
194.9608227796468
 30
0
 11
295.5430336913499
 21
194.9608227796467
 31
0
  0
LINE
  8
1
 62
3
 10
297.1430336913499
 20
131.5477413329836
 30
0
 11
303.0430413262416
 21
131.5477413329836
 31
0
  0
LINE
  8
1
 62
3
 10
303.0430413262416
 20
131.5477413329836
 30
0
 11
303.0430413262416
 21
126.547741332984
 31
0
  0
LINE
  8
1
 62
3
 10
299.7230413262416
 20
126.8477413329835
 30
0
 11
298.6680413262412
 21
126.8477413329835
 31
0
  0
LINE
  8
1
 62
3
 10
299.7230413262416
 20
126.8477413329835
 30
0
 11
300.3630413262415
 21
126.8477413329835
 31
0
  0
LINE
  8
1
 62
3
 10
301.8276085809763
 20
126.547741332984
 30
0
 11
301.8276085809763
 21
126.8477413329835
 31
0
  0
LINE
  8
1
 62
3
 10
300.3630413262415
 20
126.547741332984
 30
0
 11
300.3630413262415
 21
126.8477413329835
 31
0
  0
LINE
  8
1
 62
3
 10
299.7230413262416
 20
126.547741332984
 30
0
 11
299.7230413262416
 21
126.8477413329835
 31
0
  0
LINE
  8
1
 62
3
 10
300.3630413262415
 20
122.9991213132885
 30
0
 11
300.3630413262415
 21
126.547741332984
 31
0
  0
LINE
  8
1
 62
3
 10
300.0630413262416
 20
122.6991213132885
 30
0
 11
300.0230413262415
 21
122.6991213132885
 31
0
  0
LINE
  8
1
 62
3
 10
301.8276085809763
 20
126.8477413329835
 30
0
 11
300.3630413262415
 21
126.8477413329835
 31
0
  0
LINE
  8
1
 62
3
 10
299.7230413262416
 20
122.9991213132887
 30
0
 11
299.7230413262416
 21
126.547741332984
 31
0
  0
LINE
  8
1
 62
3
 10
303.0430413262416
 20
121.8477413329835
 30
0
 11
301.8276085809763
 21
121.8477413329835
 31
0
  0
LINE
  8
1
 62
3
 10
301.8276085809763
 20
121.8477413329835
 30
0
 11
301.8276085809763
 21
126.547741332984
 31
0
  0
LINE
  8
1
 62
3
 10
303.0430413262416
 20
126.547741332984
 30
0
 11
303.0430413262416
 21
121.8477413329835
 31
0
  0
LINE
  8
1
 62
3
 10
299.5430336913507
 20
194.9608227796468
 30
0
 11
299.5430336913507
 21
138.047784523244
 31
0
  0
LINE
  8
1
 62
3
 10
287.5430336913499
 20
199.3477413329837
 30
0
 11
287.5430336913499
 21
126.3477413329836
 31
0
  0
LINE
  8
1
 62
3
 10
180.9068513433588
 20
120.8477413329838
 30
0
 11
152.9068513433588
 21
120.8477413329838
 31
0
  0
LINE
  8
1
 62
3
 10
287.5430336913501
 20
202.8477413329842
 30
0
 11
294.0430336913499
 21
202.8477413329841
 31
0
  0
LINE
  8
1
 62
3
 10
295.5430336913499
 20
194.1251063359097
 30
0
 11
295.5430336913499
 21
200.8477413329839
 31
0
  0
LINE
  8
1
 62
3
 10
284.5430336913499
 20
166.3477413329836
 30
0
 11
284.5430336913499
 21
129.3477413329835
 31
0
  0
LINE
  8
1
 62
3
 10
287.5430336913499
 20
122.8477413329838
 30
0
 11
295.5430336913499
 21
122.8477413329837
 31
0
  0
LINE
  8
1
 62
3
 10
287.5430336913499
 20
126.3477413329836
 30
0
 11
287.5430336913499
 21
122.8477413329838
 31
0
  0
LINE
  8
1
 62
3
 10
284.5430336913499
 20
126.6977413329836
 30
0
 11
284.8930336913498
 21
126.3477413329836
 31
0
  0
LINE
  8
1
 62
3
 10
287.5430336913499
 20
126.3477413329836
 30
0
 11
284.8930336913498
 21
126.3477413329836
 31
0
  0
LINE
  8
1
 62
3
 10
284.5430336913499
 20
129.3477413329835
 30
0
 11
284.5430336913499
 21
126.6977413329836
 31
0
  0
LINE
  8
1
 62
3
 10
287.5430336913501
 20
202.8477413329842
 30
0
 11
287.5430336913499
 21
199.3477413329837
 31
0
  0
LINE
  8
1
 62
3
 10
284.5430336913499
 20
198.9977413329838
 30
0
 11
284.8930336913498
 21
199.3477413329837
 31
0
  0
LINE
  8
1
 62
3
 10
284.8930336913498
 20
199.3477413329837
 30
0
 11
287.5430336913499
 21
199.3477413329837
 31
0
  0
LINE
  8
1
 62
3
 10
284.5430336913499
 20
198.9977413329838
 30
0
 11
284.5430336913499
 21
196.3477413329837
 31
0
  0
LINE
  8
1
 62
3
 10
284.5430336913499
 20
196.3477413329837
 30
0
 11
284.5430336913499
 21
166.3477413329836
 31
0
  0
LINE
  8
1
 62
1
 10
265.266838262533
 20
162.8477413329838
 30
0
 11
338.5534455840501
 21
162.8477413329838
 31
0
  0
LINE
  8
1
 62
1
 10
177.9068513433588
 20
162.8477413329838
 30
0
 11
200.4068513433588
 21
162.8477413329838
 31
0
  0
LINE
  8
1
 62
1
 10
125.3057920024573
 20
162.8477413329838
 30
0
 11
161.1068513433589
 21
162.8477413329838
 31
0
  0
LINE
  8
1
 62
1
 10
166.9068513433588
 20
115.4478658015628
 30
0
 11
166.9068513433588
 21
162.8477413329838
 31
0
  0
LINE
  8
1
 62
1
 10
161.1068513433589
 20
162.8477413329838
 30
0
 11
177.9068513433588
 21
162.8477413329838
 31
0
  0
LINE
  8
1
 62
1
 10
203.5568513433588
 20
162.8477413329838
 30
0
 11
210.877739748226
 21
162.8477413329838
 31
0
  0
LINE
  8
1
 62
1
 10
200.4068513433588
 20
162.8477413329838
 30
0
 11
203.5568513433588
 21
162.8477413329838
 31
0
  0
LINE
  8
1
 62
1
 10
166.9068513433588
 20
162.8477413329838
 30
0
 11
166.9068513433588
 21
204.4488006738852
 31
0
  0
LINE
  8
1
 62
3
 10
206.9068513433588
 20
195.8477413329838
 30
0
 11
206.9068513433588
 21
162.8477413329838
 31
0
  0
LINE
  8
1
 62
3
 10
126.9068513433588
 20
195.8477413329838
 30
0
 11
126.9068513433588
 21
162.8477413329838
 31
0
  0
LINE
  8
1
 62
1
 10
133.6568513433588
 20
191.6575652462223
 30
0
 11
133.6568513433588
 21
200.5379174197453
 31
0
  0
LINE
  8
1
 62
1
 10
138.0970274301204
 20
196.0977413329838
 30
0
 11
129.2166752565974
 21
196.0977413329838
 31
0
  0
LINE
  8
1
 62
1
 10
195.7166752565973
 20
196.0977413329838
 30
0
 11
204.5970274301202
 21
196.0977413329838
 31
0
  0
LINE
  8
1
 62
1
 10
200.1568513433588
 20
191.6575652462222
 30
0
 11
200.1568513433588
 21
200.5379174197452
 31
0
  0
LINE
  8
1
 62
3
 10
133.9068513433588
 20
202.8477413329838
 30
0
 11
199.9068513433588
 21
202.8477413329838
 31
0
  0
LINE
  8
1
 62
3
 10
206.9068513433588
 20
162.8477413329838
 30
0
 11
206.9068513433588
 21
129.8477413329838
 31
0
  0
LINE
  8
1
 62
3
 10
126.9068513433588
 20
162.8477413329838
 30
0
 11
126.9068513433588
 21
129.8477413329838
 31
0
  0
LINE
  8
1
 62
1
 10
133.6568513433588
 20
125.1575652462223
 30
0
 11
133.6568513433588
 21
134.0379174197453
 31
0
  0
LINE
  8
1
 62
1
 10
129.2166752565974
 20
129.5977413329838
 30
0
 11
138.0970274301204
 21
129.5977413329838
 31
0
  0
LINE
  8
1
 62
1
 10
204.5970274301202
 20
129.5977413329836
 30
0
 11
195.7166752565973
 21
129.5977413329838
 31
0
  0
LINE
  8
1
 62
1
 10
200.1568513433588
 20
125.1575652462223
 30
0
 11
200.1568513433588
 21
134.0379174197452
 31
0
  0
LINE
  8
1
 62
3
 10
199.9068513433588
 20
122.8477413329838
 30
0
 11
133.9068513433588
 21
122.8477413329838
 31
0
  0
LINE
  8
1
 62
3
 10
295.5430336913499
 20
122.8477413329837
 30
0
 11
295.5430336913499
 21
194.1251063359097
 31
0
  0
LINE
  8
1
 62
3
 10
295.5430336913499
 20
138.0477845232444
 30
0
 11
299.5430336913507
 21
138.047784523244
 31
0
  0
LINE
  8
1
 62
3
 10
165.0768513433588
 20
156.1477413329838
 30
0
 11
165.9068513433588
 21
156.1477413329838
 31
0
  0
LINE
  8
1
 62
3
 10
170.4068513433588
 20
157.8177413329838
 30
0
 11
170.4068513433588
 21
159.7108639047121
 31
0
  0
LINE
  8
1
 62
3
 10
165.0968513433589
 20
158.5355019857491
 30
0
 11
165.9068513433588
 21
158.5355019857491
 31
0
  0
LINE
  8
1
 62
3
 10
169.4068513433588
 20
157.8455019857491
 30
0
 11
169.4068513433588
 21
157.8377413329838
 31
0
  0
LINE
  8
1
 62
3
 10
168.7168513433589
 20
157.1477413329838
 30
0
 11
167.9068513433588
 21
157.1477413329838
 31
0
  0
LINE
  8
1
 62
3
 10
164.4068513433588
 20
157.8377413329838
 30
0
 11
164.4068513433588
 21
157.8455019857491
 31
0
  0
LINE
  8
1
 62
3
 10
163.4068513433588
 20
159.7108639047122
 30
0
 11
163.4068513433588
 21
157.8177413329838
 31
0
  0
LINE
  8
1
 62
3
 10
165.9068513433588
 20
159.5052430226204
 30
0
 11
165.9068513433588
 21
158.5355019857491
 31
0
  0
LINE
  8
1
 62
3
 10
167.9068513433588
 20
159.5052430226204
 30
0
 11
167.9068513433588
 21
158.5355019857491
 31
0
  0
LINE
  8
1
 62
3
 10
165.9068513433588
 20
157.1477413329838
 30
0
 11
165.9068513433588
 21
156.1477413329838
 31
0
  0
LINE
  8
1
 62
3
 10
167.9068513433588
 20
157.1477413329838
 30
0
 11
167.9068513433588
 21
156.1477413329838
 31
0
  0
LINE
  8
1
 62
3
 10
167.9068513433588
 20
158.5355019857491
 30
0
 11
168.7168513433588
 21
158.5355019857491
 31
0
  0
LINE
  8
1
 62
3
 10
165.9068513433588
 20
157.1477413329838
 30
0
 11
165.0968513433588
 21
157.1477413329838
 31
0
  0
LINE
  8
1
 62
3
 10
167.9068513433588
 20
156.1477413329838
 30
0
 11
168.7368513433589
 21
156.1477413329838
 31
0
  0
LINE
  8
1
 62
3
 10
295.5430336913499
 20
123.295070388689
 30
0
 11
297.1430336913499
 21
123.295070388689
 31
0
  0
LINE
  8
1
 62
3
 10
297.1430336913499
 20
123.295070388689
 30
0
 11
297.1430336913499
 21
138.0477845232442
 31
0
  0
LINE
  8
1
 62
3
 10
294.0430336913499
 20
202.8477413329841
 30
0
 11
294.0430336913499
 21
200.8477413329839
 31
0
  0
LINE
  8
1
 62
3
 10
295.5430336913499
 20
200.8477413329839
 30
0
 11
294.0430336913499
 21
200.8477413329839
 31
0
  0
LINE
  8
1
 62
3
 10
294.0430336913499
 20
200.8477413329839
 30
0
 11
294.0430336913499
 21
122.8477413329837
 31
0
  0
LINE
  8
1
 62
3
 10
294.0430336913499
 20
200.0977413329839
 30
0
 11
295.5430336913499
 21
200.0977413329839
 31
0
  0
LINE
  8
1
 62
3
 10
294.0430336913499
 20
192.0977413329839
 30
0
 11
295.5430336913499
 21
192.0977413329839
 31
0
  0
LINE
  8
1
 62
3
 10
294.0430336913499
 20
188.8477413329839
 30
0
 11
295.5430336913499
 21
188.8477413329839
 31
0
  0
LINE
  8
1
 62
3
 10
294.0430336913499
 20
136.8477413329833
 30
0
 11
295.5430336913499
 21
136.8477413329833
 31
0
  0
LINE
  8
1
 62
3
 10
294.0430336913499
 20
133.5977413329839
 30
0
 11
295.5430336913499
 21
133.5977413329839
 31
0
  0
LINE
  8
1
 62
3
 10
294.0430336913499
 20
125.5977413329839
 30
0
 11
295.5430336913499
 21
125.5977413329839
 31
0
  0
LINE
  8
1
 62
3
 10
300.4433336913502
 20
131.5477413329836
 30
0
 11
300.4433336913502
 21
192.2477413329838
 31
0
  0
LINE
  8
1
 62
3
 10
300.4433336913502
 20
194.347741332984
 30
0
 11
301.6436082477164
 21
194.347741332984
 31
0
  0
LINE
  8
1
 62
3
 10
294.233261673689
 20
277.92257139544
 30
0
 11
276.3426812210738
 21
277.92257139544
 31
0
  0
LINE
  8
1
 62
3
 10
294.406370656294
 20
278.92257139544
 30
0
 11
276.3426812210738
 21
278.92257139544
 31
0
  0
LINE
  8
1
 62
3
 10
294.0211055053225
 20
279.92257139544
 30
0
 11
276.3426812210738
 21
279.92257139544
 31
0
  0
LINE
  8
1
 62
3
 10
293.3526586726608
 20
280.8737202020231
 30
0
 11
271.647007913374
 21
280.8217533687619
 31
0
  0
LINE
  8
1
 62
3
 10
292.755621275231
 20
281.92257139544
 30
0
 11
272.6691281646449
 21
281.92257139544
 31
0
  0
LINE
  8
1
 62
3
 10
292.6563072767415
 20
282.92257139544
 30
0
 11
276.3426812210738
 21
282.92257139544
 31
0
  0
LINE
  8
1
 62
3
 10
292.9249701984493
 20
283.92257139544
 30
0
 11
276.3426812210738
 21
283.92257139544
 31
0
  0
LINE
  8
1
 62
3
 10
293.4157999818119
 20
284.92257139544
 30
0
 11
276.3426812210738
 21
284.92257139544
 31
0
  0
LINE
  8
1
 62
3
 10
293.7604252463131
 20
276.92257139544
 30
0
 11
276.3426812210738
 21
276.92257139544
 31
0
  0
LINE
  8
1
 62
3
 10
294.0116262390831
 20
285.92257139544
 30
0
 11
276.3426812210738
 21
285.92257139544
 31
0
  0
LINE
  8
1
 62
3
 10
313.7569603577637
 20
285.92257139544
 30
0
 11
294.872886785724
 21
285.92257139544
 31
0
  0
LINE
  8
1
 62
3
 10
313.7569603577637
 20
284.92257139544
 30
0
 11
294.0978886145795
 21
284.92257139544
 31
0
  0
LINE
  8
1
 62
3
 10
313.7569603577637
 20
283.92257139544
 30
0
 11
293.5264334994999
 21
283.92257139544
 31
0
  0
LINE
  8
1
 62
3
 10
313.7569603577637
 20
282.92257139544
 30
0
 11
293.365680829102
 21
282.92257139544
 31
0
  0
LINE
  8
1
 62
3
 10
313.7569603577637
 20
279.92257139544
 30
0
 11
295.0467014037994
 21
279.92257139544
 31
0
  0
LINE
  8
1
 62
3
 10
313.7569603577637
 20
278.92257139544
 30
0
 11
295.339402915155
 21
278.92257139544
 31
0
  0
LINE
  8
1
 62
3
 10
313.7569603577637
 20
277.92257139544
 30
0
 11
295.1110308423868
 21
277.92257139544
 31
0
  0
LINE
  8
1
 62
3
 10
313.7569603577637
 20
276.92257139544
 30
0
 11
294.585799936844
 21
276.92257139544
 31
0
  0
LINE
  8
1
 62
3
 10
248.4426812210738
 20
292.92257139544
 30
0
 11
248.4426812210738
 21
269.92257139544
 31
0
  0
LINE
  8
1
 62
3
 10
248.4426812210738
 20
269.92257139544
 30
0
 11
256.3426812210739
 21
269.92257139544
 31
0
  0
LINE
  8
1
 62
3
 10
256.3426812210739
 20
292.92257139544
 30
0
 11
248.4426812210738
 21
292.92257139544
 31
0
  0
LINE
  8
1
 62
3
 10
333.7569603577638
 20
295.42257139544
 30
0
 11
333.7569603577638
 21
267.42257139544
 31
0
  0
LINE
  8
1
 62
3
 10
333.7569603577638
 20
267.42257139544
 30
0
 11
337.809444852324
 21
267.42257139544
 31
0
  0
LINE
  8
1
 62
3
 10
341.6569603577639
 20
267.42257139544
 30
0
 11
341.6569603577639
 21
273.4725713954401
 31
0
  0
LINE
  8
1
 62
3
 10
341.6569603577639
 20
295.42257139544
 30
0
 11
340.5382735643569
 21
295.42257139544
 31
0
  0
LINE
  8
1
 62
3
 10
341.6569603577639
 20
289.3725713954401
 30
0
 11
336.9122956867249
 21
289.3725713954401
 31
0
  0
LINE
  8
1
 62
3
 10
341.6569603577639
 20
289.3725713954401
 30
0
 11
341.6569603577639
 21
295.42257139544
 31
0
  0
LINE
  8
1
 62
3
 10
336.3515774582249
 20
289.3725713954401
 30
0
 11
336.3515774582249
 21
287.3725713954401
 31
0
  0
LINE
  8
1
 62
3
 10
336.3515774582249
 20
287.3725713954401
 30
0
 11
336.9122956867249
 21
287.3725713954401
 31
0
  0
LINE
  8
1
 62
3
 10
341.6569603577639
 20
287.3725713954401
 30
0
 11
341.6569603577639
 21
289.3725713954401
 31
0
  0
LINE
  8
1
 62
3
 10
341.6569603577639
 20
287.3725713954401
 30
0
 11
341.6569603577639
 21
275.4725713954401
 31
0
  0
LINE
  8
1
 62
3
 10
341.6569603577639
 20
275.4725713954401
 30
0
 11
341.6569603577639
 21
287.3725713954401
 31
0
  0
LINE
  8
1
 62
3
 10
341.6569603577639
 20
275.4725713954401
 30
0
 11
336.9122956867249
 21
275.4725713954401
 31
0
  0
LINE
  8
1
 62
3
 10
336.3515774582249
 20
275.4725713954401
 30
0
 11
336.3515774582249
 21
273.4725713954401
 31
0
  0
LINE
  8
1
 62
3
 10
336.3515774582249
 20
273.4725713954401
 30
0
 11
336.9122956867249
 21
273.4725713954401
 31
0
  0
LINE
  8
1
 62
3
 10
341.6569603577639
 20
273.4725713954401
 30
0
 11
341.6569603577639
 21
275.4725713954401
 31
0
  0
LINE
  8
1
 62
3
 10
340.5382735643569
 20
267.42257139544
 30
0
 11
340.5382735643569
 21
270.42257139544
 31
0
  0
LINE
  8
1
 62
3
 10
340.5382735643569
 20
267.42257139544
 30
0
 11
341.6569603577639
 21
267.42257139544
 31
0
  0
LINE
  8
1
 62
3
 10
340.5382735643569
 20
270.42257139544
 30
0
 11
339.5289807530568
 21
270.42257139544
 31
0
  0
LINE
  8
1
 62
3
 10
337.809444852324
 20
270.42257139544
 30
0
 11
337.809444852324
 21
267.42257139544
 31
0
  0
LINE
  8
1
 62
3
 10
337.809444852324
 20
267.42257139544
 30
0
 11
338.2580194351239
 21
267.42257139544
 31
0
  0
LINE
  8
1
 62
3
 10
340.5382735643569
 20
295.42257139544
 30
0
 11
340.5382735643569
 21
292.42257139544
 31
0
  0
LINE
  8
1
 62
3
 10
340.5382735643569
 20
295.42257139544
 30
0
 11
339.5289807530568
 21
295.42257139544
 31
0
  0
LINE
  8
1
 62
3
 10
340.5382735643569
 20
292.42257139544
 30
0
 11
339.5289807530568
 21
292.42257139544
 31
0
  0
LINE
  8
1
 62
3
 10
337.809444852324
 20
292.42257139544
 30
0
 11
337.809444852324
 21
295.42257139544
 31
0
  0
LINE
  8
1
 62
3
 10
337.809444852324
 20
295.42257139544
 30
0
 11
333.7569603577638
 21
295.42257139544
 31
0
  0
LINE
  8
1
 62
3
 10
339.5289807530568
 20
270.42257139544
 30
0
 11
339.5289807530568
 21
267.42257139544
 31
0
  0
LINE
  8
1
 62
3
 10
339.5289807530568
 20
270.42257139544
 30
0
 11
338.2580194351239
 21
270.42257139544
 31
0
  0
LINE
  8
1
 62
3
 10
339.5289807530568
 20
267.42257139544
 30
0
 11
340.5382735643569
 21
267.42257139544
 31
0
  0
LINE
  8
1
 62
3
 10
338.2580194351239
 20
267.42257139544
 30
0
 11
338.2580194351239
 21
270.42257139544
 31
0
  0
LINE
  8
1
 62
3
 10
338.2580194351239
 20
267.42257139544
 30
0
 11
339.5289807530568
 21
267.42257139544
 31
0
  0
LINE
  8
1
 62
3
 10
338.2580194351239
 20
270.42257139544
 30
0
 11
337.809444852324
 21
270.42257139544
 31
0
  0
LINE
  8
1
 62
3
 10
339.5289807530568
 20
295.42257139544
 30
0
 11
339.5289807530568
 21
292.42257139544
 31
0
  0
LINE
  8
1
 62
3
 10
339.5289807530568
 20
295.42257139544
 30
0
 11
338.2580194351239
 21
295.42257139544
 31
0
  0
LINE
  8
1
 62
3
 10
339.5289807530568
 20
292.42257139544
 30
0
 11
338.2580194351239
 21
292.42257139544
 31
0
  0
LINE
  8
1
 62
3
 10
338.2580194351239
 20
292.42257139544
 30
0
 11
338.2580194351239
 21
295.42257139544
 31
0
  0
LINE
  8
1
 62
3
 10
338.2580194351239
 20
292.42257139544
 30
0
 11
337.809444852324
 21
292.42257139544
 31
0
  0
LINE
  8
1
 62
3
 10
338.2580194351239
 20
295.42257139544
 30
0
 11
337.809444852324
 21
295.42257139544
 31
0
  0
LINE
  8
1
 62
3
 10
336.9122956867249
 20
273.4725713954401
 30
0
 11
336.9122956867249
 21
275.4725713954401
 31
0
  0
LINE
  8
1
 62
3
 10
336.9122956867249
 20
273.4725713954401
 30
0
 11
341.6569603577639
 21
273.4725713954401
 31
0
  0
LINE
  8
1
 62
3
 10
336.9122956867249
 20
275.4725713954401
 30
0
 11
336.3515774582249
 21
275.4725713954401
 31
0
  0
LINE
  8
1
 62
3
 10
336.9122956867249
 20
287.3725713954401
 30
0
 11
336.9122956867249
 21
289.3725713954401
 31
0
  0
LINE
  8
1
 62
3
 10
336.9122956867249
 20
287.3725713954401
 30
0
 11
341.6569603577639
 21
287.3725713954401
 31
0
  0
LINE
  8
1
 62
3
 10
336.9122956867249
 20
289.3725713954401
 30
0
 11
336.3515774582249
 21
289.3725713954401
 31
0
  0
LINE
  8
1
 62
3
 10
248.4426812210738
 20
271.92257139544
 30
0
 11
252.5955109038549
 21
271.92257139544
 31
0
  0
LINE
  8
1
 62
3
 10
248.4426812210738
 20
271.92257139544
 30
0
 11
248.4426812210738
 21
270.92257139544
 31
0
  0
LINE
  8
1
 62
3
 10
252.5955109038549
 20
271.92257139544
 30
0
 11
252.5955109038549
 21
270.92257139544
 31
0
  0
LINE
  8
1
 62
3
 10
252.5955109038549
 20
270.92257139544
 30
0
 11
248.4426812210738
 21
270.92257139544
 31
0
  0
LINE
  8
1
 62
3
 10
248.4426812210738
 20
274.42257139544
 30
0
 11
252.5955109038549
 21
274.42257139544
 31
0
  0
LINE
  8
1
 62
3
 10
248.4426812210738
 20
274.42257139544
 30
0
 11
248.4426812210738
 21
273.42257139544
 31
0
  0
LINE
  8
1
 62
3
 10
252.5955109038549
 20
274.42257139544
 30
0
 11
252.5955109038549
 21
273.42257139544
 31
0
  0
LINE
  8
1
 62
3
 10
252.5955109038549
 20
273.42257139544
 30
0
 11
248.4426812210738
 21
273.42257139544
 31
0
  0
LINE
  8
1
 62
3
 10
248.4426812210738
 20
276.92257139544
 30
0
 11
252.5955109038549
 21
276.92257139544
 31
0
  0
LINE
  8
1
 62
3
 10
248.4426812210738
 20
276.92257139544
 30
0
 11
248.4426812210738
 21
275.92257139544
 31
0
  0
LINE
  8
1
 62
3
 10
252.5955109038549
 20
276.92257139544
 30
0
 11
252.5955109038549
 21
275.92257139544
 31
0
  0
LINE
  8
1
 62
3
 10
252.5955109038549
 20
275.92257139544
 30
0
 11
248.4426812210738
 21
275.92257139544
 31
0
  0
LINE
  8
1
 62
3
 10
248.4426812210738
 20
279.42257139544
 30
0
 11
252.5955109038549
 21
279.42257139544
 31
0
  0
LINE
  8
1
 62
3
 10
248.4426812210738
 20
279.42257139544
 30
0
 11
248.4426812210738
 21
278.42257139544
 31
0
  0
LINE
  8
1
 62
3
 10
252.5955109038549
 20
279.42257139544
 30
0
 11
252.5955109038549
 21
278.42257139544
 31
0
  0
LINE
  8
1
 62
3
 10
252.5955109038549
 20
278.42257139544
 30
0
 11
248.4426812210738
 21
278.42257139544
 31
0
  0
LINE
  8
1
 62
3
 10
248.4426812210738
 20
281.92257139544
 30
0
 11
252.5955109038549
 21
281.92257139544
 31
0
  0
LINE
  8
1
 62
3
 10
248.4426812210738
 20
281.92257139544
 30
0
 11
248.4426812210738
 21
280.92257139544
 31
0
  0
LINE
  8
1
 62
3
 10
252.5955109038549
 20
281.92257139544
 30
0
 11
252.5955109038549
 21
280.92257139544
 31
0
  0
LINE
  8
1
 62
3
 10
252.5955109038549
 20
280.92257139544
 30
0
 11
248.4426812210738
 21
280.92257139544
 31
0
  0
LINE
  8
1
 62
3
 10
248.4426812210738
 20
284.42257139544
 30
0
 11
252.5955109038549
 21
284.42257139544
 31
0
  0
LINE
  8
1
 62
3
 10
248.4426812210738
 20
284.42257139544
 30
0
 11
248.4426812210738
 21
283.42257139544
 31
0
  0
LINE
  8
1
 62
3
 10
252.5955109038549
 20
284.42257139544
 30
0
 11
252.5955109038549
 21
283.42257139544
 31
0
  0
LINE
  8
1
 62
3
 10
252.5955109038549
 20
283.42257139544
 30
0
 11
248.4426812210738
 21
283.42257139544
 31
0
  0
LINE
  8
1
 62
3
 10
248.4426812210738
 20
286.92257139544
 30
0
 11
252.5955109038549
 21
286.92257139544
 31
0
  0
LINE
  8
1
 62
3
 10
248.4426812210738
 20
286.92257139544
 30
0
 11
248.4426812210738
 21
285.92257139544
 31
0
  0
LINE
  8
1
 62
3
 10
252.5955109038549
 20
286.92257139544
 30
0
 11
252.5955109038549
 21
285.92257139544
 31
0
  0
LINE
  8
1
 62
3
 10
252.5955109038549
 20
285.92257139544
 30
0
 11
248.4426812210738
 21
285.92257139544
 31
0
  0
LINE
  8
1
 62
3
 10
248.4426812210738
 20
289.42257139544
 30
0
 11
252.5955109038549
 21
289.42257139544
 31
0
  0
LINE
  8
1
 62
3
 10
248.4426812210738
 20
289.42257139544
 30
0
 11
248.4426812210738
 21
288.42257139544
 31
0
  0
LINE
  8
1
 62
3
 10
252.5955109038549
 20
289.42257139544
 30
0
 11
252.5955109038549
 21
288.42257139544
 31
0
  0
LINE
  8
1
 62
3
 10
252.5955109038549
 20
288.42257139544
 30
0
 11
248.4426812210738
 21
288.42257139544
 31
0
  0
LINE
  8
1
 62
3
 10
248.4426812210738
 20
291.92257139544
 30
0
 11
252.5955109038549
 21
291.92257139544
 31
0
  0
LINE
  8
1
 62
3
 10
248.4426812210738
 20
291.92257139544
 30
0
 11
248.4426812210738
 21
290.92257139544
 31
0
  0
LINE
  8
1
 62
3
 10
252.5955109038549
 20
291.92257139544
 30
0
 11
252.5955109038549
 21
290.92257139544
 31
0
  0
LINE
  8
1
 62
3
 10
252.5955109038549
 20
290.92257139544
 30
0
 11
248.4426812210738
 21
290.92257139544
 31
0
  0
LINE
  8
1
 62
3
 10
256.3426812210739
 20
287.3725713954401
 30
0
 11
256.3426812210739
 21
292.92257139544
 31
0
  0
LINE
  8
1
 62
3
 10
256.3426812210739
 20
290.92257139544
 30
0
 11
256.3426812210739
 21
291.92257139544
 31
0
  0
LINE
  8
1
 62
3
 10
256.3426812210739
 20
288.42257139544
 30
0
 11
256.3426812210739
 21
289.42257139544
 31
0
  0
LINE
  8
1
 62
3
 10
256.3426812210739
 20
290.42257139544
 30
0
 11
256.3426812210739
 21
281.92257139544
 31
0
  0
LINE
  8
1
 62
3
 10
313.7569603577637
 20
281.92257139544
 30
0
 11
293.7393429380242
 21
281.92257139544
 31
0
  0
LINE
  8
1
 62
3
 10
256.3426812210739
 20
292.92257139544
 30
0
 11
256.3426812210739
 21
281.92257139544
 31
0
  0
LINE
  8
1
 62
3
 10
313.7569603577637
 20
280.92257139544
 30
0
 11
294.4423480710863
 21
280.8763290944219
 31
0
  0
LINE
  8
1
 62
3
 10
333.7569603577638
 20
295.42257139544
 30
0
 11
333.7569603577638
 21
287.3725713954401
 31
0
  0
LINE
  8
1
 62
3
 10
333.7569603577638
 20
294.42257139544
 30
0
 11
333.7569603577638
 21
293.42257139544
 31
0
  0
LINE
  8
1
 62
3
 10
333.7569603577638
 20
267.42257139544
 30
0
 11
333.7569603577638
 21
290.42257139544
 31
0
  0
LINE
  8
1
 62
3
 10
333.7569603577638
 20
269.92257139544
 30
0
 11
333.7569603577638
 21
292.92257139544
 31
0
  0
LINE
  8
1
 62
3
 10
256.3426812210739
 20
281.92257139544
 30
0
 11
256.3426812210739
 21
280.8074418178584
 31
0
  0
LINE
  8
1
 62
3
 10
256.3426812210739
 20
281.92257139544
 30
0
 11
256.3426812210739
 21
280.8074418178584
 31
0
  0
LINE
  8
1
 62
3
 10
256.3426812210739
 20
280.8074418178584
 30
0
 11
256.3426812210739
 21
269.92257139544
 31
0
  0
LINE
  8
1
 62
3
 10
256.3426812210739
 20
280.8074418178584
 30
0
 11
256.3426812210739
 21
269.92257139544
 31
0
  0
LINE
  8
1
 62
3
 10
333.7569603577638
 20
295.42257139544
 30
0
 11
333.7569603577638
 21
287.3725713954401
 31
0
  0
LINE
  8
1
 62
3
 10
333.7569603577638
 20
294.42257139544
 30
0
 11
333.7569603577638
 21
293.42257139544
 31
0
  0
LINE
  8
1
 62
3
 10
333.7569603577638
 20
289.42257139544
 30
0
 11
333.7569603577638
 21
288.42257139544
 31
0
  0
LINE
  8
1
 62
3
 10
333.7569603577638
 20
279.4500448697572
 30
0
 11
333.7569603577638
 21
290.42257139544
 31
0
  0
LINE
  8
1
 62
3
 10
333.7569603577638
 20
279.4500448697572
 30
0
 11
333.7569603577638
 21
292.92257139544
 31
0
  0
LINE
  8
1
 62
3
 10
333.7569603577638
 20
278.3349152921755
 30
0
 11
333.7569603577638
 21
279.4500448697572
 31
0
  0
LINE
  8
1
 62
3
 10
333.7569603577638
 20
278.3349152921755
 30
0
 11
333.7569603577638
 21
279.4500448697572
 31
0
  0
LINE
  8
1
 62
3
 10
333.7569603577638
 20
267.42257139544
 30
0
 11
333.7569603577638
 21
278.3349152921755
 31
0
  0
LINE
  8
1
 62
3
 10
333.7569603577638
 20
269.92257139544
 30
0
 11
333.7569603577638
 21
278.3349152921755
 31
0
  0
LINE
  8
1
 62
3
 10
295.5430336913499
 20
79.83336988345377
 30
0
 11
299.5430336913507
 21
79.83336988345377
 31
0
  0
LINE
  8
1
 62
3
 10
295.5430336913499
 20
39.23336988345378
 30
0
 11
299.5430336913507
 21
39.23336988345378
 31
0
  0
LINE
  8
1
 62
3
 10
475.358203478264
 20
162.8477413329838
 30
0
 11
475.358203478264
 21
195.8477413329838
 31
0
  0
LINE
  8
1
 62
3
 10
475.358203478264
 20
129.8477413329838
 30
0
 11
475.358203478264
 21
162.8477413329838
 31
0
  0
LINE
  8
1
 62
3
 10
468.358203478264
 20
122.8477413329838
 30
0
 11
449.7575897055304
 21
122.8477413329828
 31
0
  0
LINE
  8
1
 62
3
 10
395.358203478264
 20
129.8477413329838
 30
0
 11
395.358203478264
 21
162.8477413329838
 31
0
  0
LINE
  8
1
 62
3
 10
395.358203478264
 20
162.8477413329838
 30
0
 11
395.358203478264
 21
195.8477413329838
 31
0
  0
LINE
  8
1
 62
3
 10
402.358203478264
 20
202.8477413329838
 30
0
 11
468.358203478264
 21
202.8477413329838
 31
0
  0
LINE
  8
1
 62
3
 10
421.7575897055304
 20
122.8477413329829
 30
0
 11
402.358203478264
 21
122.8477413329838
 31
0
  0
ARC
  8
1
 62
3
 10
296.2538336169133
 20
76.78336988345377
 30
0
 40
2.982960852905246
 50
37.11575597786805
 51
55.21831468209344
  0
ARC
  8
1
 62
3
 10
294.0567490503769
 20
77.13336988345385
 30
0
 40
4.799999999999915
 50
342.4172239915744
 51
355.6688512692123
  0
ARC
  8
1
 62
3
 10
296.2538336169131
 20
77.48336988345376
 30
0
 40
2.982960852905305
 50
304.781685317911
 51
322.8842440221389
  0
ARC
  8
1
 62
3
 10
294.0567490503769
 20
77.13336988345385
 30
0
 40
4.799999999999818
 50
4.331148730789072
 51
17.58277600842688
  0
ARC
  8
1
 62
3
 10
296.2538336169133
 20
42.28336988345377
 30
0
 40
2.982960852905149
 50
304.7816853179065
 51
322.884244022132
  0
ARC
  8
1
 62
3
 10
294.0567490503769
 20
41.93336988345369
 30
0
 40
4.79999999999981
 50
4.331148730787718
 51
17.58277600842559
  0
ARC
  8
1
 62
3
 10
296.2538336169131
 20
41.58336988345378
 30
0
 40
2.982960852905261
 50
37.11575597786117
 51
55.21831468208904
  0
ARC
  8
1
 62
3
 10
294.0567490503769
 20
41.93336988345369
 30
0
 40
4.799999999999949
 50
342.4172239915731
 51
355.668851269211
  0
ARC
  8
1
 62
3
 10
430.1614372828238
 20
165.8477413329838
 30
0
 40
1.500000000000171
 50
52.81924421854449
 51
247.1807557814593
  0
ARC
  8
1
 62
3
 10
435.3575897055303
 20
162.8477413329838
 30
0
 40
5.999999999999986
 50
284.361511562916
 51
0
  0
ARC
  8
1
 62
3
 10
435.3575897055303
 20
162.8477413329838
 30
0
 40
6.000000000000093
 50
44.3615115629181
 51
135.6384884370812
  0
ARC
  8
1
 62
3
 10
435.3575897055303
 20
156.8477413329838
 30
0
 40
1.499999999999942
 50
172.8192442185414
 51
7.180755781458561
  0
ARC
  8
1
 62
3
 10
440.5537421282371
 20
165.8477413329838
 30
0
 40
1.499999999999894
 50
292.8192442185368
 51
127.1807557814607
  0
ARC
  8
1
 62
3
 10
435.3575897055303
 20
162.8477413329838
 30
0
 40
5.999999999999859
 50
164.3615115629157
 51
255.638488437084
  0
ARC
  8
1
 62
3
 10
435.3575897055303
 20
162.8477413329838
 30
0
 40
6
 50
0
 51
15.63848843708385
  0
ARC
  8
1
 62
3
 10
417.757591253199
 20
126.8484636221384
 30
0
 40
0.4571999999999119
 50
172.5415509436758
 51
187.4584490563224
  0
ARC
  8
1
 62
3
 10
417.757591253199
 20
126.8484636221384
 30
0
 40
1.044000000000023
 50
120.2161982852389
 51
149.7838017147399
  0
ARC
  8
1
 62
3
 10
417.757591253199
 20
126.8484636221384
 30
0
 40
0.4571999999999489
 50
82.54155094364053
 51
97.45844905626058
  0
ARC
  8
1
 62
3
 10
417.757591253199
 20
126.8484636221384
 30
0
 40
1.044000000000393
 50
30.21619828523973
 51
59.7838017147368
  0
ARC
  8
1
 62
3
 10
417.757591253199
 20
126.8484636221384
 30
0
 40
0.4572000000001919
 50
352.5415509436822
 51
7.458449056319535
  0
ARC
  8
1
 62
3
 10
417.757591253199
 20
126.8484636221384
 30
0
 40
1.044000000000268
 50
300.2161982852635
 51
329.783801714761
  0
ARC
  8
1
 62
3
 10
417.757591253199
 20
126.8484636221384
 30
0
 40
0.4571999999998455
 50
262.5415509437394
 51
277.4584490563595
  0
ARC
  8
1
 62
3
 10
417.757591253199
 20
126.8484636221384
 30
0
 40
1.043999999999747
 50
210.2161982852595
 51
239.7838017147607
  0
ARC
  8
1
 62
3
 10
452.9575881578615
 20
126.8484636221383
 30
0
 40
0.4571999999999119
 50
172.5415509436758
 51
187.4584490563242
  0
ARC
  8
1
 62
3
 10
452.9575881578615
 20
126.8484636221383
 30
0
 40
1.04400000000008
 50
120.2161982852443
 51
149.783801714743
  0
ARC
  8
1
 62
3
 10
452.9575881578615
 20
126.8484636221383
 30
0
 40
0.4571999999999414
 50
82.54155094364758
 51
97.45844905628884
  0
ARC
  8
1
 62
3
 10
452.9575881578615
 20
126.8484636221383
 30
0
 40
1.044000000000196
 50
30.21619828524601
 51
59.78380171473143
  0
ARC
  8
1
 62
3
 10
452.9575881578615
 20
126.8484636221383
 30
0
 40
0.4572000000004191
 50
352.5415509436841
 51
7.458449056315838
  0
ARC
  8
1
 62
3
 10
452.9575881578615
 20
126.8484636221383
 30
0
 40
1.044000000000337
 50
300.2161982852686
 51
329.7838017147547
  0
ARC
  8
1
 62
3
 10
452.9575881578615
 20
126.8484636221383
 30
0
 40
0.457199999999875
 50
262.5415509437112
 51
277.4584490563524
  0
ARC
  8
1
 62
3
 10
452.9575881578615
 20
126.8484636221383
 30
0
 40
1.043999999999845
 50
210.2161982852563
 51
239.7838017147557
  0
ARC
  8
1
 62
3
 10
435.3575897055303
 20
162.8477413329838
 30
0
 40
32.50000000000031
 50
210.0576211967898
 51
210.5882742142301
  0
ARC
  8
1
 62
4
 10
435.3575897055303
 20
162.8477413329838
 30
0
 40
32.50000000000031
 50
210.0576211967898
 51
210.5882742142301
  0
ARC
  8
1
 62
3
 10
435.3575897055303
 20
162.8477413329838
 30
0
 40
32.49999999999985
 50
101.832269048497
 51
180
  0
ARC
  8
1
 62
3
 10
435.3575897055303
 20
162.8477413329838
 30
0
 40
32.5
 50
180
 51
228.2704652751674
  0
ARC
  8
1
 62
3
 10
435.3575897055303
 20
162.8477413329838
 30
0
 40
32.50000000000011
 50
313.3451802810879
 51
78.16773095150302
  0
ARC
  8
1
 62
3
 10
435.3575897055303
 20
162.8477413329838
 30
0
 40
32.5
 50
180
 51
228.2704652751674
  0
ARC
  8
1
 62
3
 10
296.2538336169132
 20
127.1984636221385
 30
0
 40
2.982960852905155
 50
304.7816853179064
 51
322.8842440221329
  0
ARC
  8
1
 62
3
 10
294.0567490503769
 20
126.8484636221384
 30
0
 40
4.79999999999981
 50
4.331148730787718
 51
17.58277600842575
  0
ARC
  8
1
 62
3
 10
296.253833616913
 20
126.4984636221385
 30
0
 40
2.982960852905301
 50
37.1157559778604
 51
55.21831468208897
  0
ARC
  8
1
 62
3
 10
294.0567490503769
 20
126.8484636221384
 30
0
 40
4.799999999999949
 50
342.4172239915731
 51
355.6688512692111
  0
ARC
  8
1
 62
3
 10
166.9882203370125
 20
163.3416216593664
 30
0
 40
4.806808424543289
 50
90.96994142320934
 51
185.8973193016913
  0
ARC
  8
1
 62
3
 10
166.8254823497052
 20
163.3416216593664
 30
0
 40
4.806808424543241
 50
354.1026806983087
 51
89.03005857679203
  0
ARC
  8
1
 62
3
 10
166.9068513433588
 20
162.8477413329838
 30
0
 40
4.699999999999903
 50
180
 51
221.8683062262925
  0
ARC
  8
1
 62
3
 10
166.9068513433588
 20
162.8477413329838
 30
0
 40
4.700000000000033
 50
318.1316937737067
 51
0
  0
CIRCLE
  8
1
 62
1
  6
DASHDOT
 10
166.9068513433588
 20
162.8477413329838
 30
0
 40
2.900000000000006
  0
CIRCLE
  8
1
 62
3
 10
166.9068513433588
 20
162.8477413329838
 30
0
 40
3.499999999999915
  0
CIRCLE
  8
1
 62
3
 10
300.0131414639286
 20
69.53336988345377
 30
0
 40
0.3499999999997954
  0
CIRCLE
  8
1
 62
3
 10
300.0131414639286
 20
67.03336988345377
 30
0
 40
0.3499999999996817
  0
CIRCLE
  8
1
 62
3
 10
300.0131414639286
 20
64.53336988345377
 30
0
 40
0.3499999999996817
  0
CIRCLE
  8
1
 62
3
 10
300.0131414639286
 20
62.03336988345377
 30
0
 40
0.3499999999996817
  0
CIRCLE
  8
1
 62
3
 10
300.0131414639286
 20
49.53336988345377
 30
0
 40
0.3499999999996817
  0
CIRCLE
  8
1
 62
3
 10
300.0131414639286
 20
52.03336988345377
 30
0
 40
0.3499999999996817
  0
CIRCLE
  8
1
 62
3
 10
300.0131414639286
 20
54.53336988345377
 30
0
 40
0.3499999999996817
  0
CIRCLE
  8
1
 62
3
 10
300.0131414639286
 20
57.03336988345377
 30
0
 40
0.3499999999996817
  0
CIRCLE
  8
1
 62
3
 10
300.0131414639286
 20
59.53336988345377
 30
0
 40
0.3499999999996817
  0
CIRCLE
  8
1
 62
3
 10
300.0131414639286
 20
47.03336988345377
 30
0
 40
0.3499999999996817
  0
CIRCLE
  8
1
 62
3
 10
300.0131414639286
 20
72.03336988345377
 30
0
 40
0.3499999999997954
  0
CIRCLE
  8
1
 62
3
 10
435.358203478264
 20
162.8477413329838
 30
0
 40
4
  0
CIRCLE
  8
1
 62
3
 10
435.358203478264
 20
162.8477413329838
 30
0
 40
5.999388762663936
  0
CIRCLE
  8
1
 62
3
 10
435.358203478264
 20
162.8477413329838
 30
0
 40
31
  0
CIRCLE
  8
1
 62
3
 10
417.757591253199
 20
126.8484636221384
 30
0
 40
2.015999999999679
  0
CIRCLE
  8
1
 62
3
 10
452.9575881578615
 20
126.8484636221383
 30
0
 40
2.015999999999622
  0
CIRCLE
  8
1
 62
3
 10
402.1075897055302
 20
196.0977413329837
 30
0
 40
4
  0
CIRCLE
  8
1
 62
3
 10
402.1075897055302
 20
129.5977413329839
 30
0
 40
4
  0
CIRCLE
  8
1
 62
3
 10
468.6075897055303
 20
129.5977413329838
 30
0
 40
4.000000000000227
  0
CIRCLE
  8
1
 62
3
 10
468.6075897055303
 20
196.0977413329837
 30
0
 40
4.000000000000227
  0
CIRCLE
  8
1
 62
3
 10
468.6075897055303
 20
196.0977413329837
 30
0
 40
2.599999999999798
  0
CIRCLE
  8
1
 62
3
 10
468.6075897055303
 20
129.5977413329838
 30
0
 40
2.599999999999896
  0
CIRCLE
  8
1
 62
3
 10
402.1075897055302
 20
196.0977413329837
 30
0
 40
2.599999999999896
  0
CIRCLE
  8
1
 62
3
 10
402.1075897055302
 20
129.5977413329839
 30
0
 40
2.599999999999839
  0
CIRCLE
  8
1
 62
3
 10
166.9068513433588
 20
162.8477413329838
 30
0
 40
11.84999999999999
  0
CIRCLE
  8
1
 62
3
 10
166.9068513433588
 20
162.8477413329838
 30
0
 40
36.65000000000001
  0
CIRCLE
  8
1
 62
3
 10
166.9068513433588
 20
162.8477413329838
 30
0
 40
33.5
  0
CIRCLE
  8
1
 62
3
 10
166.9068513433588
 20
162.8477413329838
 30
0
 40
11
  0
CIRCLE
  8
1
 62
3
 10
133.6568513433588
 20
196.0977413329838
 30
0
 40
2.750000000000069
  0
CIRCLE
  8
1
 62
3
 10
200.1568513433588
 20
196.0977413329838
 30
0
 40
2.750000000000086
  0
CIRCLE
  8
1
 62
3
 10
133.6568513433588
 20
129.5977413329838
 30
0
 40
2.749999999999998
  0
CIRCLE
  8
1
 62
3
 10
200.1568513433588
 20
129.5977413329838
 30
0
 40
2.749999999999922
  0
POLYLINE
  8
1
 62
3
 66
1
  0
VERTEX
  8
1
 10
294.872886785724
 20
285.92257139544
 30
0
 42
0.005610045220671585
  0
VERTEX
  8
1
 10
294.3937223120725
 20
285.321042658563
 30
0
 42
0.01766205651888389
  0
VERTEX
  8
1
 10
293.9589886590028
 20
284.7198961059052
 30
0
 42
0.03408297587023102
  0
VERTEX
  8
1
 10
293.6131166470966
 20
284.1195139216859
 30
0
 42
0.05686596115267618
  0
VERTEX
  8
1
 10
293.4005370969358
 20
283.5202782901245
 30
0
 42
0.08472232245183484
  0
VERTEX
  8
1
 10
293.365680829102
 20
282.92257139544
 30
0
 42
0.1038365951312143
  0
VERTEX
  8
1
 10
293.6260892211326
 20
282.1307268186346
 30
0
 42
0.01466668619460798
  0
VERTEX
  8
1
 10
294.116143274763
 20
281.3385298655885
 30
0
 42
0.01363408149602154
  0
VERTEX
  8
1
 10
294.6733653409833
 20
280.5422552009452
 30
0
 42
-0.04258924877934615
  0
VERTEX
  8
1
 10
295.1352777707839
 20
279.738177489348
 30
0
 42
-0.09880128485624096
  0
VERTEX
  8
1
 10
295.339402915155
 20
278.92257139544
 30
0
 42
-0.05425642054196173
  0
VERTEX
  8
1
 10
295.3044709902996
 20
278.5267740008654
 30
0
 42
-0.03886192777691091
  0
VERTEX
  8
1
 10
295.1923466182396
 20
278.1281748693405
 30
0
 42
-0.02511887737130828
  0
VERTEX
  8
1
 10
295.0223279107763
 20
277.7274744351029
 30
0
 42
-0.01391435860725092
  0
VERTEX
  8
1
 10
294.8137129797107
 20
277.3253731323903
 30
0
 42
-0.004443253589491103
  0
VERTEX
  8
1
 10
294.585799936844
 20
276.92257139544
 30
0
  0
SEQEND
  8
1
  0
POLYLINE
  8
1
 62
3
 66
1
  0
VERTEX
  8
1
 10
294.0116262390831
 20
285.92257139544
 30
0
 42
0.006401683005912781
  0
VERTEX
  8
1
 10
293.5160448508768
 20
285.0984412264237
 30
0
 42
0.02019686451651793
  0
VERTEX
  8
1
 10
293.0815585615294
 20
284.2803435996615
 30
0
 42
0.03911197960765586
  0
VERTEX
  8
1
 10
292.7692624699
 20
283.4743110574075
 30
0
 42
0.06467125169448075
  0
VERTEX
  8
1
 10
292.6402516748476
 20
282.6863761419156
 30
0
 42
0.0917778081071199
  0
VERTEX
  8
1
 10
292.755621275231
 20
281.92257139544
 30
0
 42
0.06213484501138507
  0
VERTEX
  8
1
 10
293.0525612827439
 20
281.3187886816039
 30
0
 42
0.01032167272016497
  0
VERTEX
  8
1
 10
293.4596863404212
 20
280.7260115528038
 30
0
 42
-0.008968366807579321
  0
VERTEX
  8
1
 10
293.8834163324484
 20
280.1351257809218
 30
0
 42
-0.04086910226542711
  0
VERTEX
  8
1
 10
294.2301711430109
 20
279.5370171378399
 30
0
 42
-0.08398492570946486
  0
VERTEX
  8
1
 10
294.406370656294
 20
278.92257139544
 30
0
 42
-0.05745879019271401
  0
VERTEX
  8
1
 10
294.3965934558613
 20
278.5340775803239
 30
0
 42
-0.04092577827174052
  0
VERTEX
  8
1
 10
294.3072083343862
 20
278.1379129752851
 30
0
 42
-0.02623680825995582
  0
VERTEX
  8
1
 10
294.1581172721295
 20
277.7359952778044
 30
0
 42
-0.0144401250856091
  0
VERTEX
  8
1
 10
293.9692222493516
 20
277.3302421853625
 30
0
 42
-0.004595698193081628
  0
VERTEX
  8
1
 10
293.7604252463131
 20
276.92257139544
 30
0
  0
SEQEND
  8
1
  0
POLYLINE
  8
1
 62
3
 66
1
  0
VERTEX
  8
1
 10
256.3426812210739
 20
291.92257139544
 30
0
 42
-0.001282843573272287
  0
VERTEX
  8
1
 10
257.2519867583679
 20
291.8188450552331
 30
0
 42
-0.003855547891099806
  0
VERTEX
  8
1
 10
258.15935203445
 20
291.7058866389364
 30
0
 42
-0.006445299873532573
  0
VERTEX
  8
1
 10
259.0628367881083
 20
291.5744640704606
 30
0
 42
-0.009049879607964141
  0
VERTEX
  8
1
 10
259.9605007581309
 20
291.4153452737158
 30
0
 42
-0.01164617623651887
  0
VERTEX
  8
1
 10
260.8504036833058
 20
291.2192981726127
 30
0
 42
-0.008743508454729237
  0
VERTEX
  8
1
 10
261.4667560797683
 20
291.0562148945488
 30
0
 42
-0.008173065875625576
  0
VERTEX
  8
1
 10
262.0778912151171
 20
290.8721834521487
 30
0
 42
-0.0076219147065797
  0
VERTEX
  8
1
 10
262.6833307319
 20
290.6688041497651
 30
0
 42
-0.007091699757979201
  0
VERTEX
  8
1
 10
263.282596272665
 20
290.4476772917507
 30
0
 42
-0.006583037128397591
  0
VERTEX
  8
1
 10
263.8752094799598
 20
290.2104031824583
 30
0
 42
-0.008713060780503308
  0
VERTEX
  8
1
 10
264.8340030462886
 20
289.7909508680479
 30
0
 42
-0.005295441891798446
  0
VERTEX
  8
1
 10
265.78021035799
 20
289.3450086391697
 30
0
 42
-0.00186375432851045
  0
VERTEX
  8
1
 10
266.7204687503511
 20
288.8853036144953
 30
0
 42
0.001562292244643312
  0
VERTEX
  8
1
 10
267.6614155586593
 20
288.4245629126964
 30
0
 42
0.00497699596870775
  0
VERTEX
  8
1
 10
268.6096881182018
 20
287.9755136524445
 30
0
 42
0.006696095144248365
  0
VERTEX
  8
1
 10
269.4132713787917
 20
287.6177014463308
 30
0
 42
0.007803666421302618
  0
VERTEX
  8
1
 10
270.2268877208241
 20
287.2833410921431
 30
0
 42
0.01011296588916227
  0
VERTEX
  8
1
 10
271.0507874251493
 20
286.9787763400278
 30
0
 42
0.01131361176727459
  0
VERTEX
  8
1
 10
271.8852207726175
 20
286.7103509401311
 30
0
 42
0.02500283413435364
  0
VERTEX
  8
1
 10
273.4436722934187
 20
286.3312671205925
 30
0
 42
0.007638934575590227
  0
VERTEX
  8
1
 10
274.163049466798
 20
286.2053083136358
 30
0
 42
0.006629896808693485
  0
VERTEX
  8
1
 10
274.8870338332069
 20
286.0997365429664
 30
0
 42
0.002849043767253928
  0
VERTEX
  8
1
 10
275.6140896616354
 20
286.007756129822
 30
0
 42
0.00187780974276844
  0
VERTEX
  8
1
 10
276.3426812210738
 20
285.92257139544
 30
0
  0
SEQEND
  8
1
  0
POLYLINE
  8
1
 62
3
 66
1
  0
VERTEX
  8
1
 10
256.3426812210739
 20
290.92257139544
 30
0
 42
-0.001282843573272287
  0
VERTEX
  8
1
 10
257.2519867583679
 20
290.8188450552331
 30
0
 42
-0.003855547891099806
  0
VERTEX
  8
1
 10
258.15935203445
 20
290.7058866389364
 30
0
 42
-0.006445299873532573
  0
VERTEX
  8
1
 10
259.0628367881083
 20
290.5744640704606
 30
0
 42
-0.009049879607902852
  0
VERTEX
  8
1
 10
259.9605007581309
 20
290.4153452737159
 30
0
 42
-0.01164617623657928
  0
VERTEX
  8
1
 10
260.8504036833058
 20
290.2192981726127
 30
0
 42
-0.008743508454814952
  0
VERTEX
  8
1
 10
261.4667560797683
 20
290.0562148945487
 30
0
 42
-0.008173065875624688
  0
VERTEX
  8
1
 10
262.0778912151171
 20
289.8721834521486
 30
0
 42
-0.007621914706747797
  0
VERTEX
  8
1
 10
262.6833307319
 20
289.668804149765
 30
0
 42
-0.007091699758062472
  0
VERTEX
  8
1
 10
263.282596272665
 20
289.4476772917507
 30
0
 42
-0.006583037128397591
  0
VERTEX
  8
1
 10
263.8752094799598
 20
289.2104031824583
 30
0
 42
-0.008713060780503308
  0
VERTEX
  8
1
 10
264.8340030462886
 20
288.7909508680479
 30
0
 42
-0.005295441891798446
  0
VERTEX
  8
1
 10
265.78021035799
 20
288.3450086391697
 30
0
 42
-0.00186375432851045
  0
VERTEX
  8
1
 10
266.7204687503511
 20
287.8853036144953
 30
0
 42
0.001562292244643312
  0
VERTEX
  8
1
 10
267.6614155586593
 20
287.4245629126964
 30
0
 42
0.00497699596870775
  0
VERTEX
  8
1
 10
268.6096881182018
 20
286.9755136524445
 30
0
 42
0.006696095144248365
  0
VERTEX
  8
1
 10
269.4132713787917
 20
286.6177014463308
 30
0
 42
0.007803666421302618
  0
VERTEX
  8
1
 10
270.2268877208241
 20
286.2833410921431
 30
0
 42
0.01011296588919264
  0
VERTEX
  8
1
 10
271.0507874251493
 20
285.9787763400279
 30
0
 42
0.01131361176718326
  0
VERTEX
  8
1
 10
271.8852207726175
 20
285.7103509401311
 30
0
 42
0.02500283413445885
  0
VERTEX
  8
1
 10
273.4436722934187
 20
285.3312671205925
 30
0
 42
0.007638934575542097
  0
VERTEX
  8
1
 10
274.163049466798
 20
285.2053083136358
 30
0
 42
0.006629896808703866
  0
VERTEX
  8
1
 10
274.8870338332069
 20
285.0997365429664
 30
0
 42
0.002849043767244102
  0
VERTEX
  8
1
 10
275.6140896616354
 20
285.007756129822
 30
0
 42
0.001877809742778432
  0
VERTEX
  8
1
 10
276.3426812210738
 20
284.92257139544
 30
0
  0
SEQEND
  8
1
  0
POLYLINE
  8
1
 62
3
 66
1
  0
VERTEX
  8
1
 10
256.3426812210739
 20
289.42257139544
 30
0
 42
-0.002401515546323807
  0
VERTEX
  8
1
 10
257.0871582830528
 20
289.4808795759925
 30
0
 42
-0.007270061774089168
  0
VERTEX
  8
1
 10
257.8292563257381
 20
289.5246107114068
 30
0
 42
-0.01231149283695532
  0
VERTEX
  8
1
 10
258.5665963298362
 20
289.539187756545
 30
0
 42
-0.01755354876930317
  0
VERTEX
  8
1
 10
259.2967992760537
 20
289.5100336662687
 30
0
 42
-0.02286882021829416
  0
VERTEX
  8
1
 10
260.0174861450968
 20
289.42257139544
 30
0
 42
-0.02422950548653831
  0
VERTEX
  8
1
 10
260.7871592844239
 20
289.2512482524234
 30
0
 42
-0.01734588071484074
  0
VERTEX
  8
1
 10
261.5459105635612
 20
289.014748867037
 30
0
 42
-0.01066198829481082
  0
VERTEX
  8
1
 10
262.2968300534876
 20
288.7337527752426
 30
0
 42
-0.004244675796728469
  0
VERTEX
  8
1
 10
263.0430078251819
 20
288.4289395130016
 30
0
 42
0.002052424584238525
  0
VERTEX
  8
1
 10
263.7875339496229
 20
288.1209886162757
 30
0
 42
0.006058712418294152
  0
VERTEX
  8
1
 10
264.5840757426249
 20
287.8065556937625
 30
0
 42
0.001620781604087998
  0
VERTEX
  8
1
 10
265.3817651586066
 20
287.5057462052261
 30
0
 42
0.002483729581294767
  0
VERTEX
  8
1
 10
266.1801073411244
 20
287.2121531779464
 30
0
 42
-0.0006697605109574097
  0
VERTEX
  8
1
 10
266.9786074337343
 20
286.9193696392031
 30
0
 42
-0.002478661273250167
  0
VERTEX
  8
1
 10
267.7767705799928
 20
286.6209886162757
 30
0
 42
-0.001095647322359574
  0
VERTEX
  8
1
 10
268.454115153375
 20
286.3608628208175
 30
0
 42
0.00242487297586643
  0
VERTEX
  8
1
 10
269.1327911163391
 20
286.1022952168355
 30
0
 42
0.00595829452079679
  0
VERTEX
  8
1
 10
269.8147293609295
 20
285.8554959281103
 30
0
 42
0.0095595406333964
  0
VERTEX
  8
1
 10
270.5018607791907
 20
285.630675078422
 30
0
 42
0.01321742970679251
  0
VERTEX
  8
1
 10
271.1961162631669
 20
285.438042791551
 30
0
 42
0.02072492854061739
  0
VERTEX
  8
1
 10
272.2032240239447
 20
285.2309753468348
 30
0
 42
0.01367359041647216
  0
VERTEX
  8
1
 10
273.2251352719248
 20
285.0932233457812
 30
0
 42
0.01190594914392583
  0
VERTEX
  8
1
 10
274.2581491353069
 20
285.0074579274747
 30
0
 42
0.004970428984583799
  0
VERTEX
  8
1
 10
275.29856474229
 20
284.9563502309995
 30
0
 42
0.003400932165978251
  0
VERTEX
  8
1
 10
276.3426812210738
 20
284.92257139544
 30
0
  0
SEQEND
  8
1
  0
POLYLINE
  8
1
 62
3
 66
1
  0
VERTEX
  8
1
 10
256.3426812210739
 20
288.42257139544
 30
0
 42
-0.00240151554617215
  0
VERTEX
  8
1
 10
257.0871582830528
 20
288.4808795759925
 30
0
 42
-0.007270061773936616
  0
VERTEX
  8
1
 10
257.8292563257381
 20
288.5246107114068
 30
0
 42
-0.01231149283695532
  0
VERTEX
  8
1
 10
258.5665963298362
 20
288.539187756545
 30
0
 42
-0.01755354876922543
  0
VERTEX
  8
1
 10
259.2967992760537
 20
288.5100336662687
 30
0
 42
-0.02286882021837236
  0
VERTEX
  8
1
 10
260.0174861450968
 20
288.42257139544
 30
0
 42
-0.02422950548639768
  0
VERTEX
  8
1
 10
260.7871592844239
 20
288.2512482524234
 30
0
 42
-0.01734588071484074
  0
VERTEX
  8
1
 10
261.5459105635612
 20
288.014748867037
 30
0
 42
-0.01066198829481082
  0
VERTEX
  8
1
 10
262.2968300534876
 20
287.7337527752426
 30
0
 42
-0.0042446757965324
  0
VERTEX
  8
1
 10
263.0430078251819
 20
287.4289395130017
 30
0
 42
0.002052424584173355
  0
VERTEX
  8
1
 10
263.7875339496229
 20
287.1209886162757
 30
0
 42
0.006058712418391911
  0
VERTEX
  8
1
 10
264.5840757426249
 20
286.8065556937625
 30
0
 42
0.00162078160399002
  0
VERTEX
  8
1
 10
265.3817651586066
 20
286.5057462052261
 30
0
 42
0.002483729581392578
  0
VERTEX
  8
1
 10
266.1801073411244
 20
286.2121531779464
 30
0
 42
-0.0006697605109574097
  0
VERTEX
  8
1
 10
266.9786074337343
 20
285.9193696392031
 30
0
 42
-0.002478661273250167
  0
VERTEX
  8
1
 10
267.7767705799928
 20
285.6209886162757
 30
0
 42
-0.001095647322506123
  0
VERTEX
  8
1
 10
268.454115153375
 20
285.3608628208175
 30
0
 42
0.00242487297586643
  0
VERTEX
  8
1
 10
269.1327911163391
 20
285.1022952168355
 30
0
 42
0.00595829452079679
  0
VERTEX
  8
1
 10
269.8147293609295
 20
284.8554959281103
 30
0
 42
0.0095595406333964
  0
VERTEX
  8
1
 10
270.5018607791907
 20
284.630675078422
 30
0
 42
0.01321742970679251
  0
VERTEX
  8
1
 10
271.1961162631669
 20
284.438042791551
 30
0
 42
0.02072492854061739
  0
VERTEX
  8
1
 10
272.2032240239447
 20
284.2309753468348
 30
0
 42
0.01367359041647216
  0
VERTEX
  8
1
 10
273.2251352719248
 20
284.0932233457812
 30
0
 42
0.01190594914392583
  0
VERTEX
  8
1
 10
274.2581491353069
 20
284.0074579274747
 30
0
 42
0.004970428984556598
  0
VERTEX
  8
1
 10
275.29856474229
 20
283.9563502309995
 30
0
 42
0.003400932166059853
  0
VERTEX
  8
1
 10
276.3426812210738
 20
283.92257139544
 30
0
  0
SEQEND
  8
1
  0
POLYLINE
  8
1
 62
3
 66
1
  0
VERTEX
  8
1
 10
256.3426812210739
 20
286.9166117740709
 30
0
 42
-0.001487848289165896
  0
VERTEX
  8
1
 10
256.974774615473
 20
286.9480897046902
 30
0
 42
-0.004476505034342482
  0
VERTEX
  8
1
 10
257.6062822483721
 20
286.9719961337231
 30
0
 42
-0.007497884543778539
  0
VERTEX
  8
1
 10
258.2366183582712
 20
286.9807595595833
 30
0
 42
-0.01055265308905385
  0
VERTEX
  8
1
 10
258.8651971836704
 20
286.9668084806844
 30
0
 42
-0.01360823765821899
  0
VERTEX
  8
1
 10
259.4914329630698
 20
286.92257139544
 30
0
 42
-0.01778042054243073
  0
VERTEX
  8
1
 10
260.2461134342116
 20
286.8203176568948
 30
0
 42
-0.01672861272984049
  0
VERTEX
  8
1
 10
260.9940918995285
 20
286.6658301566804
 30
0
 42
-0.01573533131200508
  0
VERTEX
  8
1
 10
261.7329673566933
 20
286.4624695257386
 30
0
 42
-0.01482389590199838
  0
VERTEX
  8
1
 10
262.4603388033788
 20
286.2135963950112
 30
0
 42
-0.01400939333523889
  0
VERTEX
  8
1
 10
263.1738052372577
 20
285.92257139544
 30
0
 42
-0.005755986491840804
  0
VERTEX
  8
1
 10
263.636777398658
 20
285.7109507389088
 30
0
 42
0.0007264045255520593
  0
VERTEX
  8
1
 10
264.0966237638452
 20
285.4951377385894
 30
0
 42
0.007266235803541962
  0
VERTEX
  8
1
 10
264.5573242037275
 20
285.2878440963169
 30
0
 42
0.01402911607775416
  0
VERTEX
  8
1
 10
265.0228585892129
 20
285.1017815139265
 30
0
 42
0.02092265011912837
  0
VERTEX
  8
1
 10
265.4972067912099
 20
284.9496616932533
 30
0
 42
0.0258520555320615
  0
VERTEX
  8
1
 10
266.0432779187819
 20
284.829383643315
 30
0
 42
0.01307870543527287
  0
VERTEX
  8
1
 10
266.6011673752092
 20
284.7513618420883
 30
0
 42
0.01031549261583603
  0
VERTEX
  8
1
 10
267.1665829649315
 20
284.6991026369066
 30
0
 42
0.0004827589533748356
  0
VERTEX
  8
1
 10
267.7352324923886
 20
284.6561123751032
 30
0
 42
-0.006885535425577319
  0
VERTEX
  8
1
 10
268.3028237620198
 20
284.6058974040113
 30
0
 42
-0.008649353237930887
  0
VERTEX
  8
1
 10
268.8622560606155
 20
284.5367080466817
 30
0
 42
-0.004805729940294013
  0
VERTEX
  8
1
 10
269.418071792834
 20
284.4527145276194
 30
0
 42
-0.0009220831190016048
  0
VERTEX
  8
1
 10
269.9719325019386
 20
284.3625103498965
 30
0
 42
0.002980105105076571
  0
VERTEX
  8
1
 10
270.5254997311921
 20
284.2746890165853
 30
0
 42
0.00688724087548329
  0
VERTEX
  8
1
 10
271.0804350238578
 20
284.1978440307581
 30
0
 42
0.007194387541191328
  0
VERTEX
  8
1
 10
271.5195651062481
 20
284.1495938563929
 30
0
 42
0.004252160956932108
  0
VERTEX
  8
1
 10
271.9601660064467
 20
284.1113665961027
 30
0
 42
0.004734714785710826
  0
VERTEX
  8
1
 10
272.4018273825488
 20
284.0810337468314
 30
0
 42
0.001808389311924661
  0
VERTEX
  8
1
 10
272.84413889265
 20
284.0564668055228
 30
0
 42
0.00230535100031554
  0
VERTEX
  8
1
 10
273.2866901948455
 20
284.0355372691204
 30
0
 42
3.675170191369973e-005
  0
VERTEX
  8
1
 10
273.8982794877407
 20
284.0094840326192
 30
0
 42
0.001837690898360312
  0
VERTEX
  8
1
 10
274.5096080555362
 20
283.9857375039615
 30
0
 42
0.000586599310485717
  0
VERTEX
  8
1
 10
275.1207410795068
 20
283.9637210061862
 30
0
 42
0.0003522223078071303
  0
VERTEX
  8
1
 10
275.7317437409278
 20
283.9428578623326
 30
0
 42
0.0001173843016055967
  0
VERTEX
  8
1
 10
276.3426812210738
 20
283.92257139544
 30
0
  0
SEQEND
  8
1
  0
POLYLINE
  8
1
 62
3
 66
1
  0
VERTEX
  8
1
 10
256.3426812210739
 20
285.9166117740709
 30
0
 42
-0.00148784828907619
  0
VERTEX
  8
1
 10
256.974774615473
 20
285.9480897046902
 30
0
 42
-0.004476505034252997
  0
VERTEX
  8
1
 10
257.6062822483721
 20
285.9719961337231
 30
0
 42
-0.007497884543778539
  0
VERTEX
  8
1
 10
258.2366183582712
 20
285.9807595595833
 30
0
 42
-0.01055265308905385
  0
VERTEX
  8
1
 10
258.8651971836704
 20
285.9668084806844
 30
0
 42
-0.01360823765839954
  0
VERTEX
  8
1
 10
259.4914329630698
 20
285.92257139544
 30
0
 42
-0.01778042054228281
  0
VERTEX
  8
1
 10
260.2461134342116
 20
285.8203176568948
 30
0
 42
-0.01672861272984049
  0
VERTEX
  8
1
 10
260.9940918995285
 20
285.6658301566804
 30
0
 42
-0.01573533131200508
  0
VERTEX
  8
1
 10
261.7329673566933
 20
285.4624695257386
 30
0
 42
-0.01482389590192953
  0
VERTEX
  8
1
 10
262.4603388033788
 20
285.2135963950112
 30
0
 42
-0.01400939333516938
  0
VERTEX
  8
1
 10
263.1738052372577
 20
284.92257139544
 30
0
 42
-0.005755986491840804
  0
VERTEX
  8
1
 10
263.636777398658
 20
284.7109507389088
 30
0
 42
0.0007264045253494435
  0
VERTEX
  8
1
 10
264.0966237638452
 20
284.4951377385894
 30
0
 42
0.007266235803795995
  0
VERTEX
  8
1
 10
264.5573242037275
 20
284.2878440963169
 30
0
 42
0.01402911607739649
  0
VERTEX
  8
1
 10
265.0228585892129
 20
284.1017815139265
 30
0
 42
0.02092265011954111
  0
VERTEX
  8
1
 10
265.4972067912099
 20
283.9496616932533
 30
0
 42
0.02585205553159945
  0
VERTEX
  8
1
 10
266.0432779187819
 20
283.8293836433149
 30
0
 42
0.01307870543588615
  0
VERTEX
  8
1
 10
266.6011673752092
 20
283.7513618420883
 30
0
 42
0.01031549261512225
  0
VERTEX
  8
1
 10
267.1665829649315
 20
283.6991026369067
 30
0
 42
0.0004827589534742561
  0
VERTEX
  8
1
 10
267.7352324923886
 20
283.6561123751032
 30
0
 42
-0.006885535425577319
  0
VERTEX
  8
1
 10
268.3028237620198
 20
283.6058974040113
 30
0
 42
-0.008649353238130965
  0
VERTEX
  8
1
 10
268.8622560606155
 20
283.5367080466817
 30
0
 42
-0.004805729940294013
  0
VERTEX
  8
1
 10
269.418071792834
 20
283.4527145276194
 30
0
 42
-0.0009220831190016048
  0
VERTEX
  8
1
 10
269.9719325019386
 20
283.3625103498965
 30
0
 42
0.002980105105076571
  0
VERTEX
  8
1
 10
270.5254997311921
 20
283.2746890165853
 30
0
 42
0.00688724087548329
  0
VERTEX
  8
1
 10
271.0804350238578
 20
283.1978440307581
 30
0
 42
0.007194387541191328
  0
VERTEX
  8
1
 10
271.5195651062481
 20
283.1495938563929
 30
0
 42
0.004252160956932108
  0
VERTEX
  8
1
 10
271.9601660064467
 20
283.1113665961027
 30
0
 42
0.00473471478564671
  0
VERTEX
  8
1
 10
272.4018273825488
 20
283.0810337468313
 30
0
 42
0.001808389312052837
  0
VERTEX
  8
1
 10
272.84413889265
 20
283.0564668055227
 30
0
 42
0.002305351000251868
  0
VERTEX
  8
1
 10
273.2866901948455
 20
283.0355372691204
 30
0
 42
3.675170191347769e-005
  0
VERTEX
  8
1
 10
273.8982794877407
 20
283.0094840326192
 30
0
 42
0.001837690898360534
  0
VERTEX
  8
1
 10
274.5096080555362
 20
282.9857375039615
 30
0
 42
0.000586599310485717
  0
VERTEX
  8
1
 10
275.1207410795068
 20
282.9637210061862
 30
0
 42
0.0003522223078536486
  0
VERTEX
  8
1
 10
275.7317437409278
 20
282.9428578623327
 30
0
 42
0.0001173843014661527
  0
VERTEX
  8
1
 10
276.3426812210738
 20
282.92257139544
 30
0
  0
SEQEND
  8
1
  0
POLYLINE
  8
1
 62
3
 66
1
  0
VERTEX
  8
1
 10
256.3426812210739
 20
284.42257139544
 30
0
 42
-0.001393915121759076
  0
VERTEX
  8
1
 10
256.9757165371819
 20
284.4510127002667
 30
0
 42
-0.004196304012063284
  0
VERTEX
  8
1
 10
257.6079306113628
 20
284.4723436788867
 30
0
 42
-0.007037433262325245
  0
VERTEX
  8
1
 10
258.2385022016891
 20
284.4794540050934
 30
0
 42
-0.009926024469298826
  0
VERTEX
  8
1
 10
258.8666100662339
 20
284.46523335268
 30
0
 42
-0.01284330496709057
  0
VERTEX
  8
1
 10
259.4914329630698
 20
284.42257139544
 30
0
 42
-0.01770265890832708
  0
VERTEX
  8
1
 10
260.3146127181782
 20
284.3140339268271
 30
0
 42
-0.01507171499072209
  0
VERTEX
  8
1
 10
261.1312514689421
 20
284.1513225510611
 30
0
 42
-0.01241504341041577
  0
VERTEX
  8
1
 10
261.9420404157802
 20
283.9428799096016
 30
0
 42
-0.009804710123061151
  0
VERTEX
  8
1
 10
262.747670759111
 20
283.6971486439081
 30
0
 42
-0.007270830576765486
  0
VERTEX
  8
1
 10
263.5488336993528
 20
283.42257139544
 30
0
 42
-0.0002864829083163976
  0
VERTEX
  8
1
 10
263.9787963493268
 20
283.2673616159944
 30
0
 42
0.005668233751502522
  0
VERTEX
  8
1
 10
264.4089476652274
 20
283.1172802966475
 30
0
 42
0.01176641970669022
  0
VERTEX
  8
1
 10
264.8405710834899
 20
282.9833710928146
 30
0
 42
0.01822351206900744
  0
VERTEX
  8
1
 10
265.2749500405493
 20
282.8766776599109
 30
0
 42
0.0247892232024056
  0
VERTEX
  8
1
 10
265.713367972841
 20
282.8082436533517
 30
0
 42
0.02758139801225332
  0
VERTEX
  8
1
 10
266.1742340752361
 20
282.7851227027118
 30
0
 42
0.01483379378698196
  0
VERTEX
  8
1
 10
266.6394867799189
 20
282.8012677596574
 30
0
 42
0.01193127750363549
  0
VERTEX
  8
1
 10
267.1077630326029
 20
282.8426840534153
 30
0
 42
0.002190478925680271
  0
VERTEX
  8
1
 10
267.5776997790017
 20
282.8953768132113
 30
0
 42
-0.005086201687026234
  0
VERTEX
  8
1
 10
268.0479339648288
 20
282.9453512682722
 30
0
 42
-0.01108267781620496
  0
VERTEX
  8
1
 10
268.7083363007856
 20
282.991838619682
 30
0
 42
-0.008493923054773162
  0
VERTEX
  8
1
 10
269.3671337958513
 20
283.0123266418268
 30
0
 42
-0.005830763332787307
  0
VERTEX
  8
1
 10
270.0248323262014
 20
283.0139204366047
 30
0
 42
-0.003134911106098705
  0
VERTEX
  8
1
 10
270.6819377680113
 20
283.0037251059137
 30
0
 42
-0.0004288851268958545
  0
VERTEX
  8
1
 10
271.3389559974568
 20
282.9888457516519
 30
0
 42
0.001263637240843475
  0
VERTEX
  8
1
 10
272.3385396675726
 20
282.9688748022156
 30
0
 42
0.0009812774419891623
  0
VERTEX
  8
1
 10
273.3388975874267
 20
282.9533812382419
 30
0
 42
0.0007003385918645154
  0
VERTEX
  8
1
 10
274.3398361945848
 20
282.9412457133652
 30
0
 42
0.0004197335022772095
  0
VERTEX
  8
1
 10
275.341161926612
 20
282.9313488812198
 30
0
 42
0.0001399970766649071
  0
VERTEX
  8
1
 10
276.3426812210738
 20
282.92257139544
 30
0
  0
SEQEND
  8
1
  0
POLYLINE
  8
1
 62
3
 66
1
  0
VERTEX
  8
1
 10
256.3426812210739
 20
283.3914092487812
 30
0
 42
-0.001460442418309036
  0
VERTEX
  8
1
 10
256.9757097372046
 20
283.4275088835111
 30
0
 42
-0.004397959821641528
  0
VERTEX
  8
1
 10
257.6079187114023
 20
283.4561417168915
 30
0
 42
-0.007379722782487862
  0
VERTEX
  8
1
 10
258.2384886017343
 20
283.4698409475727
 30
0
 42
-0.01041556889196311
  0
VERTEX
  8
1
 10
258.8665998662679
 20
283.4611397742054
 30
0
 42
-0.01348354551994524
  0
VERTEX
  8
1
 10
259.4914329630698
 20
283.42257139544
 30
0
 42
-0.0185217485375128
  0
VERTEX
  8
1
 10
260.3145981753452
 20
283.3169399834427
 30
0
 42
-0.01562583279991087
  0
VERTEX
  8
1
 10
261.131233857828
 20
283.1548417343591
 30
0
 42
-0.01270868136971134
  0
VERTEX
  8
1
 10
261.9420270078014
 20
282.9455591912744
 30
0
 42
-0.009851910915130395
  0
VERTEX
  8
1
 10
262.7476646225485
 20
282.698374897273
 30
0
 42
-0.007085593377814923
  0
VERTEX
  8
1
 10
263.5488336993528
 20
282.42257139544
 30
0
 42
-0.0001477941850958737
  0
VERTEX
  8
1
 10
263.9787978847846
 20
282.267054789445
 30
0
 42
0.005767172919083663
  0
VERTEX
  8
1
 10
264.4089495785021
 20
282.1168979719253
 30
0
 42
0.01182779522951657
  0
VERTEX
  8
1
 10
264.8405726068526
 20
281.9830666831944
 30
0
 42
0.01824629362241806
  0
VERTEX
  8
1
 10
265.2749507961831
 20
281.8765266635654
 30
0
 42
0.0247680731323314
  0
VERTEX
  8
1
 10
265.713367972841
 20
281.8082436533518
 30
0
 42
0.02753061669642032
  0
VERTEX
  8
1
 10
266.1742336307025
 20
281.7852115327158
 30
0
 42
0.01481336586006747
  0
VERTEX
  8
1
 10
266.6394862191237
 20
281.8013798219104
 30
0
 42
0.01190430324270652
  0
VERTEX
  8
1
 10
267.1077625778129
 20
281.8427749329151
 30
0
 42
0.002183927244982168
  0
VERTEX
  8
1
 10
267.5776995464785
 20
281.8954232777091
 30
0
 42
-0.005081831715342859
  0
VERTEX
  8
1
 10
268.0479339648288
 20
281.9453512682722
 30
0
 42
-0.01107023940307452
  0
VERTEX
  8
1
 10
268.7083364982724
 20
281.9917991564252
 30
0
 42
-0.008484735428376458
  0
VERTEX
  8
1
 10
269.3671340466257
 20
282.0122765302313
 30
0
 42
-0.005824984950496441
  0
VERTEX
  8
1
 10
270.02483253152
 20
282.0138794082988
 30
0
 42
-0.003132588015333497
  0
VERTEX
  8
1
 10
270.6819378745867
 20
282.0037038092361
 30
0
 42
-0.0004300197764895662
  0
VERTEX
  8
1
 10
271.3389559974568
 20
281.9888457516519
 30
0
 42
0.001259723772489901
  0
VERTEX
  8
1
 10
272.3385395632044
 20
281.9688956578358
 30
0
 42
0.0009782375385794205
  0
VERTEX
  8
1
 10
273.3388974482692
 20
281.9534090457355
 30
0
 42
0.0006981689223470784
  0
VERTEX
  8
1
 10
274.3398360728219
 20
281.9412700449221
 30
0
 42
0.0004184329134404753
  0
VERTEX
  8
1
 10
275.3411618570332
 20
281.9313627849666
 30
0
 42
0.0001395634117055954
  0
VERTEX
  8
1
 10
276.3426812210738
 20
281.92257139544
 30
0
  0
SEQEND
  8
1
  0
POLYLINE
  8
1
 62
3
 66
1
  0
VERTEX
  8
1
 10
256.3426812210739
 20
279.42257139544
 30
0
 42
-0.000233551910313699
  0
VERTEX
  8
1
 10
256.9722224721185
 20
279.4296526475088
 30
0
 42
-0.0007005663860722538
  0
VERTEX
  8
1
 10
257.6018159975017
 20
279.4355580942562
 30
0
 42
-0.001167288473390314
  0
VERTEX
  8
1
 10
258.2315140715622
 20
279.4391119303613
 30
0
 42
-0.001633442215279201
  0
VERTEX
  8
1
 10
258.8613689686387
 20
279.4391383505025
 30
0
 42
-0.002098630677809283
  0
VERTEX
  8
1
 10
259.4914329630698
 20
279.4344615493587
 30
0
 42
-0.001836296501883159
  0
VERTEX
  8
1
 10
260.3036233688084
 20
279.4212826039354
 30
0
 42
0.0004944346747098748
  0
VERTEX
  8
1
 10
261.115853202594
 20
279.4059230768245
 30
0
 42
0.002826535781308273
  0
VERTEX
  8
1
 10
261.9277279071386
 20
279.3959640070335
 30
0
 42
0.005169687816425429
  0
VERTEX
  8
1
 10
262.7388529251541
 20
279.3989864335695
 30
0
 42
0.00752225250570575
  0
VERTEX
  8
1
 10
263.5488336993528
 20
279.42257139544
 30
0
 42
0.004271185293782781
  0
VERTEX
  8
1
 10
263.9810171307407
 20
279.4453669426742
 30
0
 42
0.000408588651151374
  0
VERTEX
  8
1
 10
264.4131618336438
 20
279.4722184779667
 30
0
 42
-0.001118848493876584
  0
VERTEX
  8
1
 10
264.8456682482018
 20
279.4991499085634
 30
0
 42
-0.00341513368133605
  0
VERTEX
  8
1
 10
265.2789368145544
 20
279.5221851417106
 30
0
 42
-0.005694717497529315
  0
VERTEX
  8
1
 10
265.713367972841
 20
279.5373480846542
 30
0
 42
-0.004574985680658126
  0
VERTEX
  8
1
 10
266.1830839762739
 20
279.5428651889663
 30
0
 42
0.0009489473351328403
  0
VERTEX
  8
1
 10
266.6530074219118
 20
279.5449802955527
 30
0
 42
0.006488725918992007
  0
VERTEX
  8
1
 10
267.121529465032
 20
279.5540595586294
 30
0
 42
0.01215971397475924
  0
VERTEX
  8
1
 10
267.587041260912
 20
279.5804691324125
 30
0
 42
0.0179365794331452
  0
VERTEX
  8
1
 10
268.0479339648288
 20
279.634575171118
 30
0
 42
0.02806143278882436
  0
VERTEX
  8
1
 10
268.714717022362
 20
279.7758841576136
 30
0
 42
0.01206734520031976
  0
VERTEX
  8
1
 10
269.3726382454771
 20
279.9715560012511
 30
0
 42
0.00730290051589007
  0
VERTEX
  8
1
 10
270.0262701430884
 20
280.1938483099643
 30
0
 42
-0.005441792991544989
  0
VERTEX
  8
1
 10
270.6801852241102
 20
280.4150186916874
 30
0
 42
-0.01567352639378427
  0
VERTEX
  8
1
 10
271.3389559974568
 20
280.6073247543542
 30
0
 42
-0.02763614220714037
  0
VERTEX
  8
1
 10
272.3155996300228
 20
280.797167988075
 30
0
 42
-0.0214013937649697
  0
VERTEX
  8
1
 10
273.3083108706937
 20
280.8905416591135
 30
0
 42
-0.01504769255790076
  0
VERTEX
  8
1
 10
274.3130728174433
 20
280.9115631581401
 30
0
 42
-0.008883408330750561
  0
VERTEX
  8
1
 10
275.3258685682454
 20
280.8843498758256
 30
0
 42
-0.002932426850841614
  0
VERTEX
  8
1
 10
276.3426812210738
 20
280.8330192028405
 30
0
  0
SEQEND
  8
1
  0
POLYLINE
  8
1
 62
3
 66
1
  0
VERTEX
  8
1
 10
256.3426812210739
 20
278.42257139544
 30
0
 42
-0.0002378208918299822
  0
VERTEX
  8
1
 10
256.9721957480047
 20
278.429738137024
 30
0
 42
-0.0007133573779172271
  0
VERTEX
  8
1
 10
257.6017692303025
 20
278.4357077009078
 30
0
 42
-0.001188552287347093
  0
VERTEX
  8
1
 10
258.2314606233346
 20
278.4392829093916
 30
0
 42
-0.001663092466878469
  0
VERTEX
  8
1
 10
258.861328882468
 20
278.4392665847752
 30
0
 42
-0.002136537293208808
  0
VERTEX
  8
1
 10
259.4914329630698
 20
278.4344615493587
 30
0
 42
-0.001865631803426871
  0
VERTEX
  8
1
 10
260.3037144271806
 20
278.420991311354
 30
0
 42
0.0005141892357669075
  0
VERTEX
  8
1
 10
261.1160402879356
 20
278.4053245972909
 30
0
 42
0.002895590790910387
  0
VERTEX
  8
1
 10
261.9279654902636
 20
278.3952039868383
 30
0
 42
0.005289608783410383
  0
VERTEX
  8
1
 10
262.739044979093
 20
278.3983720596651
 30
0
 42
0.007694918188504604
  0
VERTEX
  8
1
 10
263.5488336993528
 20
278.42257139544
 30
0
 42
0.00434349997929155
  0
VERTEX
  8
1
 10
263.9808499370869
 20
278.4459017893869
 30
0
 42
0.0002859975230901955
  0
VERTEX
  8
1
 10
264.4128411299673
 20
278.4732443979296
 30
0
 42
-0.001341803219651221
  0
VERTEX
  8
1
 10
264.8452776313296
 20
278.5003994784202
 30
0
 42
-0.003766903632611467
  0
VERTEX
  8
1
 10
265.2786297945091
 20
278.523167288211
 30
0
 42
-0.006169435875747958
  0
VERTEX
  8
1
 10
265.713367972841
 20
278.5373480846542
 30
0
 42
-0.004876619092536808
  0
VERTEX
  8
1
 10
266.1836777655515
 20
278.5409656776158
 30
0
 42
0.001180039295705492
  0
VERTEX
  8
1
 10
266.6542169857009
 20
278.541110942849
 30
0
 42
0.007259670785182825
  0
VERTEX
  8
1
 10
267.1230579086939
 20
278.5491701202479
 30
0
 42
0.01351855179256299
  0
VERTEX
  8
1
 10
267.5882728099351
 20
278.5765294497063
 30
0
 42
0.0199209340102152
  0
VERTEX
  8
1
 10
268.0479339648288
 20
278.634575171118
 30
0
 42
0.03139252909745061
  0
VERTEX
  8
1
 10
268.7165870369063
 20
278.789877766995
 30
0
 42
0.01336612539586789
  0
VERTEX
  8
1
 10
269.3744174129949
 20
279.00620564413
 30
0
 42
0.008041575924914507
  0
VERTEX
  8
1
 10
270.0270234563076
 20
279.252238984318
 30
0
 42
-0.006199739085247721
  0
VERTEX
  8
1
 10
270.6800035300572
 20
279.4966579693538
 30
0
 42
-0.01768287072609292
  0
VERTEX
  8
1
 10
271.3389559974568
 20
279.7081427810324
 30
0
 42
-0.03095415732682166
  0
VERTEX
  8
1
 10
272.3106375595662
 20
279.9124219882618
 30
0
 42
-0.02393841117513511
  0
VERTEX
  8
1
 10
273.3016947767515
 20
280.0091055392593
 30
0
 42
-0.01676213531401371
  0
VERTEX
  8
1
 10
274.3072837352439
 20
280.0250923480829
 30
0
 42
-0.009855059173562357
  0
VERTEX
  8
1
 10
275.3225605212743
 20
279.9872813287904
 30
0
 42
-0.00324533813011872
  0
VERTEX
  8
1
 10
276.3426812210738
 20
279.92257139544
 30
0
  0
SEQEND
  8
1
  0
POLYLINE
  8
1
 62
3
 66
1
  0
VERTEX
  8
1
 10
256.3426812210739
 20
276.92257139544
 30
0
 42
-0.0005686270057906336
  0
VERTEX
  8
1
 10
256.9718796159663
 20
276.9422792564756
 30
0
 42
-0.001705583657981015
  0
VERTEX
  8
1
 10
257.6012159992354
 20
276.9591263979372
 30
0
 42
-0.002841296066462115
  0
VERTEX
  8
1
 10
258.2308283592579
 20
276.9702521002509
 30
0
 42
-0.00397376466634039
  0
VERTEX
  8
1
 10
258.8608546844104
 20
276.9727956438426
 30
0
 42
-0.005099253580780476
  0
VERTEX
  8
1
 10
259.4914329630698
 20
276.9638963091384
 30
0
 42
-0.004222463661871109
  0
VERTEX
  8
1
 10
260.2295594338355
 20
276.938256296376
 30
0
 42
0.0005439850098370274
  0
VERTEX
  8
1
 10
260.9677446821662
 20
276.9071792556753
 30
0
 42
0.005315690746810737
  0
VERTEX
  8
1
 10
261.7051039225328
 20
276.8847897299859
 30
0
 42
0.01014946503129034
  0
VERTEX
  8
1
 10
262.4407523694063
 20
276.8852122622575
 30
0
 42
0.01502468512825214
  0
VERTEX
  8
1
 10
263.1738052372577
 20
276.92257139544
 30
0
 42
0.01137546385964177
  0
VERTEX
  8
1
 10
263.640969492867
 20
276.9711986499909
 30
0
 42
0.007443944908983245
  0
VERTEX
  8
1
 10
264.1068008160873
 20
277.0374880226487
 30
0
 42
0.007896505749489066
  0
VERTEX
  8
1
 10
264.5713901668982
 20
277.1182114138418
 30
0
 42
0.003997182847318238
  0
VERTEX
  8
1
 10
265.0348285052792
 20
277.2101407239986
 30
0
 42
0.004492470942231256
  0
VERTEX
  8
1
 10
265.4972067912099
 20
277.3100478535472
 30
0
 42
0.002764412573979384
  0
VERTEX
  8
1
 10
266.071642497903
 20
277.4429219773206
 30
0
 42
0.009311519232612803
  0
VERTEX
  8
1
 10
266.64199755525
 20
277.5894484265545
 30
0
 42
0.008520636601396384
  0
VERTEX
  8
1
 10
267.2056964563313
 20
277.7559025167403
 30
0
 42
0.01512273039591749
  0
VERTEX
  8
1
 10
267.7601636942277
 20
277.94855956337
 30
0
 42
0.01430393938646915
  0
VERTEX
  8
1
 10
268.3028237620198
 20
278.1736948819351
 30
0
 42
0.0173145452669972
  0
VERTEX
  8
1
 10
268.8580893447282
 20
278.4463799970577
 30
0
 42
0.003504480622695939
  0
VERTEX
  8
1
 10
269.4055146051671
 20
278.7384646673791
 30
0
 42
-0.006277921058072163
  0
VERTEX
  8
1
 10
269.9530682004356
 20
279.0267517421383
 30
0
 42
-0.01631292714581871
  0
VERTEX
  8
1
 10
270.5087187876328
 20
279.2880440705744
 30
0
 42
-0.02662680848204322
  0
VERTEX
  8
1
 10
271.0804350238578
 20
279.4991445019264
 30
0
 42
-0.02074436175711823
  0
VERTEX
  8
1
 10
271.507876853125
 20
279.6101373872015
 30
0
 42
-0.01631089988934695
  0
VERTEX
  8
1
 10
271.9450687975468
 20
279.6896746502775
 30
0
 42
-0.01199063797526745
  0
VERTEX
  8
1
 10
272.3891653444338
 20
279.7447615726995
 30
0
 42
-0.007845844435791036
  0
VERTEX
  8
1
 10
272.8373209810966
 20
279.782403436012
 30
0
 42
-0.003838265878913416
  0
VERTEX
  8
1
 10
273.2866901948455
 20
279.8096055217597
 30
0
 42
-0.002306500364995836
  0
VERTEX
  8
1
 10
273.9015777872164
 20
279.8399632096132
 30
0
 42
-0.001809730331304228
  0
VERTEX
  8
1
 10
274.5140057881704
 20
279.8651445553885
 30
0
 42
-0.0013011019348796
  0
VERTEX
  8
1
 10
275.1245890955619
 20
279.8864436446049
 30
0
 42
-0.0007840297046683161
  0
VERTEX
  8
1
 10
275.733942607245
 20
279.9051545627823
 30
0
 42
-0.000261903952512241
  0
VERTEX
  8
1
 10
276.3426812210738
 20
279.92257139544
 30
0
  0
SEQEND
  8
1
  0
POLYLINE
  8
1
 62
3
 66
1
  0
VERTEX
  8
1
 10
256.3426812210739
 20
275.92257139544
 30
0
 42
-0.0006197544447459233
  0
VERTEX
  8
1
 10
256.9715584392101
 20
275.9432931318132
 30
0
 42
-0.001858534658988124
  0
VERTEX
  8
1
 10
257.6006539399119
 20
275.960900679778
 30
0
 42
-0.003094675195971977
  0
VERTEX
  8
1
 10
258.2301860057454
 20
275.972279850926
 30
0
 42
-0.004324913475809106
  0
VERTEX
  8
1
 10
258.8603729192761
 20
275.974316456849
 30
0
 42
-0.005543773682186862
  0
VERTEX
  8
1
 10
259.4914329630698
 20
275.9638963091384
 30
0
 42
-0.004520796364701573
  0
VERTEX
  8
1
 10
260.2305302502638
 20
275.9351916697653
 30
0
 42
0.0007805678300627781
  0
VERTEX
  8
1
 10
260.9697181363333
 20
275.9009495504712
 30
0
 42
0.006092705141473765
  0
VERTEX
  8
1
 10
261.7075946062246
 20
275.8769272594938
 30
0
 42
0.01150964957839799
  0
VERTEX
  8
1
 10
262.442757644884
 20
275.8788821050708
 30
0
 42
0.01700876146750813
  0
VERTEX
  8
1
 10
263.1738052372577
 20
275.92257139544
 30
0
 42
0.01240697077919068
  0
VERTEX
  8
1
 10
263.6388323059427
 20
275.9779452188884
 30
0
 42
0.006037178883442337
  0
VERTEX
  8
1
 10
264.1026440288051
 20
276.0506099688262
 30
0
 42
0.005589350942015786
  0
VERTEX
  8
1
 10
264.5662823727202
 20
276.1343354528505
 30
0
 42
0.0007533041594974816
  0
VERTEX
  8
1
 10
265.0307893045634
 20
276.2228914785584
 30
0
 42
-0.002573584257941893
  0
VERTEX
  8
1
 10
265.4972067912099
 20
276.3100478535472
 30
0
 42
-0.001804763929100831
  0
VERTEX
  8
1
 10
266.0719764862425
 20
276.4102664518241
 30
0
 42
0.004933510209183802
  0
VERTEX
  8
1
 10
266.6455540331874
 20
276.5139710623332
 30
0
 42
0.01176870411048859
  0
VERTEX
  8
1
 10
267.2123084296971
 20
276.6361184891689
 30
0
 42
0.01888827476051955
  0
VERTEX
  8
1
 10
267.7666086734238
 20
276.7916655364256
 30
0
 42
0.0544954495776882
  0
VERTEX
  8
1
 10
268.8651797195947
 20
277.2825703721566
 30
0
 42
0.005924946793904396
  0
VERTEX
  8
1
 10
269.4116456735005
 20
277.6108596523494
 30
0
 42
5.930991545548526e-005
  0
VERTEX
  8
1
 10
269.9546947748027
 20
277.9460057999357
 30
0
 42
-0.01842206213872313
  0
VERTEX
  8
1
 10
270.5068001745666
 20
278.2535777660749
 30
0
 42
-0.03355665101512947
  0
VERTEX
  8
1
 10
271.0804350238578
 20
278.4991445019264
 30
0
 42
-0.02601541318583064
  0
VERTEX
  8
1
 10
271.5034171298185
 20
278.6199619314461
 30
0
 42
-0.01999312491806889
  0
VERTEX
  8
1
 10
271.9394262436342
 20
278.7021049103537
 30
0
 42
-0.01415542656725871
  0
VERTEX
  8
1
 10
272.3845698215683
 20
278.7548852764849
 30
0
 42
-0.00863273980422998
  0
VERTEX
  8
1
 10
272.8349553198842
 20
278.787614867675
 30
0
 42
-0.003342474864615469
  0
VERTEX
  8
1
 10
273.2866901948455
 20
278.8096055217597
 30
0
 42
-0.0009058135989758943
  0
VERTEX
  8
1
 10
273.9036378474992
 20
278.8354250012976
 30
0
 42
-0.0007135431988463094
  0
VERTEX
  8
1
 10
274.5167525352141
 20
278.8590936109677
 30
0
 42
-0.0005145810279896536
  0
VERTEX
  8
1
 10
275.1269924992251
 20
278.8811490682367
 30
0
 42
-0.0003107331200560915
  0
VERTEX
  8
1
 10
275.7353159807668
 20
278.9021290905719
 30
0
 42
-0.0001039106373799773
  0
VERTEX
  8
1
 10
276.3426812210738
 20
278.92257139544
 30
0
  0
SEQEND
  8
1
  0
POLYLINE
  8
1
 62
3
 66
1
  0
VERTEX
  8
1
 10
256.3426812210739
 20
274.42257139544
 30
0
 42
0.001152801735348403
  0
VERTEX
  8
1
 10
257.0801277676681
 20
274.3952377449789
 30
0
 42
0.003463756523482718
  0
VERTEX
  8
1
 10
257.8169529238147
 20
274.374737507133
 30
0
 42
0.005799164164773036
  0
VERTEX
  8
1
 10
258.5525352990667
 20
274.3679040945177
 30
0
 42
0.008158172994488644
  0
VERTEX
  8
1
 10
259.2862535029765
 20
274.3815709197483
 30
0
 42
0.0105359269459108
  0
VERTEX
  8
1
 10
260.0174861450968
 20
274.42257139544
 30
0
 42
0.01177436222928743
  0
VERTEX
  8
1
 10
260.774302762897
 20
274.498988287931
 30
0
 42
0.007768041546195589
  0
VERTEX
  8
1
 10
261.5287402208562
 20
274.6050848651228
 30
0
 42
0.006923755484682576
  0
VERTEX
  8
1
 10
262.2817741503679
 20
274.7336482704162
 30
0
 42
0.002936010792659581
  0
VERTEX
  8
1
 10
263.0343801828257
 20
274.8774656472116
 30
0
 42
0.002137160403912639
  0
VERTEX
  8
1
 10
263.7875339496229
 20
275.0293241389098
 30
0
 42
0.0005152325846577127
  0
VERTEX
  8
1
 10
264.6066003940054
 20
275.1989991064974
 30
0
 42
0.008980172020404504
  0
VERTEX
  8
1
 10
265.4212617573617
 20
275.3839618031471
 30
0
 42
0.009777534548764439
  0
VERTEX
  8
1
 10
266.2253135615638
 20
275.5985216205737
 30
0
 42
0.01845505424895437
  0
VERTEX
  8
1
 10
267.0125513284836
 20
275.8569879504919
 30
0
 42
0.03922143116249833
  0
VERTEX
  8
1
 10
268.4699686902469
 20
276.5298774306353
 30
0
 42
0.006762279807720467
  0
VERTEX
  8
1
 10
269.1479712618695
 20
276.9221084858472
 30
0
 42
-0.001664850240858312
  0
VERTEX
  8
1
 10
269.8213093466825
 20
277.3225391972842
 30
0
 42
-0.0111397204239865
  0
VERTEX
  8
1
 10
270.5005139965077
 20
277.7033454119791
 30
0
 42
-0.02096863254692256
  0
VERTEX
  8
1
 10
271.1961162631669
 20
278.0367029769645
 30
0
 42
-0.03144394759802027
  0
VERTEX
  8
1
 10
272.1673084582862
 20
278.3763397701222
 30
0
 42
-0.02411662718860536
  0
VERTEX
  8
1
 10
273.1772478510468
 20
278.6076678236382
 30
0
 42
-0.01677980776419124
  0
VERTEX
  8
1
 10
274.2162476420386
 20
278.7577643224229
 30
0
 42
-0.009824377807886697
  0
VERTEX
  8
1
 10
275.274621031851
 20
278.8537064513866
 30
0
 42
-0.003228644692577778
  0
VERTEX
  8
1
 10
276.3426812210738
 20
278.92257139544
 30
0
  0
SEQEND
  8
1
  0
POLYLINE
  8
1
 62
3
 66
1
  0
VERTEX
  8
1
 10
256.3426812210739
 20
273.42257139544
 30
0
 42
0.0012501448125121
  0
VERTEX
  8
1
 10
257.0807639863053
 20
273.3928712358808
 30
0
 42
0.00375759586679841
  0
VERTEX
  8
1
 10
257.81806630643
 20
273.3705961162114
 30
0
 42
0.006297950553938135
  0
VERTEX
  8
1
 10
258.5538077363412
 20
273.3631710763216
 30
0
 42
0.008870900990921369
  0
VERTEX
  8
1
 10
259.2872078309325
 20
273.3780211561012
 30
0
 42
0.01147156471236582
  0
VERTEX
  8
1
 10
260.0174861450968
 20
273.42257139544
 30
0
 42
0.01254792155256427
  0
VERTEX
  8
1
 10
260.7726370639798
 20
273.5051841008344
 30
0
 42
0.007042539110384594
  0
VERTEX
  8
1
 10
261.5253958919577
 20
273.61752458993
 30
0
 42
0.005557307952436225
  0
VERTEX
  8
1
 10
262.2775840409469
 20
273.7492340006755
 30
0
 42
9.171228515942505e-005
  0
VERTEX
  8
1
 10
263.0310229228633
 20
273.8899534710193
 30
0
 42
-0.002321053770272375
  0
VERTEX
  8
1
 10
263.7875339496229
 20
274.0293241389098
 30
0
 42
-0.001201310525960601
  0
VERTEX
  8
1
 10
264.6045697726543
 20
274.171201475416
 30
0
 42
0.005027277254699083
  0
VERTEX
  8
1
 10
265.4196355177742
 20
274.3191568762893
 30
0
 42
0.01135044803570937
  0
VERTEX
  8
1
 10
266.2251070144154
 20
274.4927956261065
 30
0
 42
0.01794427143871408
  0
VERTEX
  8
1
 10
267.0133600920107
 20
274.711723009444
 30
0
 42
0.04827825323437023
  0
VERTEX
  8
1
 10
268.4745238966385
 20
275.3351428735325
 30
0
 42
0.008490223132612424
  0
VERTEX
  8
1
 10
269.1541762214043
 20
275.7213468815776
 30
0
 42
0.003152034215563107
  0
VERTEX
  8
1
 10
269.8268864561646
 20
276.1246088880674
 30
0
 42
-0.009118567119111408
  0
VERTEX
  8
1
 10
270.503813502794
 20
276.5153814460551
 30
0
 42
-0.01940348389060309
  0
VERTEX
  8
1
 10
271.1961162631669
 20
276.8641171085941
 30
0
 42
-0.0300672151302146
  0
VERTEX
  8
1
 10
272.1675332152375
 20
277.2319982788483
 30
0
 42
-0.02315593798542714
  0
VERTEX
  8
1
 10
273.1775475269819
 20
277.4957525738459
 30
0
 42
-0.01618042258613598
  0
VERTEX
  8
1
 10
274.2165098584818
 20
277.6814117124009
 30
0
 42
-0.009504695469740665
  0
VERTEX
  8
1
 10
275.2747708698186
 20
277.8150074133275
 30
0
 42
-0.003129060246778163
  0
VERTEX
  8
1
 10
276.3426812210738
 20
277.92257139544
 30
0
  0
SEQEND
  8
1
  0
POLYLINE
  8
1
 62
3
 66
1
  0
VERTEX
  8
1
 10
256.3426812210739
 20
271.92257139544
 30
0
 42
0.0001520563530779765
  0
VERTEX
  8
1
 10
257.24311193311
 20
271.9684827289989
 30
0
 42
0.0004559430652857169
  0
VERTEX
  8
1
 10
258.1438210902486
 20
272.0155064372838
 30
0
 42
0.000758695859713915
  0
VERTEX
  8
1
 10
259.0450871375924
 20
272.0647548950205
 30
0
 42
0.001059843563081336
  0
VERTEX
  8
1
 10
259.9471885202439
 20
272.1173404769349
 30
0
 42
0.001358440646077543
  0
VERTEX
  8
1
 10
260.8504036833058
 20
272.1743755577531
 30
0
 42
0.001876121247712972
  0
VERTEX
  8
1
 10
261.4601956303023
 20
272.216844142744
 30
0
 42
0.005028464223657801
  0
VERTEX
  8
1
 10
262.0690966522779
 20
272.2677084989558
 30
0
 42
0.006786548224078645
  0
VERTEX
  8
1
 10
262.6755822804206
 20
272.3328334207878
 30
0
 42
0.01000373869095013
  0
VERTEX
  8
1
 10
263.2781280459185
 20
272.4180837026393
 30
0
 42
0.01181943118270903
  0
VERTEX
  8
1
 10
263.8752094799598
 20
272.5293241389098
 30
0
 42
0.02260296103165127
  0
VERTEX
  8
1
 10
264.8656392761041
 20
272.7854227865507
 30
0
 42
0.0177682957791635
  0
VERTEX
  8
1
 10
265.8352663995891
 20
273.1216254517946
 30
0
 42
0.01769407885006935
  0
VERTEX
  8
1
 10
266.7831264888263
 20
273.5276131383492
 30
0
 42
0.01304024145652197
  0
VERTEX
  8
1
 10
267.7082551822267
 20
273.9930668499223
 30
0
 42
0.01325209981364857
  0
VERTEX
  8
1
 10
268.6096881182018
 20
274.5076675902218
 30
0
 42
0.006507225468264191
  0
VERTEX
  8
1
 10
269.4287439330867
 20
275.019170147738
 30
0
 42
0.0003492312930723567
  0
VERTEX
  8
1
 10
270.2383901610417
 20
275.5403631359779
 30
0
 42
-0.006990503468392468
  0
VERTEX
  8
1
 10
271.0505834741419
 20
276.0472952259814
 30
0
 42
-0.01414273780469189
  0
VERTEX
  8
1
 10
271.8772805444626
 20
276.5160150887888
 30
0
 42
-0.02139598757925646
  0
VERTEX
  8
1
 10
272.7304380440788
 20
276.92257139544
 30
0
 42
-0.0175698636521027
  0
VERTEX
  8
1
 10
273.4244970454441
 20
277.1862089418993
 30
0
 42
-0.01351685745491969
  0
VERTEX
  8
1
 10
274.1374824694985
 20
277.4074214573857
 30
0
 42
-0.009528745766046913
  0
VERTEX
  8
1
 10
274.8646627105698
 20
277.5968151996425
 30
0
 42
-0.005654478827387469
  0
VERTEX
  8
1
 10
275.6013061629857
 20
277.7649964264128
 30
0
 42
-0.001873214916165012
  0
VERTEX
  8
1
 10
276.3426812210738
 20
277.92257139544
 30
0
  0
SEQEND
  8
1
  0
POLYLINE
  8
1
 62
3
 66
1
  0
VERTEX
  8
1
 10
256.3426812210739
 20
270.92257139544
 30
0
 42
0.0001520563531409261
  0
VERTEX
  8
1
 10
257.24311193311
 20
270.968482728999
 30
0
 42
0.0004559430651598176
  0
VERTEX
  8
1
 10
258.1438210902486
 20
271.0155064372838
 30
0
 42
0.0007586958598712336
  0
VERTEX
  8
1
 10
259.0450871375924
 20
271.0647548950205
 30
0
 42
0.001059843562924018
  0
VERTEX
  8
1
 10
259.9471885202439
 20
271.1173404769349
 30
0
 42
0.001358440646234862
  0
VERTEX
  8
1
 10
260.8504036833058
 20
271.1743755577531
 30
0
 42
0.001876121247555653
  0
VERTEX
  8
1
 10
261.4601956303023
 20
271.216844142744
 30
0
 42
0.005028464223815178
  0
VERTEX
  8
1
 10
262.0690966522779
 20
271.2677084989558
 30
0
 42
0.00678654822392093
  0
VERTEX
  8
1
 10
262.6755822804206
 20
271.3328334207878
 30
0
 42
0.01000373869115371
  0
VERTEX
  8
1
 10
263.2781280459185
 20
271.4180837026394
 30
0
 42
0.0118194311824135
  0
VERTEX
  8
1
 10
263.8752094799598
 20
271.5293241389098
 30
0
 42
0.02260296103199312
  0
VERTEX
  8
1
 10
264.8656392761041
 20
271.7854227865507
 30
0
 42
0.01776829577882178
  0
VERTEX
  8
1
 10
265.8352663995891
 20
272.1216254517946
 30
0
 42
0.01769407885038553
  0
VERTEX
  8
1
 10
266.7831264888263
 20
272.5276131383491
 30
0
 42
0.01304024145625403
  0
VERTEX
  8
1
 10
267.7082551822267
 20
272.9930668499223
 30
0
 42
0.01325209981389275
  0
VERTEX
  8
1
 10
268.6096881182018
 20
273.5076675902218
 30
0
 42
0.006507225468019709
  0
VERTEX
  8
1
 10
269.4287439330867
 20
274.019170147738
 30
0
 42
0.0003492312933168278
  0
VERTEX
  8
1
 10
270.2383901610417
 20
274.5403631359779
 30
0
 42
-0.006990503468392468
  0
VERTEX
  8
1
 10
271.0505834741419
 20
275.0472952259814
 30
0
 42
-0.01414273780469189
  0
VERTEX
  8
1
 10
271.8772805444626
 20
275.5160150887888
 30
0
 42
-0.02139598757925646
  0
VERTEX
  8
1
 10
272.7304380440788
 20
275.92257139544
 30
0
 42
-0.0175698636521027
  0
VERTEX
  8
1
 10
273.4244970454441
 20
276.1862089418993
 30
0
 42
-0.01351685745491969
  0
VERTEX
  8
1
 10
274.1374824694985
 20
276.4074214573857
 30
0
 42
-0.009528745766046913
  0
VERTEX
  8
1
 10
274.8646627105698
 20
276.5968151996425
 30
0
 42
-0.005654478827387469
  0
VERTEX
  8
1
 10
275.6013061629857
 20
276.7649964264128
 30
0
 42
-0.001873214916311783
  0
VERTEX
  8
1
 10
276.3426812210738
 20
276.92257139544
 30
0
  0
SEQEND
  8
1
  0
POLYLINE
  8
1
 62
3
 66
1
  0
VERTEX
  8
1
 10
272.6691281646449
 20
281.92257139544
 30
0
 42
0.0003148701003670792
  0
VERTEX
  8
1
 10
272.377940948835
 20
281.9014348097563
 30
0
 42
0.0009449789259283947
  0
VERTEX
  8
1
 10
272.0868927241452
 20
281.8795709591982
 30
0
 42
0.001576883993667034
  0
VERTEX
  8
1
 10
271.7961224816954
 20
281.8562525788915
 30
0
 42
0.002211090619894294
  0
VERTEX
  8
1
 10
271.5057692126058
 20
281.8307524039618
 30
0
 42
0.00284855715434448
  0
VERTEX
  8
1
 10
271.2159719079965
 20
281.8023431695349
 30
0
 42
0.006756412269196105
  0
VERTEX
  8
1
 10
270.5513422711305
 20
281.7242726427012
 30
0
 42
0.0039496078101219
  0
VERTEX
  8
1
 10
269.8886644836783
 20
281.6320080075338
 30
0
 42
0.002819681200259939
  0
VERTEX
  8
1
 10
269.2262097280254
 20
281.5306140827636
 30
0
 42
0.0004244089955999103
  0
VERTEX
  8
1
 10
268.5622491865572
 20
281.4251556871215
 30
0
 42
-0.001526779813761789
  0
VERTEX
  8
1
 10
267.8950540416589
 20
281.3206976393382
 30
0
 42
-0.003828713700652223
  0
VERTEX
  8
1
 10
267.4297224167486
 20
281.2525813246489
 30
0
 42
-0.008077299980105075
  0
VERTEX
  8
1
 10
266.9633678960935
 20
281.1956052046351
 30
0
 42
-0.01246650744832873
  0
VERTEX
  8
1
 10
266.4973561826392
 20
281.1579906708236
 30
0
 42
-0.01702945909602552
  0
VERTEX
  8
1
 10
266.0330529793311
 20
281.1479591147414
 30
0
 42
-0.05240043144341584
  0
VERTEX
  8
1
 10
264.9219525300467
 20
281.2788517603236
 30
0
 42
-0.01461122410704022
  0
VERTEX
  8
1
 10
264.2776291178169
 20
281.4397493346356
 30
0
 42
-0.002053019632278308
  0
VERTEX
  8
1
 10
263.6354029732742
 20
281.6229709394959
 30
0
 42
0.01039734553734193
  0
VERTEX
  8
1
 10
262.991823317267
 20
281.7950628635491
 30
0
 42
0.02316068791085151
  0
VERTEX
  8
1
 10
262.3434393706438
 20
281.92257139544
 30
0
 42
0.02682260581812042
  0
VERTEX
  8
1
 10
261.7527499384735
 20
281.9783989266142
 30
0
 42
0.01284867864438598
  0
VERTEX
  8
1
 10
261.1570291055227
 20
281.9872783756296
 30
0
 42
0.0126401866461917
  0
VERTEX
  8
1
 10
260.5579519819015
 20
281.9656598749194
 30
0
 42
0.002393804698241488
  0
VERTEX
  8
1
 10
259.9571936777195
 20
281.9299935569173
 30
0
 42
-0.004389826407226662
  0
VERTEX
  8
1
 10
259.3564293030868
 20
281.8967295540567
 30
0
 42
-0.007114942061712522
  0
VERTEX
  8
1
 10
258.7516408246005
 20
281.8788681876379
 30
0
 42
-0.005563552051046846
  0
VERTEX
  8
1
 10
258.1482115875033
 20
281.8763599776826
 30
0
 42
-0.003986604090540944
  0
VERTEX
  8
1
 10
257.5458017814481
 20
281.8853666350752
 30
0
 42
-0.002396062566146219
  0
VERTEX
  8
1
 10
256.9440715960873
 20
281.9020498706996
 30
0
 42
-0.0007992743056896052
  0
VERTEX
  8
1
 10
256.3426812210739
 20
281.92257139544
 30
0
  0
SEQEND
  8
1
  0
POLYLINE
  8
1
 62
3
 66
1
  0
VERTEX
  8
1
 10
271.647007913374
 20
280.8217533687619
 30
0
 42
-0.0002943625236567349
  0
VERTEX
  8
1
 10
270.9240262926554
 20
280.7099068080314
 30
0
 42
-0.0008817296299601489
  0
VERTEX
  8
1
 10
270.2002267473034
 20
280.5996770089432
 30
0
 42
-0.001464990072389777
  0
VERTEX
  8
1
 10
269.474791352685
 20
280.4926807331395
 30
0
 42
-0.002041299421369241
  0
VERTEX
  8
1
 10
268.7469021841669
 20
280.3905347422628
 30
0
 42
-0.002607663120018818
  0
VERTEX
  8
1
 10
268.0157413171158
 20
280.2948557979552
 30
0
 42
-0.003565789052160056
  0
VERTEX
  8
1
 10
267.5382784563001
 20
280.2379060704342
 30
0
 42
-0.006974058786737888
  0
VERTEX
  8
1
 10
267.0601376843045
 20
280.1910637790566
 30
0
 42
-0.01046734541317583
  0
VERTEX
  8
1
 10
266.5823709736894
 20
280.1610169621836
 30
0
 42
-0.01406324816688818
  0
VERTEX
  8
1
 10
266.1060302970154
 20
280.1544536581764
 30
0
 42
-0.04238687832033493
  0
VERTEX
  8
1
 10
264.9772608657839
 20
280.2666671938576
 30
0
 42
-0.01275655711032429
  0
VERTEX
  8
1
 10
264.3265780308196
 20
280.4018013748718
 30
0
 42
-0.003311590302375294
  0
VERTEX
  8
1
 10
263.6774929326514
 20
280.5584653127484
 30
0
 42
0.006018803926492395
  0
VERTEX
  8
1
 10
263.0273793819804
 20
280.7116598717972
 30
0
 42
0.01543555655990806
  0
VERTEX
  8
1
 10
262.3736111895079
 20
280.8363859163281
 30
0
 42
0.01835179206131022
  0
VERTEX
  8
1
 10
261.7931429677084
 20
280.9069360051516
 30
0
 42
0.01056861445979659
  0
VERTEX
  8
1
 10
261.2090219875333
 20
280.9438493973523
 30
0
 42
0.01150728188678814
  0
VERTEX
  8
1
 10
260.622468475275
 20
280.9549722885487
 30
0
 42
0.003776246101221432
  0
VERTEX
  8
1
 10
260.0347026572264
 20
280.948150874359
 30
0
 42
0.00481053892128902
  0
VERTEX
  8
1
 10
259.4469447596799
 20
280.9312313504017
 30
0
 42
0.0009324995728371265
  0
VERTEX
  8
1
 10
258.8244330899753
 20
280.9095152952251
 30
0
 42
0.0007280294780113498
  0
VERTEX
  8
1
 10
258.2030273949263
 20
280.8857713391605
 30
0
 42
0.0005209755891006816
  0
VERTEX
  8
1
 10
257.582451180869
 20
280.8605064574298
 30
0
 42
0.0003134104111505281
  0
VERTEX
  8
1
 10
256.9624279541395
 20
280.8342276252551
 30
0
 42
0.0001042969050955355
  0
VERTEX
  8
1
 10
256.3426812210739
 20
280.8074418178584
 30
0
  0
SEQEND
  8
1
  0
POLYLINE
  8
1
 62
3
 66
1
  0
VERTEX
  8
1
 10
333.7569603577638
 20
294.42257139544
 30
0
 42
0.004358729398586799
  0
VERTEX
  8
1
 10
332.7878463070906
 20
294.4180442102539
 30
0
 42
0.01337584483488754
  0
VERTEX
  8
1
 10
331.8356246459741
 20
294.3798025100929
 30
0
 42
0.02383563990234232
  0
VERTEX
  8
1
 10
330.917187763971
 20
294.2741317799818
 30
0
 42
0.0358919016950538
  0
VERTEX
  8
1
 10
330.0494280506381
 20
294.0673175049458
 30
0
 42
0.04895632414681179
  0
VERTEX
  8
1
 10
329.2492378955319
 20
293.7256451700097
 30
0
 42
0.04576326853625589
  0
VERTEX
  8
1
 10
328.5914544481688
 20
293.2825009577479
 30
0
 42
0.02110922930132593
  0
VERTEX
  8
1
 10
327.9814984584559
 20
292.7404445992644
 30
0
 42
0.01598160533287561
  0
VERTEX
  8
1
 10
327.3979536127592
 20
292.1387634704394
 30
0
 42
-0.001092134691110582
  0
VERTEX
  8
1
 10
326.8194035974447
 20
291.516744947153
 30
0
 42
-0.01369804711987394
  0
VERTEX
  8
1
 10
326.2244320988779
 20
290.9136764052856
 30
0
 42
-0.02555441647276821
  0
VERTEX
  8
1
 10
325.3685083437063
 20
290.180704804501
 30
0
 42
-0.02143501595996743
  0
VERTEX
  8
1
 10
324.4554036068923
 20
289.537072570326
 30
0
 42
-0.0169296781939483
  0
VERTEX
  8
1
 10
323.4968128838401
 20
288.966109861259
 30
0
 42
-0.01233822321835068
  0
VERTEX
  8
1
 10
322.5044311699533
 20
288.451146835799
 30
0
 42
-0.007800748263381972
  0
VERTEX
  8
1
 10
321.4899534606358
 20
287.9755136524445
 30
0
 42
-0.005362192224417361
  0
VERTEX
  8
1
 10
320.6830812169395
 20
287.620737899324
 30
0
 42
-0.007366627213609317
  0
VERTEX
  8
1
 10
319.8686729060962
 20
287.2871087061027
 30
0
 42
-0.009412356290834256
  0
VERTEX
  8
1
 10
319.0456257245133
 20
286.9817568884572
 30
0
 42
-0.01149368119262269
  0
VERTEX
  8
1
 10
318.2128368685984
 20
286.7118132620639
 30
0
 42
-0.02517093435363232
  0
VERTEX
  8
1
 10
316.6567317727112
 20
286.330563177536
 30
0
 42
-0.008504618118801858
  0
VERTEX
  8
1
 10
315.9376087617626
 20
286.2043697228937
 30
0
 42
-0.006047552492621473
  0
VERTEX
  8
1
 10
315.2134973141383
 20
286.0989152760671
 30
0
 42
-0.003614339530274874
  0
VERTEX
  8
1
 10
314.4860602420636
 20
286.007286834451
 30
0
 42
-0.001202089796682949
  0
VERTEX
  8
1
 10
313.7569603577637
 20
285.92257139544
 30
0
  0
SEQEND
  8
1
  0
POLYLINE
  8
1
 62
3
 66
1
  0
VERTEX
  8
1
 10
333.7569603577638
 20
293.42257139544
 30
0
 42
0.004358729398410492
  0
VERTEX
  8
1
 10
332.7878463070906
 20
293.418044210254
 30
0
 42
0.01337584483512296
  0
VERTEX
  8
1
 10
331.8356246459741
 20
293.3798025100929
 30
0
 42
0.02383563990207771
  0
VERTEX
  8
1
 10
330.917187763971
 20
293.2741317799818
 30
0
 42
0.0358919016953206
  0
VERTEX
  8
1
 10
330.0494280506381
 20
293.0673175049458
 30
0
 42
0.04895632414654692
  0
VERTEX
  8
1
 10
329.2492378955319
 20
292.7256451700097
 30
0
 42
0.04576326853651778
  0
VERTEX
  8
1
 10
328.5914544481688
 20
292.2825009577479
 30
0
 42
0.02110922930106136
  0
VERTEX
  8
1
 10
327.9814984584559
 20
291.7404445992644
 30
0
 42
0.01598160533316279
  0
VERTEX
  8
1
 10
327.3979536127592
 20
291.1387634704393
 30
0
 42
-0.001092134691019432
  0
VERTEX
  8
1
 10
326.8194035974447
 20
290.516744947153
 30
0
 42
-0.01369804712001341
  0
VERTEX
  8
1
 10
326.2244320988779
 20
289.9136764052856
 30
0
 42
-0.02555441647284487
  0
VERTEX
  8
1
 10
325.3685083437063
 20
289.180704804501
 30
0
 42
-0.02143501595996743
  0
VERTEX
  8
1
 10
324.4554036068923
 20
288.537072570326
 30
0
 42
-0.0169296781939483
  0
VERTEX
  8
1
 10
323.4968128838401
 20
287.966109861259
 30
0
 42
-0.01233822321848671
  0
VERTEX
  8
1
 10
322.5044311699533
 20
287.451146835799
 30
0
 42
-0.007800748263520037
  0
VERTEX
  8
1
 10
321.4899534606358
 20
286.9755136524445
 30
0
 42
-0.005362192224299229
  0
VERTEX
  8
1
 10
320.6830812169395
 20
286.620737899324
 30
0
 42
-0.007366627213609317
  0
VERTEX
  8
1
 10
319.8686729060962
 20
286.2871087061027
 30
0
 42
-0.009412356290834256
  0
VERTEX
  8
1
 10
319.0456257245133
 20
285.9817568884572
 30
0
 42
-0.01149368119262269
  0
VERTEX
  8
1
 10
318.2128368685984
 20
285.7118132620639
 30
0
 42
-0.02517093435363232
  0
VERTEX
  8
1
 10
316.6567317727112
 20
285.330563177536
 30
0
 42
-0.008504618118801858
  0
VERTEX
  8
1
 10
315.9376087617626
 20
285.2043697228937
 30
0
 42
-0.006047552492621473
  0
VERTEX
  8
1
 10
315.2134973141383
 20
285.0989152760671
 30
0
 42
-0.003614339530274874
  0
VERTEX
  8
1
 10
314.4860602420636
 20
285.007286834451
 30
0
 42
-0.001202089796682949
  0
VERTEX
  8
1
 10
313.7569603577637
 20
284.92257139544
 30
0
  0
SEQEND
  8
1
  0
POLYLINE
  8
1
 62
3
 66
1
  0
VERTEX
  8
1
 10
333.7569603577638
 20
289.42257139544
 30
0
 42
0.002401515546318478
  0
VERTEX
  8
1
 10
333.0124832957849
 20
289.4808795759925
 30
0
 42
0.00724884075327707
  0
VERTEX
  8
1
 10
332.2703852530996
 20
289.5246107114068
 30
0
 42
0.01229879808578351
  0
VERTEX
  8
1
 10
331.5330452490015
 20
289.539187756545
 30
0
 42
0.01753962731828603
  0
VERTEX
  8
1
 10
330.802842302784
 20
289.5100336662687
 30
0
 42
0.02289826929953894
  0
VERTEX
  8
1
 10
330.0821554337409
 20
289.42257139544
 30
0
 42
0.0262379291337899
  0
VERTEX
  8
1
 10
329.3124822944139
 20
289.2512482524234
 30
0
 42
0.01533451021641782
  0
VERTEX
  8
1
 10
328.5537310152765
 20
289.014748867037
 30
0
 42
0.01262719634043271
  0
VERTEX
  8
1
 10
327.8028115253501
 20
288.7337527752426
 30
0
 42
0.002243745492184903
  0
VERTEX
  8
1
 10
327.0566337536558
 20
288.4289395130016
 30
0
 42
-0.002052424584238803
  0
VERTEX
  8
1
 10
326.3121076292148
 20
288.1209886162757
 30
0
 42
-0.004718784384113104
  0
VERTEX
  8
1
 10
325.5155658362128
 20
287.8065556937624
 30
0
 42
-0.002952234778105743
  0
VERTEX
  8
1
 10
324.7178764202311
 20
287.5057462052261
 30
0
 42
-0.001148070354190366
  0
VERTEX
  8
1
 10
323.9195342377133
 20
287.2121531779464
 30
0
 42
0.0006697605109574097
  0
VERTEX
  8
1
 10
323.1210341451034
 20
286.9193696392031
 30
0
 42
0.00248204459652739
  0
VERTEX
  8
1
 10
322.3228709988449
 20
286.6209886162757
 30
0
 42
0.001978882975279729
  0
VERTEX
  8
1
 10
321.6455264254627
 20
286.3608628208175
 30
0
 42
-0.002424872975764789
  0
VERTEX
  8
1
 10
320.9668504624986
 20
286.1022952168356
 30
0
 42
-0.005965402688231223
  0
VERTEX
  8
1
 10
320.2849122179082
 20
285.8554959281103
 30
0
 42
-0.009563208241552414
  0
VERTEX
  8
1
 10
319.597780799647
 20
285.630675078422
 30
0
 42
-0.01321986738211998
  0
VERTEX
  8
1
 10
318.9035253156708
 20
285.438042791551
 30
0
 42
-0.01938778054363125
  0
VERTEX
  8
1
 10
317.896417554893
 20
285.2309753468348
 30
0
 42
-0.01499239441264795
  0
VERTEX
  8
1
 10
316.8745063069127
 20
285.0932233457812
 30
0
 42
-0.01059728124997391
  0
VERTEX
  8
1
 10
315.8414924435307
 20
285.0074579274747
 30
0
 42
-0.006296230251623207
  0
VERTEX
  8
1
 10
314.8010768365475
 20
284.9563502309995
 30
0
 42
-0.002086734309645516
  0
VERTEX
  8
1
 10
313.7569603577637
 20
284.92257139544
 30
0
  0
SEQEND
  8
1
  0
POLYLINE
  8
1
 62
3
 66
1
  0
VERTEX
  8
1
 10
333.7569603577638
 20
288.42257139544
 30
0
 42
0.00240151554616682
  0
VERTEX
  8
1
 10
333.0124832957849
 20
288.4808795759925
 30
0
 42
0.007248840753428957
  0
VERTEX
  8
1
 10
332.2703852530996
 20
288.5246107114068
 30
0
 42
0.01229879808563072
  0
VERTEX
  8
1
 10
331.5330452490015
 20
288.539187756545
 30
0
 42
0.01753962731843928
  0
VERTEX
  8
1
 10
330.802842302784
 20
288.5100336662687
 30
0
 42
0.02289826929938609
  0
VERTEX
  8
1
 10
330.0821554337409
 20
288.42257139544
 30
0
 42
0.02623792913394366
  0
VERTEX
  8
1
 10
329.3124822944139
 20
288.2512482524234
 30
0
 42
0.01533451021626213
  0
VERTEX
  8
1
 10
328.5537310152765
 20
288.014748867037
 30
0
 42
0.0126271963405895
  0
VERTEX
  8
1
 10
327.8028115253501
 20
287.7337527752426
 30
0
 42
0.002243745491996164
  0
VERTEX
  8
1
 10
327.0566337536558
 20
287.4289395130017
 30
0
 42
-0.002052424584173355
  0
VERTEX
  8
1
 10
326.3121076292148
 20
287.1209886162757
 30
0
 42
-0.004718784384113104
  0
VERTEX
  8
1
 10
325.5155658362128
 20
286.8065556937624
 30
0
 42
-0.002952234778105743
  0
VERTEX
  8
1
 10
324.7178764202311
 20
286.5057462052261
 30
0
 42
-0.001148070354190366
  0
VERTEX
  8
1
 10
323.9195342377133
 20
286.2121531779464
 30
0
 42
0.0006697605109574097
  0
VERTEX
  8
1
 10
323.1210341451034
 20
285.9193696392031
 30
0
 42
0.00248204459652739
  0
VERTEX
  8
1
 10
322.3228709988449
 20
285.6209886162757
 30
0
 42
0.001978882975279729
  0
VERTEX
  8
1
 10
321.6455264254627
 20
285.3608628208175
 30
0
 42
-0.002424872975911061
  0
VERTEX
  8
1
 10
320.9668504624986
 20
285.1022952168356
 30
0
 42
-0.005965402688157668
  0
VERTEX
  8
1
 10
320.2849122179082
 20
284.8554959281103
 30
0
 42
-0.009563208241478466
  0
VERTEX
  8
1
 10
319.597780799647
 20
284.630675078422
 30
0
 42
-0.01321986738211998
  0
VERTEX
  8
1
 10
318.9035253156708
 20
284.438042791551
 30
0
 42
-0.01938778054352291
  0
VERTEX
  8
1
 10
317.896417554893
 20
284.2309753468348
 30
0
 42
-0.01499239441264795
  0
VERTEX
  8
1
 10
316.8745063069127
 20
284.0932233457812
 30
0
 42
-0.01059728125002843
  0
VERTEX
  8
1
 10
315.8414924435307
 20
284.0074579274747
 30
0
 42
-0.006296230251514289
  0
VERTEX
  8
1
 10
314.8010768365475
 20
283.9563502309995
 30
0
 42
-0.002086734309591115
  0
VERTEX
  8
1
 10
313.7569603577637
 20
283.92257139544
 30
0
  0
SEQEND
  8
1
  0
POLYLINE
  8
1
 62
3
 66
1
  0
VERTEX
  8
1
 10
333.7569603577638
 20
284.42257139544
 30
0
 42
-0.001012204111021952
  0
VERTEX
  8
1
 10
333.1257205168621
 20
284.4032523891671
 30
0
 42
-0.003041506933751172
  0
VERTEX
  8
1
 10
332.494853049086
 20
284.3890611155309
 30
0
 42
-0.005083541123794678
  0
VERTEX
  8
1
 10
331.8647303275612
 20
284.3851253071681
 30
0
 42
-0.0071401732511014
  0
VERTEX
  8
1
 10
331.2357247254133
 20
284.3965726967153
 30
0
 42
-0.02015103824143028
  0
VERTEX
  8
1
 10
329.8711380369833
 20
284.4959907354569
 30
0
 42
-0.005713191267251782
  0
VERTEX
  8
1
 10
329.1355082648299
 20
284.5866154453182
 30
0
 42
-0.001504699509191205
  0
VERTEX
  8
1
 10
328.4001765546502
 20
284.6879935630577
 30
0
 42
0.002686391856223626
  0
VERTEX
  8
1
 10
327.664000161786
 20
284.7877135053398
 30
0
 42
0.006874857216583887
  0
VERTEX
  8
1
 10
326.9258363415798
 20
284.8733636888289
 30
0
 42
0.006540794941187558
  0
VERTEX
  8
1
 10
326.4618016587335
 20
284.9146243421149
 30
0
 42
0.00604678778752372
  0
VERTEX
  8
1
 10
325.9969908059373
 20
284.9441838205382
 30
0
 42
0.007915314743325977
  0
VERTEX
  8
1
 10
325.5318571391691
 20
284.960742772761
 30
0
 42
0.007448605157993907
  0
VERTEX
  8
1
 10
325.0668540144067
 20
284.9630018474454
 30
0
 42
0.01990100913022328
  0
VERTEX
  8
1
 10
324.0390106466427
 20
284.9117362647081
 30
0
 42
0.00670525568787199
  0
VERTEX
  8
1
 10
323.4769284653264
 20
284.8536119808269
 30
0
 42
0.00695179005961523
  0
VERTEX
  8
1
 10
322.9159966574217
 20
284.7800739822941
 30
0
 42
0.002464144041237546
  0
VERTEX
  8
1
 10
322.3560236366712
 20
284.6959074097941
 30
0
 42
0.002737693092665962
  0
VERTEX
  8
1
 10
321.7968178168179
 20
284.6058974040113
 30
0
 42
-0.0001339878578998224
  0
VERTEX
  8
1
 10
321.241932994471
 20
284.5151269771066
 30
0
 42
-0.001401259120632696
  0
VERTEX
  8
1
 10
320.6871727304818
 20
284.4261244965795
 30
0
 42
-0.002671166501038903
  0
VERTEX
  8
1
 10
320.1320937514822
 20
284.3417018921795
 30
0
 42
-0.003942555142995073
  0
VERTEX
  8
1
 10
319.5762527841043
 20
284.264671093656
 30
0
 42
-0.005212195614944651
  0
VERTEX
  8
1
 10
319.0192065549799
 20
284.1978440307581
 30
0
 42
-0.004276427742308462
  0
VERTEX
  8
1
 10
318.5791914037777
 20
284.1537941491624
 30
0
 42
-0.003618960281309553
  0
VERTEX
  8
1
 10
318.1383554731705
 20
284.1166822784475
 30
0
 42
-0.002963333241694142
  0
VERTEX
  8
1
 10
317.6969016010655
 20
284.0853646723666
 30
0
 42
-0.002309907758960958
  0
VERTEX
  8
1
 10
317.2550326253702
 20
284.0586975846732
 30
0
 42
-0.001658437888530603
  0
VERTEX
  8
1
 10
316.8129513839921
 20
284.0355372691204
 30
0
 42
-0.00165918181435953
  0
VERTEX
  8
1
 10
316.2017747975718
 20
284.0075254413782
 30
0
 42
-0.001291066999771042
  0
VERTEX
  8
1
 10
315.5905837986013
 20
283.9831260489734
 30
0
 42
-0.0009224660059053941
  0
VERTEX
  8
1
 10
314.9793819902181
 20
283.9614359830717
 30
0
 42
-0.000553577701505192
  0
VERTEX
  8
1
 10
314.3681729755597
 20
283.9415521348387
 30
0
 42
-0.0001845410469040118
  0
VERTEX
  8
1
 10
313.7569603577637
 20
283.92257139544
 30
0
  0
SEQEND
  8
1
  0
POLYLINE
  8
1
 62
3
 66
1
  0
VERTEX
  8
1
 10
333.7569603577638
 20
283.42257139544
 30
0
 42
-0.001012204111111935
  0
VERTEX
  8
1
 10
333.1257205168621
 20
283.4032523891672
 30
0
 42
-0.003041506933841212
  0
VERTEX
  8
1
 10
332.494853049086
 20
283.3890611155309
 30
0
 42
-0.005083541123794678
  0
VERTEX
  8
1
 10
331.8647303275612
 20
283.3851253071681
 30
0
 42
-0.007140173251282098
  0
VERTEX
  8
1
 10
331.2357247254133
 20
283.3965726967153
 30
0
 42
-0.02015103824143028
  0
VERTEX
  8
1
 10
329.8711380369833
 20
283.4959907354569
 30
0
 42
-0.005713191267251782
  0
VERTEX
  8
1
 10
329.1355082648299
 20
283.5866154453182
 30
0
 42
-0.001504699509191205
  0
VERTEX
  8
1
 10
328.4001765546502
 20
283.6879935630577
 30
0
 42
0.002686391856223626
  0
VERTEX
  8
1
 10
327.664000161786
 20
283.7877135053398
 30
0
 42
0.006874857216583887
  0
VERTEX
  8
1
 10
326.9258363415798
 20
283.8733636888289
 30
0
 42
0.006540794941187558
  0
VERTEX
  8
1
 10
326.4618016587335
 20
283.9146243421149
 30
0
 42
0.00604678778752372
  0
VERTEX
  8
1
 10
325.9969908059373
 20
283.9441838205382
 30
0
 42
0.007915314743325977
  0
VERTEX
  8
1
 10
325.5318571391691
 20
283.960742772761
 30
0
 42
0.007448605157993907
  0
VERTEX
  8
1
 10
325.0668540144067
 20
283.9630018474454
 30
0
 42
0.01990100913022328
  0
VERTEX
  8
1
 10
324.0390106466427
 20
283.9117362647081
 30
0
 42
0.00670525568787199
  0
VERTEX
  8
1
 10
323.4769284653264
 20
283.8536119808269
 30
0
 42
0.00695179005961523
  0
VERTEX
  8
1
 10
322.9159966574217
 20
283.7800739822941
 30
0
 42
0.002464144041237546
  0
VERTEX
  8
1
 10
322.3560236366712
 20
283.6959074097941
 30
0
 42
0.002737693092665962
  0
VERTEX
  8
1
 10
321.7968178168179
 20
283.6058974040113
 30
0
 42
-0.0001339878578998224
  0
VERTEX
  8
1
 10
321.241932994471
 20
283.5151269771066
 30
0
 42
-0.001401259120632696
  0
VERTEX
  8
1
 10
320.6871727304818
 20
283.4261244965795
 30
0
 42
-0.002671166500938705
  0
VERTEX
  8
1
 10
320.1320937514822
 20
283.3417018921795
 30
0
 42
-0.003942555142794341
  0
VERTEX
  8
1
 10
319.5762527841043
 20
283.2646710936559
 30
0
 42
-0.005212195614843951
  0
VERTEX
  8
1
 10
319.0192065549799
 20
283.1978440307581
 30
0
 42
-0.004276427742308462
  0
VERTEX
  8
1
 10
318.5791914037777
 20
283.1537941491624
 30
0
 42
-0.003618960281053532
  0
VERTEX
  8
1
 10
318.1383554731705
 20
283.1166822784475
 30
0
 42
-0.002963333241822373
  0
VERTEX
  8
1
 10
317.6969016010655
 20
283.0853646723666
 30
0
 42
-0.002309907759089078
  0
VERTEX
  8
1
 10
317.2550326253702
 20
283.0586975846732
 30
0
 42
-0.001658437888787065
  0
VERTEX
  8
1
 10
316.8129513839921
 20
283.0355372691204
 30
0
 42
-0.00165918181435953
  0
VERTEX
  8
1
 10
316.2017747975718
 20
283.0075254413782
 30
0
 42
-0.001291067000049598
  0
VERTEX
  8
1
 10
315.5905837986013
 20
282.9831260489735
 30
0
 42
-0.0009224660059982643
  0
VERTEX
  8
1
 10
314.9793819902181
 20
282.9614359830717
 30
0
 42
-0.0005535777016909878
  0
VERTEX
  8
1
 10
314.3681729755597
 20
282.9415521348387
 30
0
 42
-0.0001845410470898076
  0
VERTEX
  8
1
 10
313.7569603577637
 20
282.92257139544
 30
0
  0
SEQEND
  8
1
  0
POLYLINE
  8
1
 62
3
 66
1
  0
VERTEX
  8
1
 10
333.7569603577638
 20
281.92257139544
 30
0
 42
-0.001888937841103188
  0
VERTEX
  8
1
 10
333.1231943652528
 20
281.8838747663259
 30
0
 42
-0.005694027757110153
  0
VERTEX
  8
1
 10
332.4904322837697
 20
281.8548522944903
 30
0
 42
-0.009568406319904764
  0
VERTEX
  8
1
 10
331.8596780243426
 20
281.8451781372119
 30
0
 42
-0.01351495323559742
  0
VERTEX
  8
1
 10
331.2319354979994
 20
281.8645264517689
 30
0
 42
-0.04014634871259915
  0
VERTEX
  8
1
 10
329.7943761980573
 20
282.0645842230439
 30
0
 42
-0.009124304351250371
  0
VERTEX
  8
1
 10
328.9854763908747
 20
282.2547989551021
 30
0
 42
0.001534250010450822
  0
VERTEX
  8
1
 10
328.1777527189192
 20
282.4576853917505
 30
0
 42
0.01220105072974324
  0
VERTEX
  8
1
 10
327.3674487068897
 20
282.6377133331249
 30
0
 42
0.02318308017380485
  0
VERTEX
  8
1
 10
326.5508078794849
 20
282.7593525793612
 30
0
 42
0.01529747283862047
  0
VERTEX
  8
1
 10
326.1204533864706
 20
282.7899216479283
 30
0
 42
0.005656696756956809
  0
VERTEX
  8
1
 10
325.6880824275683
 20
282.8024671066328
 30
0
 42
0.006368138960197154
  0
VERTEX
  8
1
 10
325.2544352878245
 20
282.8046171384528
 30
0
 42
-0.00060290304795271
  0
VERTEX
  8
1
 10
324.8202522522852
 20
282.8039999263664
 30
0
 42
-0.005000141994658426
  0
VERTEX
  8
1
 10
324.3862736059966
 20
282.8082436533517
 30
0
 42
-0.006579526751895903
  0
VERTEX
  8
1
 10
323.918393881462
 20
282.8247262254156
 30
0
 42
-0.004151305535377152
  0
VERTEX
  8
1
 10
323.4513068617102
 20
282.8512290314726
 30
0
 42
-0.001715361460686194
  0
VERTEX
  8
1
 10
322.9847031050269
 20
282.8832013129897
 30
0
 42
0.000722835994189072
  0
VERTEX
  8
1
 10
322.5182731696979
 20
282.916092311434
 30
0
 42
0.003162479871038289
  0
VERTEX
  8
1
 10
322.0517076140088
 20
282.9453512682722
 30
0
 42
0.006187227354183331
  0
VERTEX
  8
1
 10
321.3944211213321
 20
282.9742445195678
 30
0
 42
0.003818458239214985
  0
VERTEX
  8
1
 10
320.7364643717501
 20
282.9899851398442
 30
0
 42
0.003855524038791275
  0
VERTEX
  8
1
 10
320.0780486652437
 20
282.9956285828108
 30
0
 42
0.001491465786088715
  0
VERTEX
  8
1
 10
319.4193853017937
 20
282.994230302177
 30
0
 42
0.001534251241599572
  0
VERTEX
  8
1
 10
318.7606855813809
 20
282.9888457516519
 30
0
 42
0.0004844600512787095
  0
VERTEX
  8
1
 10
317.7594552442257
 20
282.978172967156
 30
0
 42
0.0003770640251666233
  0
VERTEX
  8
1
 10
316.7585484353583
 20
282.9657787914957
 30
0
 42
0.0002694207363712274
  0
VERTEX
  8
1
 10
315.7578842727069
 20
282.9520935724623
 30
0
 42
0.0001617307302740612
  0
VERTEX
  8
1
 10
314.7573818741993
 20
282.9375476578467
 30
0
 42
5.389327206150843e-005
  0
VERTEX
  8
1
 10
313.7569603577637
 20
282.92257139544
 30
0
  0
SEQEND
  8
1
  0
POLYLINE
  8
1
 62
3
 66
1
  0
VERTEX
  8
1
 10
333.7569603577638
 20
280.92257139544
 30
0
 42
-0.001888937841192617
  0
VERTEX
  8
1
 10
333.1231943652528
 20
280.883874766326
 30
0
 42
-0.005694027757199751
  0
VERTEX
  8
1
 10
332.4904322837697
 20
280.8548522944903
 30
0
 42
-0.009568406319904764
  0
VERTEX
  8
1
 10
331.8596780243426
 20
280.8451781372119
 30
0
 42
-0.01351495323550708
  0
VERTEX
  8
1
 10
331.2319354979994
 20
280.8645264517689
 30
0
 42
-0.04014634871254977
  0
VERTEX
  8
1
 10
329.7943761980573
 20
281.0645842230438
 30
0
 42
-0.009124304351117243
  0
VERTEX
  8
1
 10
328.9854763908747
 20
281.254798955102
 30
0
 42
0.001534250010566729
  0
VERTEX
  8
1
 10
328.1777527189193
 20
281.4576853917504
 30
0
 42
0.01220105072960977
  0
VERTEX
  8
1
 10
327.3674487068897
 20
281.6377133331249
 30
0
 42
0.02318308017396503
  0
VERTEX
  8
1
 10
326.5508078794849
 20
281.7593525793612
 30
0
 42
0.01529747283845856
  0
VERTEX
  8
1
 10
326.1204533864706
 20
281.7899216479283
 30
0
 42
0.005656696757118685
  0
VERTEX
  8
1
 10
325.6880824275683
 20
281.8024671066328
 30
0
 42
0.0063681389600355
  0
VERTEX
  8
1
 10
325.2544352878245
 20
281.8046171384528
 30
0
 42
-0.0006029030480836053
  0
VERTEX
  8
1
 10
324.8202522522852
 20
281.8039999263665
 30
0
 42
-0.005000141994658426
  0
VERTEX
  8
1
 10
324.3862736059966
 20
281.8082436533518
 30
0
 42
-0.006579526751531901
  0
VERTEX
  8
1
 10
323.918393881462
 20
281.8247262254156
 30
0
 42
-0.004151305535377152
  0
VERTEX
  8
1
 10
323.4513068617102
 20
281.8512290314726
 30
0
 42
-0.001715361460686194
  0
VERTEX
  8
1
 10
322.9847031050269
 20
281.8832013129897
 30
0
 42
0.0007228359944233292
  0
VERTEX
  8
1
 10
322.5182731696979
 20
281.916092311434
 30
0
 42
0.003162479870812024
  0
VERTEX
  8
1
 10
322.0517076140088
 20
281.9453512682722
 30
0
 42
0.006187227354406273
  0
VERTEX
  8
1
 10
321.3944211213321
 20
281.9742445195678
 30
0
 42
0.003818458238992049
  0
VERTEX
  8
1
 10
320.7364643717501
 20
281.9899851398442
 30
0
 42
0.003855524039013989
  0
VERTEX
  8
1
 10
320.0780486652437
 20
281.9956285828108
 30
0
 42
0.001491465785909524
  0
VERTEX
  8
1
 10
319.4193853017937
 20
281.9942303021769
 30
0
 42
0.001534251241692165
  0
VERTEX
  8
1
 10
318.7606855813809
 20
281.9888457516519
 30
0
 42
0.0004844600512787095
  0
VERTEX
  8
1
 10
317.7594552442257
 20
281.978172967156
 30
0
 42
0.0003770640251666233
  0
VERTEX
  8
1
 10
316.7585484353583
 20
281.9657787914957
 30
0
 42
0.0002694207363996491
  0
VERTEX
  8
1
 10
315.7578842727069
 20
281.9520935724622
 30
0
 42
0.0001617307301890182
  0
VERTEX
  8
1
 10
314.7573818741993
 20
281.9375476578467
 30
0
 42
5.389327217497322e-005
  0
VERTEX
  8
1
 10
313.7569603577637
 20
281.92257139544
 30
0
  0
SEQEND
  8
1
  0
POLYLINE
  8
1
 62
3
 66
1
  0
VERTEX
  8
1
 10
333.7569603577638
 20
276.92257139544
 30
0
 42
-0.001362471609669203
  0
VERTEX
  8
1
 10
333.1250163562552
 20
276.8972652151471
 30
0
 42
-0.004097610774150378
  0
VERTEX
  8
1
 10
332.4936207680239
 20
276.8788800876233
 30
0
 42
-0.006858595752736884
  0
VERTEX
  8
1
 10
331.8633220063474
 20
276.8743370656379
 30
0
 42
-0.009646437364584733
  0
VERTEX
  8
1
 10
331.234668484503
 20
276.89055720196
 30
0
 42
-0.01243679960361793
  0
VERTEX
  8
1
 10
330.6082086157679
 20
276.9344615493587
 30
0
 42
-0.01723934499789387
  0
VERTEX
  8
1
 10
329.7808504123639
 20
277.0434605151627
 30
0
 42
-0.01504120646969793
  0
VERTEX
  8
1
 10
328.9598784576749
 20
277.2060676042383
 30
0
 42
-0.01291158192501108
  0
VERTEX
  8
1
 10
328.1468455310595
 20
277.414891876098
 30
0
 42
-0.01088102849113996
  0
VERTEX
  8
1
 10
327.3433044118766
 20
277.6625423902539
 30
0
 42
-0.008953596705407289
  0
VERTEX
  8
1
 10
326.5508078794849
 20
277.9416282062185
 30
0
 42
-0.003703781418255556
  0
VERTEX
  8
1
 10
326.1149473954177
 20
278.1075821946697
 30
0
 42
-0.00217249129404488
  0
VERTEX
  8
1
 10
325.6817754868584
 20
278.2783698526532
 30
0
 42
-0.0006319289789430996
  0
VERTEX
  8
1
 10
325.2500803929839
 20
278.4513803494069
 30
0
 42
0.0009139763722313658
  0
VERTEX
  8
1
 10
324.8186503529711
 20
278.6240028541682
 30
0
 42
0.002461932441628872
  0
VERTEX
  8
1
 10
324.3862736059966
 20
278.7936265361746
 30
0
 42
0.003473150353501934
  0
VERTEX
  8
1
 10
323.9229353852683
 20
278.9690793537849
 30
0
 42
0.002008603979724427
  0
VERTEX
  8
1
 10
323.4574753416941
 20
279.1395247391166
 30
0
 42
0.002047564780934156
  0
VERTEX
  8
1
 10
322.9902278092853
 20
279.3063385791374
 30
0
 42
0.0005824769221038167
  0
VERTEX
  8
1
 10
322.5215271220531
 20
279.4708967608153
 30
0
 42
0.0006242501455984628
  0
VERTEX
  8
1
 10
322.0517076140088
 20
279.634575171118
 30
0
 42
0.0003363676654387049
  0
VERTEX
  8
1
 10
321.4004174490963
 20
279.8600731516669
 30
0
 42
0.005230759132022408
  0
VERTEX
  8
1
 10
320.7466484911536
 20
280.0783085692255
 30
0
 42
0.006236406618067241
  0
VERTEX
  8
1
 10
320.0894224124044
 20
280.2810699548332
 30
0
 42
0.01123059924296621
  0
VERTEX
  8
1
 10
319.4277608850722
 20
280.4601458395297
 30
0
 42
0.01235024403580184
  0
VERTEX
  8
1
 10
318.7606855813809
 20
280.6073247543542
 30
0
 42
0.02178204566593396
  0
VERTEX
  8
1
 10
317.7762807411581
 20
280.754993277305
 30
0
 42
0.01290993169225091
  0
VERTEX
  8
1
 10
316.7809824312682
 20
280.83430871142
 30
0
 42
0.01287933557261619
  0
VERTEX
  8
1
 10
315.777514019128
 20
280.8623593289084
 30
0
 42
0.004130453162485613
  0
VERTEX
  8
1
 10
314.7685988721542
 20
280.8562334019789
 30
0
 42
0.004305287326372863
  0
VERTEX
  8
1
 10
313.7569603577637
 20
280.8330192028405
 30
0
  0
SEQEND
  8
1
  0
POLYLINE
  8
1
 62
3
 66
1
  0
VERTEX
  8
1
 10
333.7569603577638
 20
275.92257139544
 30
0
 42
-0.001358152088050542
  0
VERTEX
  8
1
 10
333.1250441140963
 20
275.8973556418125
 30
0
 42
-0.004084509566501497
  0
VERTEX
  8
1
 10
332.4936693442459
 20
275.8790383342878
 30
0
 42
-0.006836327826038263
  0
VERTEX
  8
1
 10
331.8633775220297
 20
275.8745179189687
 30
0
 42
-0.009614512800397419
  0
VERTEX
  8
1
 10
331.2347101212646
 20
275.890692841958
 30
0
 42
-0.01239487570143479
  0
VERTEX
  8
1
 10
330.6082086157679
 20
275.9344615493587
 30
0
 42
-0.01720460201211237
  0
VERTEX
  8
1
 10
329.7807522412771
 20
276.043140703403
 30
0
 42
-0.01506268212933882
  0
VERTEX
  8
1
 10
328.9596760776232
 20
276.2054083111357
 30
0
 42
-0.01298929339472889
  0
VERTEX
  8
1
 10
328.1465880275864
 20
276.4140530075321
 30
0
 42
-0.01101450300657952
  0
VERTEX
  8
1
 10
327.343095993947
 20
276.6618634275678
 30
0
 42
-0.009143100764498958
  0
VERTEX
  8
1
 10
326.5508078794849
 20
276.9416282062185
 30
0
 42
-0.003751510980296008
  0
VERTEX
  8
1
 10
326.1151376570096
 20
277.1082020094893
 30
0
 42
-0.002072865824955728
  0
VERTEX
  8
1
 10
325.6821416440356
 20
277.2795626821805
 30
0
 42
-0.0003846956454770273
  0
VERTEX
  8
1
 10
325.2505273149504
 20
277.4528362862321
 30
0
 42
0.001309348898525152
  0
VERTEX
  8
1
 10
324.8190021441416
 20
277.6251488835836
 30
0
 42
0.003005986051701116
  0
VERTEX
  8
1
 10
324.3862736059966
 20
277.7936265361746
 30
0
 42
0.003951844712005105
  0
VERTEX
  8
1
 10
323.9222625568411
 20
277.9668874819197
 30
0
 42
0.001611805709620879
  0
VERTEX
  8
1
 10
323.456105911057
 20
278.1350635475806
 30
0
 42
0.001288536037706385
  0
VERTEX
  8
1
 10
322.9884981906519
 20
278.3007040038631
 30
0
 42
-0.0005425218245467645
  0
VERTEX
  8
1
 10
322.5201339176333
 20
278.4663581214737
 30
0
 42
-0.001862584057254168
  0
VERTEX
  8
1
 10
322.0517076140088
 20
278.634575171118
 30
0
 42
-0.001452496948184175
  0
VERTEX
  8
1
 10
321.3987994012812
 20
278.8752826972595
 30
0
 42
0.002656236824541156
  0
VERTEX
  8
1
 10
320.745182610051
 20
279.1144663467452
 30
0
 42
0.006791582524637272
  0
VERTEX
  8
1
 10
320.0889177219219
 20
279.3406529941516
 30
0
 42
0.01103558094110382
  0
VERTEX
  8
1
 10
319.4280652184973
 20
279.5423695140552
 30
0
 42
0.01535980820463136
  0
VERTEX
  8
1
 10
318.7606855813809
 20
279.7081427810324
 30
0
 42
0.02443126801018834
  0
VERTEX
  8
1
 10
317.7812071140025
 20
279.8701291905946
 30
0
 42
0.01606205456695809
  0
VERTEX
  8
1
 10
316.7875509283941
 20
279.9527151423697
 30
0
 42
0.01393493870884565
  0
VERTEX
  8
1
 10
315.7832614541131
 20
279.9757507508044
 30
0
 42
0.005770450064281875
  0
VERTEX
  8
1
 10
314.7718831207172
 20
279.9590861303456
 30
0
 42
0.003972978688872122
  0
VERTEX
  8
1
 10
313.7569603577637
 20
279.92257139544
 30
0
  0
SEQEND
  8
1
  0
POLYLINE
  8
1
 62
3
 66
1
  0
VERTEX
  8
1
 10
333.7569603577638
 20
274.42257139544
 30
0
 42
-0.00143746641475225
  0
VERTEX
  8
1
 10
333.1243758280369
 20
274.4016123245273
 30
0
 42
-0.004324802430529811
  0
VERTEX
  8
1
 10
332.492499843642
 20
274.3879592670277
 30
0
 42
-0.007243808653221055
  0
VERTEX
  8
1
 10
331.8620409499109
 20
274.3889182363543
 30
0
 42
-0.01019656978461038
  0
VERTEX
  8
1
 10
331.2337076921755
 20
274.4117952459202
 30
0
 42
-0.01315520811084518
  0
VERTEX
  8
1
 10
330.6082086157679
 20
274.4638963091384
 30
0
 42
-0.01633930251827368
  0
VERTEX
  8
1
 10
329.8589929237043
 20
274.5724833061073
 30
0
 42
-0.0137816654067753
  0
VERTEX
  8
1
 10
329.115535676946
 20
274.7264155995691
 30
0
 42
-0.01127931597957224
  0
VERTEX
  8
1
 10
328.3784490488008
 20
274.9179738046904
 30
0
 42
-0.008860671032175225
  0
VERTEX
  8
1
 10
327.6483452125762
 20
275.1394385366375
 30
0
 42
-0.006521860467557139
  0
VERTEX
  8
1
 10
326.9258363415798
 20
275.383090410577
 30
0
 42
-0.003263998879529328
  0
VERTEX
  8
1
 10
326.456793359946
 20
275.551245449096
 30
0
 42
-0.002743206220244742
  0
VERTEX
  8
1
 10
325.990602103633
 20
275.7247283428877
 30
0
 42
-0.002214346597003122
  0
VERTEX
  8
1
 10
325.526592182742
 20
275.9026580709552
 30
0
 42
-0.001680038633959524
  0
VERTEX
  8
1
 10
325.0640932073734
 20
276.0841536123018
 30
0
 42
-0.001142648290443986
  0
VERTEX
  8
1
 10
324.6024347876278
 20
276.2683339459305
 30
0
 42
-0.003025283605914413
  0
VERTEX
  8
1
 10
324.0230248604132
 20
276.5041200355501
 30
0
 42
-0.006884513992075015
  0
VERTEX
  8
1
 10
323.4483211066748
 20
276.7513744822724
 30
0
 42
-0.01075366762067498
  0
VERTEX
  8
1
 10
322.8827606194627
 20
277.0187133675743
 30
0
 42
-0.01459082984932737
  0
VERTEX
  8
1
 10
322.3307804918271
 20
277.314752772933
 30
0
 42
-0.01827915716362549
  0
VERTEX
  8
1
 10
321.7968178168179
 20
277.6481087798253
 30
0
 42
-0.01457721295501165
  0
VERTEX
  8
1
 10
321.2483289610793
 20
278.0475780113584
 30
0
 42
-0.001460479569505682
  0
VERTEX
  8
1
 10
320.7108781541963
 20
278.4659078416223
 30
0
 42
0.01170481162207498
  0
VERTEX
  8
1
 10
320.1699106489989
 20
278.8696066283297
 30
0
 42
0.02559818686944461
  0
VERTEX
  8
1
 10
319.6108716983168
 20
279.2251827291935
 30
0
 42
0.04086222631773798
  0
VERTEX
  8
1
 10
319.0192065549799
 20
279.4991445019264
 30
0
 42
0.03180568557322096
  0
VERTEX
  8
1
 10
318.6004546310043
 20
279.6233633546905
 30
0
 42
0.01804985857805686
  0
VERTEX
  8
1
 10
318.1655674676724
 20
279.7064084764535
 30
0
 42
0.0183010851625936
  0
VERTEX
  8
1
 10
317.7194307492296
 20
279.7583902738178
 30
0
 42
0.005464783303771399
  0
VERTEX
  8
1
 10
317.266930159921
 20
279.7894191533858
 30
0
 42
0.006549699693259158
  0
VERTEX
  8
1
 10
316.8129513839921
 20
279.8096055217597
 30
0
 42
0.0004093587786438991
  0
VERTEX
  8
1
 10
316.194049702064
 20
279.8338537968867
 30
0
 42
0.0003245172122989928
  0
VERTEX
  8
1
 10
315.5802836712576
 20
279.8569986717531
 30
0
 42
0.0002340549039417432
  0
VERTEX
  8
1
 10
314.9703693787923
 20
279.8793159964239
 30
0
 42
0.0001422883526994947
  0
VERTEX
  8
1
 10
314.3630229118878
 20
279.9010816209645
 30
0
 42
4.708687541915001e-005
  0
VERTEX
  8
1
 10
313.7569603577637
 20
279.92257139544
 30
0
  0
SEQEND
  8
1
  0
POLYLINE
  8
1
 62
3
 66
1
  0
VERTEX
  8
1
 10
333.7569603577638
 20
273.42257139544
 30
0
 42
-0.001399310508323968
  0
VERTEX
  8
1
 10
333.1247808680585
 20
273.402422508394
 30
0
 42
-0.004208486187093139
  0
VERTEX
  8
1
 10
332.4932086636797
 20
273.3893770887944
 30
0
 42
-0.007044180568837606
  0
VERTEX
  8
1
 10
331.862851029954
 20
273.3905386040877
 30
0
 42
-0.009906475772621911
  0
VERTEX
  8
1
 10
331.2343152522079
 20
273.4130105217202
 30
0
 42
-0.01276798874511718
  0
VERTEX
  8
1
 10
330.6082086157679
 20
273.4638963091384
 30
0
 42
-0.01604707638824798
  0
VERTEX
  8
1
 10
329.8577223871224
 20
273.5699419072679
 30
0
 42
-0.01397860901105384
  0
VERTEX
  8
1
 10
329.1129445045544
 20
273.7212325905925
 30
0
 42
-0.01197752447278368
  0
VERTEX
  8
1
 10
328.3751725088903
 20
273.9114198849964
 30
0
 42
-0.01006527445196804
  0
VERTEX
  8
1
 10
327.6457039409567
 20
274.1341553163632
 30
0
 42
-0.008241774927444417
  0
VERTEX
  8
1
 10
326.9258363415798
 20
274.383090410577
 30
0
 42
-0.003838553974194001
  0
VERTEX
  8
1
 10
326.4596908978242
 20
274.5570412675762
 30
0
 42
-0.001856704054575856
  0
VERTEX
  8
1
 10
325.9962502993806
 20
274.7360261821804
 30
0
 42
0.0001371936480075734
  0
VERTEX
  8
1
 10
325.5335422674197
 20
274.9165600218204
 30
0
 42
0.002130188905887842
  0
VERTEX
  8
1
 10
325.0695945231119
 20
275.0951576539268
 30
0
 42
0.004105463467962073
  0
VERTEX
  8
1
 10
324.6024347876278
 20
275.2683339459305
 30
0
 42
0.004136423690070371
  0
VERTEX
  8
1
 10
324.0236698749453
 20
275.4720960766386
 30
0
 42
-0.004610467601255435
  0
VERTEX
  8
1
 10
323.445409247077
 20
275.6782895295383
 30
0
 42
-0.01190343574370333
  0
VERTEX
  8
1
 10
322.875969378469
 20
275.9027668130997
 30
0
 42
-0.01931776423060959
  0
VERTEX
  8
1
 10
322.3236667435672
 20
276.1613804357928
 30
0
 42
-0.02658956512600546
  0
VERTEX
  8
1
 10
321.7968178168179
 20
276.4699829060876
 30
0
 42
-0.02465029267636986
  0
VERTEX
  8
1
 10
321.2384966363962
 20
276.8863238980829
 30
0
 42
-0.007303506873421977
  0
VERTEX
  8
1
 10
320.7023228857437
 20
277.3418540638689
 30
0
 42
0.009583372171399649
  0
VERTEX
  8
1
 10
320.1675485991184
 20
277.7921298932412
 30
0
 42
0.02737041927791328
  0
VERTEX
  8
1
 10
319.6134258107779
 20
278.1927078759952
 30
0
 42
0.04757618206175161
  0
VERTEX
  8
1
 10
319.0192065549799
 20
278.4991445019264
 30
0
 42
0.03703160076207453
  0
VERTEX
  8
1
 10
318.6051002472399
 20
278.6304327467752
 30
0
 42
0.01980714861975844
  0
VERTEX
  8
1
 10
318.1714452179867
 20
278.715352848834
 30
0
 42
0.02086257844014851
  0
VERTEX
  8
1
 10
317.7242178255048
 20
278.7656749304518
 30
0
 42
0.004976522059010309
  0
VERTEX
  8
1
 10
317.2693944280785
 20
278.7931691139774
 30
0
 42
0.00721492084052752
  0
VERTEX
  8
1
 10
316.8129513839921
 20
278.8096055217597
 30
0
 42
-0.0005860077343920877
  0
VERTEX
  8
1
 10
316.1919037730819
 20
278.8305882638354
 30
0
 42
-0.0004655068745566398
  0
VERTEX
  8
1
 10
315.5774224326146
 20
278.8526446276846
 30
0
 42
-0.0003378585558991937
  0
VERTEX
  8
1
 10
314.9678657949797
 20
278.8755062078641
 30
0
 42
-0.0002048992797181672
  0
VERTEX
  8
1
 10
314.3615922925663
 20
278.8989045989303
 30
0
 42
-6.86681427459926e-005
  0
VERTEX
  8
1
 10
313.7569603577637
 20
278.92257139544
 30
0
  0
SEQEND
  8
1
  0
POLYLINE
  8
1
 62
3
 66
1
  0
VERTEX
  8
1
 10
333.7569603577638
 20
271.92257139544
 30
0
 42
-0.001829921716483398
  0
VERTEX
  8
1
 10
333.0157453114366
 20
271.8786446303268
 30
0
 42
-0.005521412245206703
  0
VERTEX
  8
1
 10
332.27609378049
 20
271.8456995564919
 30
0
 42
-0.009297014988874948
  0
VERTEX
  8
1
 10
331.5395692803048
 20
271.8347178652136
 30
0
 42
-0.01317426561348762
  0
VERTEX
  8
1
 10
330.8077353262615
 20
271.8566812477702
 30
0
 42
-0.01710602726117203
  0
VERTEX
  8
1
 10
330.0821554337409
 20
271.92257139544
 30
0
 42
-0.01816776250888144
  0
VERTEX
  8
1
 10
329.3199136351263
 20
272.0485616889131
 30
0
 42
-0.01395037294223645
  0
VERTEX
  8
1
 10
328.564133374514
 20
272.2239832011869
 30
0
 42
-0.009739958315308961
  0
VERTEX
  8
1
 10
327.8124692327565
 20
272.4364095667242
 30
0
 42
-0.005623898474915101
  0
VERTEX
  8
1
 10
327.062575790706
 20
272.6734144199877
 30
0
 42
-0.001607917713926491
  0
VERTEX
  8
1
 10
326.3121076292148
 20
272.92257139544
 30
0
 42
-0.003035046829968828
  0
VERTEX
  8
1
 10
325.4648285539481
 20
273.2092011945554
 30
0
 42
-0.0100326397167721
  0
VERTEX
  8
1
 10
324.628049400494
 20
273.5168116366748
 30
0
 42
-0.01731546574571144
  0
VERTEX
  8
1
 10
323.8159861216362
 20
273.866732353984
 30
0
 42
-0.02487359489819062
  0
VERTEX
  8
1
 10
323.0428546701585
 20
274.280292978669
 30
0
 42
-0.03223808317300526
  0
VERTEX
  8
1
 10
322.3228709988449
 20
274.7788231429154
 30
0
 42
-0.02888700042264652
  0
VERTEX
  8
1
 10
321.6169156926837
 20
275.4186956014269
 30
0
 42
-0.0114241643768583
  0
VERTEX
  8
1
 10
320.9552892764334
 20
276.1227314712108
 30
0
 42
0.005159818166320124
  0
VERTEX
  8
1
 10
320.3047059449463
 20
276.8326190951439
 30
0
 42
0.02241317470665119
  0
VERTEX
  8
1
 10
319.6318798930747
 20
277.4900468161029
 30
0
 42
0.04260597243951593
  0
VERTEX
  8
1
 10
318.9035253156708
 20
278.0367029769645
 30
0
 42
0.05849288245865197
  0
VERTEX
  8
1
 10
318.0045180851273
 20
278.4619505596573
 30
0
 42
0.03363910028911125
  0
VERTEX
  8
1
 10
317.0186403472252
 20
278.7218155430184
 30
0
 42
0.03098575730262551
  0
VERTEX
  8
1
 10
315.9676097288042
 20
278.8576435768805
 30
0
 42
0.009028684574783284
  0
VERTEX
  8
1
 10
314.8731438567037
 20
278.9107803110767
 30
0
 42
0.009946353456378286
  0
VERTEX
  8
1
 10
313.7569603577637
 20
278.92257139544
 30
0
  0
SEQEND
  8
1
  0
POLYLINE
  8
1
 62
3
 66
1
  0
VERTEX
  8
1
 10
333.7569603577638
 20
270.92257139544
 30
0
 42
-0.001902789264414824
  0
VERTEX
  8
1
 10
333.0148945220861
 20
270.876777035075
 30
0
 42
-0.005745277525900925
  0
VERTEX
  8
1
 10
332.2746048991268
 20
270.8424312648012
 30
0
 42
-0.009686512557383986
  0
VERTEX
  8
1
 10
331.5378677016039
 20
270.83098267471
 30
0
 42
-0.01374928444269339
  0
VERTEX
  8
1
 10
330.8064591422359
 20
270.8538798548925
 30
0
 42
-0.0178829513067107
  0
VERTEX
  8
1
 10
330.0821554337409
 20
270.92257139544
 30
0
 42
-0.01866086244715195
  0
VERTEX
  8
1
 10
329.3221989134727
 20
271.0535781774089
 30
0
 42
-0.01353317069723553
  0
VERTEX
  8
1
 10
328.5687316515662
 20
271.234077028037
 30
0
 42
-0.008418840654058965
  0
VERTEX
  8
1
 10
327.8182378693412
 20
271.4490724876806
 30
0
 42
-0.003422876774951029
  0
VERTEX
  8
1
 10
327.0672017881174
 20
271.6835690966962
 30
0
 42
0.00145439647692256
  0
VERTEX
  8
1
 10
326.3121076292148
 20
271.92257139544
 30
0
 42
0.00234110007498335
  0
VERTEX
  8
1
 10
325.4687294662087
 20
272.1824906240294
 30
0
 42
-0.008094591874768957
  0
VERTEX
  8
1
 10
324.6320716587059
 20
272.4548789922574
 30
0
 42
-0.01670365432662403
  0
VERTEX
  8
1
 10
323.8181792696693
 20
272.7651203335645
 30
0
 42
-0.02578314228306551
  0
VERTEX
  8
1
 10
323.0430973620613
 20
273.1385984813912
 30
0
 42
-0.07276438933763439
  0
VERTEX
  8
1
 10
321.6085669012666
 20
274.2210314200658
 30
0
 42
-0.01438878185757936
  0
VERTEX
  8
1
 10
320.9441577116161
 20
274.9174469741932
 30
0
 42
0.002813176268288873
  0
VERTEX
  8
1
 10
320.2949660024374
 20
275.6300374368182
 30
0
 42
0.02037324986585442
  0
VERTEX
  8
1
 10
319.6263143462743
 20
276.298896313199
 30
0
 42
0.04059420823350137
  0
VERTEX
  8
1
 10
318.9035253156708
 20
276.8641171085941
 30
0
 42
0.05710425916602842
  0
VERTEX
  8
1
 10
318.0059088054915
 20
277.3183153489196
 30
0
 42
0.03290429397094453
  0
VERTEX
  8
1
 10
317.020494641044
 20
277.6108420006075
 30
0
 42
0.03065123788438537
  0
VERTEX
  8
1
 10
315.9692322358956
 20
277.7821149608174
 30
0
 42
0.008913767507608776
  0
VERTEX
  8
1
 10
314.8740710036132
 20
277.8725521267083
 30
0
 42
0.009909907619625803
  0
VERTEX
  8
1
 10
313.7569603577637
 20
277.92257139544
 30
0
  0
SEQEND
  8
1
  0
POLYLINE
  8
1
 62
3
 66
1
  0
VERTEX
  8
1
 10
333.7569603577638
 20
269.42257139544
 30
0
 42
-0.001607743817767784
  0
VERTEX
  8
1
 10
332.8488314388286
 20
269.4262368082879
 30
0
 42
-0.004839459238669171
  0
VERTEX
  8
1
 10
331.9423486265156
 20
269.4415760760394
 30
0
 42
-0.008112118624451329
  0
VERTEX
  8
1
 10
331.039158027447
 20
269.4802630535983
 30
0
 42
-0.01142630948598648
  0
VERTEX
  8
1
 10
330.140905748245
 20
269.5539715958683
 30
0
 42
-0.01474034783443875
  0
VERTEX
  8
1
 10
329.249237895532
 20
269.6743755577531
 30
0
 42
-0.0109190797521979
  0
VERTEX
  8
1
 10
328.6351028299281
 20
269.7905294984167
 30
0
 42
-0.01003733773339928
  0
VERTEX
  8
1
 10
328.0252434122477
 20
269.9325759912241
 30
0
 42
-0.009167219348301486
  0
VERTEX
  8
1
 10
327.419970947704
 20
270.098293272413
 30
0
 42
-0.008316733795661649
  0
VERTEX
  8
1
 10
326.8195967415097
 20
270.2854595782211
 30
0
 42
-0.02049271564590875
  0
VERTEX
  8
1
 10
325.2058475448648
 20
270.892532790535
 30
0
 42
-0.01613454575090038
  0
VERTEX
  8
1
 10
324.2135043141351
 20
271.3525735381348
 30
0
 42
-0.0188277928965726
  0
VERTEX
  8
1
 10
323.2570054965878
 20
271.8800870502841
 30
0
 42
-0.02154182287537007
  0
VERTEX
  8
1
 10
322.3459541821218
 20
272.483184989581
 30
0
 42
-0.02412403713673237
  0
VERTEX
  8
1
 10
321.4899534606358
 20
273.169979018624
 30
0
 42
-0.01837071847585041
  0
VERTEX
  8
1
 10
320.6723684353217
 20
273.9579316772401
 30
0
 42
-0.003824838419129462
  0
VERTEX
  8
1
 10
319.8870804380605
 20
274.7847178800595
 30
0
 42
0.01068385427309187
  0
VERTEX
  8
1
 10
319.0985099608686
 20
275.5927869912525
 30
0
 42
0.026055974017433
  0
VERTEX
  8
1
 10
318.2710774957625
 20
276.3245883749892
 30
0
 42
0.04330280254899148
  0
VERTEX
  8
1
 10
317.3692035347589
 20
276.92257139544
 30
0
 42
0.03453843384901455
  0
VERTEX
  8
1
 10
316.7064644534167
 20
277.226429360687
 30
0
 42
0.01926728948029125
  0
VERTEX
  8
1
 10
316.0039190027034
 20
277.4610486824359
 30
0
 42
0.01966704674578066
  0
VERTEX
  8
1
 10
315.2715187749615
 20
277.6437390215614
 30
0
 42
0.005391877216980564
  0
VERTEX
  8
1
 10
314.519215362534
 20
277.791810038938
 30
0
 42
0.006832092944336421
  0
VERTEX
  8
1
 10
313.7569603577637
 20
277.92257139544
 30
0
  0
SEQEND
  8
1
  0
POLYLINE
  8
1
 62
3
 66
1
  0
VERTEX
  8
1
 10
333.7569603577638
 20
268.42257139544
 30
0
 42
-0.001607743817767784
  0
VERTEX
  8
1
 10
332.8488314388286
 20
268.4262368082879
 30
0
 42
-0.004839459238669171
  0
VERTEX
  8
1
 10
331.9423486265156
 20
268.4415760760394
 30
0
 42
-0.008112118624388485
  0
VERTEX
  8
1
 10
331.039158027447
 20
268.4802630535983
 30
0
 42
-0.01142630948592346
  0
VERTEX
  8
1
 10
330.140905748245
 20
268.5539715958683
 30
0
 42
-0.01474034783443875
  0
VERTEX
  8
1
 10
329.249237895532
 20
268.6743755577531
 30
0
 42
-0.0109190797521979
  0
VERTEX
  8
1
 10
328.6351028299281
 20
268.7905294984167
 30
0
 42
-0.01003733773331151
  0
VERTEX
  8
1
 10
328.0252434122477
 20
268.932575991224
 30
0
 42
-0.009167219348214215
  0
VERTEX
  8
1
 10
327.419970947704
 20
269.098293272413
 30
0
 42
-0.008316733795489053
  0
VERTEX
  8
1
 10
326.8195967415097
 20
269.2854595782211
 30
0
 42
-0.0204927156458912
  0
VERTEX
  8
1
 10
325.2058475448648
 20
269.892532790535
 30
0
 42
-0.01613454575094791
  0
VERTEX
  8
1
 10
324.2135043141351
 20
270.3525735381348
 30
0
 42
-0.0188277928965726
  0
VERTEX
  8
1
 10
323.2570054965878
 20
270.8800870502841
 30
0
 42
-0.02154182287537007
  0
VERTEX
  8
1
 10
322.3459541821218
 20
271.483184989581
 30
0
 42
-0.02412403713673237
  0
VERTEX
  8
1
 10
321.4899534606358
 20
272.169979018624
 30
0
 42
-0.01837071847585041
  0
VERTEX
  8
1
 10
320.6723684353217
 20
272.9579316772401
 30
0
 42
-0.003824838419129462
  0
VERTEX
  8
1
 10
319.8870804380605
 20
273.7847178800595
 30
0
 42
0.01068385427309187
  0
VERTEX
  8
1
 10
319.0985099608686
 20
274.5927869912525
 30
0
 42
0.02605597401743333
  0
VERTEX
  8
1
 10
318.2710774957625
 20
275.3245883749892
 30
0
 42
0.04330280254898925
  0
VERTEX
  8
1
 10
317.3692035347589
 20
275.92257139544
 30
0
 42
0.03453843384901966
  0
VERTEX
  8
1
 10
316.7064644534167
 20
276.226429360687
 30
0
 42
0.0192672894802837
  0
VERTEX
  8
1
 10
316.0039190027034
 20
276.4610486824359
 30
0
 42
0.01966704674578888
  0
VERTEX
  8
1
 10
315.2715187749615
 20
276.6437390215614
 30
0
 42
0.005391877216970127
  0
VERTEX
  8
1
 10
314.519215362534
 20
276.791810038938
 30
0
 42
0.006832092944346635
  0
VERTEX
  8
1
 10
313.7569603577637
 20
276.92257139544
 30
0
  0
SEQEND
  8
1
  0
POLYLINE
  8
1
 62
3
 66
1
  0
VERTEX
  8
1
 10
317.4305134141928
 20
281.92257139544
 30
0
 42
-7.052380768159006e-005
  0
VERTEX
  8
1
 10
317.7210137766544
 20
281.8991961171937
 30
0
 42
-0.0002115044985245982
  0
VERTEX
  8
1
 10
318.011546861333
 20
281.8756532472137
 30
0
 42
-0.0003522839049062009
  0
VERTEX
  8
1
 10
318.3021453904457
 20
281.8517751937664
 30
0
 42
-0.0004927261341895753
  0
VERTEX
  8
1
 10
318.5928420862094
 20
281.827394365118
 30
0
 42
-0.0006326927683682598
  0
VERTEX
  8
1
 10
318.8836696708412
 20
281.8023431695349
 30
0
 42
-0.002829224898317548
  0
VERTEX
  8
1
 10
319.5532795803175
 20
281.740505073218
 30
0
 42
-0.005262177554977835
  0
VERTEX
  8
1
 10
320.2219661693387
 20
281.6678252000892
 30
0
 42
-0.007717915863562404
  0
VERTEX
  8
1
 10
320.8879395902554
 20
281.577899822099
 30
0
 42
-0.01019790816426031
  0
VERTEX
  8
1
 10
321.5494099954185
 20
281.4643252111985
 30
0
 42
-0.02165487244678417
  0
VERTEX
  8
1
 10
322.6702897518287
 20
281.1973497829605
 30
0
 42
-0.00317460738774662
  0
VERTEX
  8
1
 10
323.1336467210295
 20
281.0637713511037
 30
0
 42
0.001341736710706312
  0
VERTEX
  8
1
 10
323.5964755881598
 20
280.9285060278209
 30
0
 42
0.005867617843849218
  0
VERTEX
  8
1
 10
324.0605934965981
 20
280.8000974971653
 30
0
 42
0.01043616403256729
  0
VERTEX
  8
1
 10
324.5278175897229
 20
280.6870894431902
 30
0
 42
0.01572676402643467
  0
VERTEX
  8
1
 10
325.1689557403423
 20
280.5671129140297
 30
0
 42
0.004938296709449747
  0
VERTEX
  8
1
 10
325.8157646929295
 20
280.473545425496
 30
0
 42
0.001884020282814821
  0
VERTEX
  8
1
 10
326.4648430320541
 20
280.3886741094734
 30
0
 42
-0.006909369922412604
  0
VERTEX
  8
1
 10
327.1127893422856
 20
280.294786097846
 30
0
 42
-0.01379629701630237
  0
VERTEX
  8
1
 10
327.7562022081938
 20
280.1741685224982
 30
0
 42
-0.01224550147378088
  0
VERTEX
  8
1
 10
328.3561394126086
 20
280.0258693555018
 30
0
 42
-0.004376625229161191
  0
VERTEX
  8
1
 10
328.9519212622024
 20
279.8574227827546
 30
0
 42
0.003443735131314372
  0
VERTEX
  8
1
 10
329.5464355163443
 20
279.6881292440931
 30
0
 42
0.01135075693022427
  0
VERTEX
  8
1
 10
330.1425699344041
 20
279.5372891793539
 30
0
 42
0.01951810480765062
  0
VERTEX
  8
1
 10
330.7432122757509
 20
279.4242030283738
 30
0
 42
0.02289053426935252
  0
VERTEX
  8
1
 10
331.3374625996736
 20
279.363803191391
 30
0
 42
0.01385585263766528
  0
VERTEX
  8
1
 10
331.937379118583
 20
279.3471154912478
 30
0
 42
0.01336861782317753
  0
VERTEX
  8
1
 10
332.5415452837322
 20
279.3632118937343
 30
0
 42
0.004535915094288674
  0
VERTEX
  8
1
 10
333.1485445463746
 20
279.4011643646408
 30
0
 42
0.004326632835312817
  0
VERTEX
  8
1
 10
333.7569603577638
 20
279.4500448697572
 30
0
  0
SEQEND
  8
1
  0
POLYLINE
  8
1
 62
3
 66
1
  0
VERTEX
  8
1
 10
318.4526336654636
 20
280.8217533687619
 30
0
 42
-0.00115442049058275
  0
VERTEX
  8
1
 10
319.1842253163194
 20
280.7431383441179
 30
0
 42
-0.003468734099835586
  0
VERTEX
  8
1
 10
319.9144823842741
 20
280.6578321970946
 30
0
 42
-0.005796547176469772
  0
VERTEX
  8
1
 10
320.6420702864268
 20
280.5591438053126
 30
0
 42
-0.008136977558675434
  0
VERTEX
  8
1
 10
321.3656544398763
 20
280.4403820463926
 30
0
 42
-0.01756846700856331
  0
VERTEX
  8
1
 10
322.5618076273527
 20
280.180360271699
 30
0
 42
-0.003142605946970083
  0
VERTEX
  8
1
 10
323.0379186801602
 20
280.0568055889758
 30
0
 42
-5.559773179797258e-005
  0
VERTEX
  8
1
 10
323.5134334191797
 20
279.9301550316523
 30
0
 42
0.003030683839603402
  0
VERTEX
  8
1
 10
323.9895518434461
 20
279.8063718815952
 30
0
 42
0.006125008534257944
  0
VERTEX
  8
1
 10
324.4674739519949
 20
279.6914194206711
 30
0
 42
0.009595418813466813
  0
VERTEX
  8
1
 10
325.1157920685952
 20
279.5568899528859
 30
0
 42
0.003443420274443098
  0
VERTEX
  8
1
 10
325.7676867142877
 20
279.4392583518201
 30
0
 42
0.001921277061989964
  0
VERTEX
  8
1
 10
326.4212779454136
 20
279.3285478469184
 30
0
 42
-0.003059807641629004
  0
VERTEX
  8
1
 10
327.074685818314
 20
279.2147816676255
 30
0
 42
-0.00688043413168767
  0
VERTEX
  8
1
 10
327.7260303893298
 20
279.0879830433861
 30
0
 42
-0.00568394669513782
  0
VERTEX
  8
1
 10
328.3115541689482
 20
278.9569463950523
 30
0
 42
-0.001199148557900667
  0
VERTEX
  8
1
 10
328.8954215186999
 20
278.8178174580917
 30
0
 42
0.003285732452838536
  0
VERTEX
  8
1
 10
329.4791936216251
 20
278.6812790234313
 30
0
 42
0.00779946278753738
  0
VERTEX
  8
1
 10
330.0644316607643
 20
278.558013881998
 30
0
 42
0.01237618344521907
  0
VERTEX
  8
1
 10
330.6526968191578
 20
278.4587048247188
 30
0
 42
0.01495152526732427
  0
VERTEX
  8
1
 10
331.2676193695497
 20
278.3891778585987
 30
0
 42
0.009328849676575535
  0
VERTEX
  8
1
 10
331.886495358161
 20
278.3494969322196
 30
0
 42
0.008782865382891266
  0
VERTEX
  8
1
 10
332.5083364254372
 20
278.3322005356462
 30
0
 42
0.003218905574851136
  0
VERTEX
  8
1
 10
333.132154211823
 20
278.3298271589432
 30
0
 42
0.002755082482768991
  0
VERTEX
  8
1
 10
333.7569603577638
 20
278.3349152921755
 30
0
  0
SEQEND
  8
1
  0
ARC
  8
1
 62
3
 10
302.1433336913503
 20
28.033369883454
 30
0
 40
0.5
 50
90
 51
180.0000000000586
  0
ARC
  8
1
 62
3
 10
302.1433336913503
 20
91.03336988345406
 30
0
 40
0.5
 50
180
 51
270
  0
ARC
  8
1
 62
3
 10
330.3430336913501
 20
30.73336988345388
 30
0
 40
2.200000000000109
 50
270
 51
0
  0
ARC
  8
1
 62
3
 10
330.3430336913501
 20
88.33336988345378
 30
0
 40
2.200000000000102
 50
0
 51
90
  0
ARC
  8
1
 62
3
 10
302.1433336913503
 20
28.033369883454
 30
0
 40
0.5
 50
90
 51
156.421821521851
  0
ARC
  8
1
 62
3
 10
422.0458724885392
 20
175.6204673326567
 30
0
 40
1
 50
180
 51
270
  0
ARC
  8
1
 62
3
 10
422.0458724885392
 20
185.6204673326567
 30
0
 40
1
 50
90
 51
180
  0
ARC
  8
1
 62
3
 10
448.045872488539
 20
185.6204673326567
 30
0
 40
1
 50
0
 51
90
  0
ARC
  8
1
 62
3
 10
448.045872488539
 20
175.6204673326567
 30
0
 40
1
 50
270
 51
0
  0
ARC
  8
1
 62
3
 10
441.8575897055303
 20
193.465383306199
 30
0
 40
0.7999999999998977
 50
180
 51
190.7103357656713
  0
ARC
  8
1
 62
3
 10
417.2733234794198
 20
126.9118614397557
 30
0
 40
0.03119999999978848
 50
352.5415509438549
 51
45.00000000022143
  0
ARC
  8
1
 62
3
 10
417.2733234794198
 20
126.7850658045211
 30
0
 40
0.03119999999999684
 50
314.9999999997786
 51
7.458449056171063
  0
ARC
  8
1
 62
3
 10
417.8209890708166
 20
127.332731395918
 30
0
 40
0.0312000000001867
 50
262.541550943898
 51
314.9999999997047
  0
ARC
  8
1
 62
3
 10
417.6941934355819
 20
127.332731395918
 30
0
 40
0.03119999999995665
 50
225.0000000002952
 51
277.4584490566196
  0
ARC
  8
1
 62
3
 10
418.2418590269788
 20
126.7850658045211
 30
0
 40
0.03120000000007214
 50
172.5415509438967
 51
225.0000000000738
  0
ARC
  8
1
 62
3
 10
418.2418590269788
 20
126.9118614397557
 30
0
 40
0.03120000000007723
 50
134.9999999999262
 51
187.4584490560775
  0
ARC
  8
1
 62
3
 10
417.6941934355819
 20
126.3641958483588
 30
0
 40
0.03120000000020951
 50
82.541550943377
 51
134.9999999997232
  0
ARC
  8
1
 62
3
 10
417.8209890708166
 20
126.3641958483588
 30
0
 40
0.03120000000010738
 50
44.99999999998155
 51
97.45844905610548
  0
ARC
  8
1
 62
3
 10
452.4733203840823
 20
126.9118614397556
 30
0
 40
0.03119999999978848
 50
352.5415509438549
 51
45.00000000022143
  0
ARC
  8
1
 62
3
 10
452.4733203840823
 20
126.785065804521
 30
0
 40
0.03119999999999684
 50
314.9999999997786
 51
7.458449056145187
  0
ARC
  8
1
 62
3
 10
453.0209859754792
 20
127.3327313959179
 30
0
 40
0.03120000000020884
 50
262.5415509435874
 51
314.9999999994834
  0
ARC
  8
1
 62
3
 10
452.8941903402444
 20
127.3327313959179
 30
0
 40
0.03120000000003704
 50
225.0000000001477
 51
277.4584490562056
  0
ARC
  8
1
 62
3
 10
453.4418559316414
 20
126.785065804521
 30
0
 40
0.03119999999995757
 50
172.5415509438955
 51
224.9999999999262
  0
ARC
  8
1
 62
3
 10
453.4418559316414
 20
126.9118614397556
 30
0
 40
0.03120000000015762
 50
135.0000000000738
 51
187.4584490561046
  0
ARC
  8
1
 62
3
 10
452.8941903402444
 20
126.3641958483587
 30
0
 40
0.03120000000017999
 50
82.54155094379101
 51
134.9999999998708
  0
ARC
  8
1
 62
3
 10
453.0209859754792
 20
126.3641958483587
 30
0
 40
0.03119999999986621
 50
45.00000000042443
 51
97.45844905641599
  0
ARC
  8
1
 62
3
 10
430.4675897055307
 20
194.8377413329837
 30
0
 40
0.009999999999990905
 50
90
 51
180
  0
ARC
  8
1
 62
3
 10
440.2475897055304
 20
194.8377413329837
 30
0
 40
0.009999999999990905
 50
0
 51
90
  0
ARC
  8
1
 62
3
 10
416.8575897055303
 20
123.8477413329839
 30
0
 40
1
 50
180
 51
270
  0
ARC
  8
1
 62
3
 10
453.8575897055294
 20
123.8477413329838
 30
0
 40
1.000000000000995
 50
270
 51
0
  0
ARC
  8
1
 62
3
 10
417.0575897055304
 20
131.3477548984324
 30
0
 40
2
 50
180
 51
233.1301023541555
  0
ARC
  8
1
 62
3
 10
459.8575897055303
 20
124.5977413329832
 30
0
 40
1.5
 50
270
 51
0
  0
ARC
  8
1
 62
3
 10
410.8575897055302
 20
124.5977413329833
 30
0
 40
1.5
 50
180
 51
270
  0
ARC
  8
1
 62
3
 10
398.8575897055302
 20
138.3477413329833
 30
0
 40
1.5
 50
180
 51
270
  0
ARC
  8
1
 62
3
 10
471.8575897055303
 20
138.3477413329832
 30
0
 40
1.5
 50
270
 51
0
  0
ARC
  8
1
 62
3
 10
471.8575897055303
 20
187.3477413329838
 30
0
 40
1.5
 50
0
 51
90
  0
ARC
  8
1
 62
3
 10
459.8575897055303
 20
199.3477413329837
 30
0
 40
1.5
 50
0
 51
90
  0
ARC
  8
1
 62
3
 10
410.8575897055302
 20
199.3477413329837
 30
0
 40
1.5
 50
90
 51
180
  0
ARC
  8
1
 62
3
 10
398.8575897055302
 20
187.3477413329838
 30
0
 40
1.5
 50
90
 51
180
  0
ARC
  8
1
 62
3
 10
464.3575897055303
 20
191.8477413329838
 30
0
 40
3
 50
180
 51
270
  0
ARC
  8
1
 62
3
 10
464.3575897055303
 20
133.8477413329832
 30
0
 40
3
 50
90
 51
180
  0
ARC
  8
1
 62
3
 10
406.3575897055302
 20
191.8477413329838
 30
0
 40
3
 50
270
 51
0
  0
ARC
  8
1
 62
3
 10
406.3575897055302
 20
133.8477413329833
 30
0
 40
3
 50
0
 51
90
  0
ARC
  8
1
 62
3
 10
453.6575897055303
 20
131.3477548984318
 30
0
 40
2.000000000000057
 50
306.8698976458424
 51
0
  0
ARC
  8
1
 62
3
 10
441.8575897055303
 20
193.8741816702186
 30
0
 40
0.7999999999999782
 50
78.16773095150104
 51
180
  0
ARC
  8
1
 62
3
 10
428.8575897055303
 20
193.8741816702186
 30
0
 40
0.8000000000000114
 50
0
 51
101.832269048499
  0
ARC
  8
1
 62
3
 10
428.8575897055303
 20
193.465383306199
 30
0
 40
0.7999999999999479
 50
349.2722664569577
 51
0
  0
ARC
  8
1
 62
3
 10
414.2575897055304
 20
139.1901844007897
 30
0
 40
0.8000000000000918
 50
228.2704652751513
 51
0
  0
ARC
  8
1
 62
3
 10
456.4575897055304
 20
139.21069307455
 30
0
 40
0.8000000000000682
 50
180
 51
311.5783115319667
  0
ARC
  8
1
 62
3
 10
302.1433336913502
 20
194.3477413329841
 30
0
 40
0.5
 50
180
 51
270
  0
ARC
  8
1
 62
3
 10
330.34303369135
 20
134.0477413329838
 30
0
 40
2.200000000000017
 50
270
 51
0
  0
ARC
  8
1
 62
3
 10
330.34303369135
 20
191.6477413329838
 30
0
 40
2.200000000000216
 50
0
 51
90
  0
ARC
  8
1
 62
3
 10
300.0230413262416
 20
122.9991213132887
 30
0
 40
0.2999999999999545
 50
180
 51
270
  0
ARC
  8
1
 62
3
 10
300.0630413262416
 20
122.9991213132885
 30
0
 40
0.2999999999999972
 50
270
 51
0
  0
ARC
  8
1
 62
3
 10
199.9068513433588
 20
195.8477413329838
 30
0
 40
7
 50
0
 51
90
  0
ARC
  8
1
 62
3
 10
133.9068513433588
 20
195.8477413329838
 30
0
 40
7
 50
90
 51
180
  0
ARC
  8
1
 62
3
 10
199.9068513433588
 20
129.8477413329838
 30
0
 40
6.999999999999986
 50
270
 51
0
  0
ARC
  8
1
 62
3
 10
133.9068513433588
 20
129.8477413329838
 30
0
 40
7
 50
180
 51
270
  0
ARC
  8
1
 62
3
 10
165.0968513433588
 20
157.8455019857491
 30
0
 40
0.6899999999999977
 50
90
 51
180
  0
ARC
  8
1
 62
3
 10
165.0968513433588
 20
157.8377413329838
 30
0
 40
0.6899999999999977
 50
180
 51
270
  0
ARC
  8
1
 62
3
 10
168.7168513433588
 20
157.8455019857491
 30
0
 40
0.6899999999999977
 50
0
 51
90
  0
ARC
  8
1
 62
3
 10
168.7168513433588
 20
157.8377413329838
 30
0
 40
0.6899999999999977
 50
270
 51
0
  0
ARC
  8
1
 62
3
 10
165.0768513433587
 20
157.8177413329838
 30
0
 40
1.669999999999902
 50
180
 51
270
  0
ARC
  8
1
 62
3
 10
168.7368513433588
 20
157.8177413329838
 30
0
 40
1.669999999999988
 50
270
 51
0
  0
ARC
  8
1
 62
3
 10
302.1433336913502
 20
131.347741332984
 30
0
 40
0.5
 50
90
 51
156.4218215218455
  0
ARC
  8
1
 62
3
 10
402.358203478264
 20
195.8477413329838
 30
0
 40
7
 50
90
 51
180
  0
ARC
  8
1
 62
3
 10
468.358203478264
 20
195.8477413329838
 30
0
 40
7
 50
0
 51
90
  0
ARC
  8
1
 62
3
 10
468.358203478264
 20
129.8477413329838
 30
0
 40
6.999999999999986
 50
270
 51
0
  0
ARC
  8
1
 62
3
 10
402.358203478264
 20
129.8477413329838
 30
0
 40
7
 50
180
 51
270
  0
TEXT
  8
1
 62
2
 10
283.8378668499684
 20
255.5575190537413
 30
0
 40
4
  1
付属ケーブル
 41
0.9
  0
TEXT
  8
1
 62
2
 10
303.8318014053126
 20
74.42422917108796
 30
0
 40
3
  1
1
 50
270
 41
0.9
 72
1
 73
2
 11
305.3318014053126
 21
73.07422917108796
 31
0
  0
TEXT
  8
1
 62
2
 10
303.9182340833203
 20
50.01044951131476
 30
0
 40
3
  1
11
 50
270
 41
0.9
 72
1
 73
2
 11
305.4182340833203
 21
47.31044951131476
 31
0
  0
TEXT
  8
1
 62
2
 10
270.4201007210991
 20
-11.75341075729054
 30
0
 40
5
  1
FY8PF25N-D3
 41
0.9
  0
TEXT
  8
1
 62
2
 10
244.9063915109318
 20
294.9982262785866
 30
0
 40
3.200000000000001
  1
1
 50
90
 41
0.9
  0
TEXT
  8
1
 62
2
 10
245.464950564823
 20
266.6113562046573
 30
0
 40
3.200000000000001
  1
9
 50
90
 41
0.9
  0
TEXT
  8
1
 62
2
 10
347.4954258467428
 20
264.3773719132239
 30
0
 40
3.199999999999999
  1
11
 50
90
 41
0.9
  0
TEXT
  8
1
 62
2
 10
347.440331492739
 20
296.2842894971129
 30
0
 40
3.200000000000001
  1
1
 50
90
 41
0.9
  0
ENDSEC
  0
EOF
