  0
SECTION
  2
HEADER
  9
$ACADVER
  1
AC1009
  9
$INSBASE
 10
0
 20
0
  9
$EXTMIN
 10
125.3057920024573
 20
-11.75341075729054
  9
$EXTMAX
 10
478.1075897055308
 20
304.017584524841
  9
$LIMMIN
 10
125.3057920024573
 20
-11.75341075729054
  9
$LIMMAX
 10
478.1075897055308
 20
304.017584524841
  9
$VIEWCTR
 10
10
 20
10
  9
$VIEWSIZE
 40
10
  9
$SNAPMODE
 70
0
  9
$SNAPUNIT
 10
1
 20
1
  9
$SNAPBASE
 10
0
 20
0
  9
$SNAPANG
 50
0
  9
$SNAPSTYLE
 70
0
  9
$SNAPISOPAIR
 70
0
  9
$GRIDMODE
 70
0
  9
$GRIDUNIT
 10
0
 20
0
  9
$ORTHOMODE
 70
0
  9
$REGENMODE
 70
1
  9
$FILLMODE
 70
1
  9
$QTEXTMODE
 70
0
  9
$DRAGMODE
 70
2
  9
$LTSCALE
 40
1
  9
$OSMODE
 70
0
  9
$ATTMODE
 70
1
  9
$TEXTSIZE
 40
3.5
  9
$TRACEWID
 40
0.5
  9
$TEXTSTYLE
  7
STANDARD
  9
$CLAYER
  8
0
  9
$CELTYPE
  6
BYLAYER
  9
$CECOLOR
 62
256
  9
$DIMSCALE
 40
1
  9
$DIMASZ
 40
0.18
  9
$DIMEXO
 40
0.0625
  9
$DIMDLI
 40
0.38
  9
$DIMRND
 40
0
  9
$DIMDLE
 40
0
  9
$DIMEXE
 40
0.18
  9
$DIMTP
 40
0
  9
$DIMTM
 40
0
  9
$DIMTXT
 40
0.18
  9
$DIMCEN
 40
0.09
  9
$DIMTSZ
 40
0
  9
$DIMTOL
 70
0
  9
$DIMLIM
 70
0
  9
$DIMTIH
 70
1
  9
$DIMTOH
 70
1
  9
$DIMSE1
 70
0
  9
$DIMSE2
 70
0
  9
$DIMTAD
 70
0
  9
$DIMZIN
 70
0
  9
$DIMBLK
  1

  9
$DIMASO
 70
1
  9
$DIMSHO
 70
1
  9
$DIMPOST
  1

  9
$DIMAPOST
  1

  9
$DIMALT
 70
0
  9
$DIMALTD
 70
2
  9
$DIMALTF
 40
25.4
  9
$DIMLFAC
 40
1
  9
$DIMTOFL
 70
0
  9
$DIMTVP
 40
0
  9
$DIMTIX
 70
0
  9
$DIMSOXD
 70
0
  9
$DIMSAH
 70
0
  9
$DIMBLK1
  1

  9
$DIMBLK2
  1

  9
$DIMSTYLE
  2
*UNNAMED
  9
$DIMCLRD
 70
0
  9
$DIMCLRE
 70
0
  9
$DIMCLRT
 70
0
  9
$DIMTFAC
 40
1
  9
$DIMGAP
 40
0.09
  9
$LUNITS
 70
2
  9
$LUPREC
 70
4
  9
$AXISMODE
 70
0
  9
$AXISUNIT
 10
0
 20
0
  9
$SKETCHINC
 40
0.1
  9
$FILLETRAD
 40
2
  9
$AUNITS
 70
0
  9
$AUPREC
 70
0
  9
$MENU
  1
ACAD
  9
$ELEVATION
 40
0
  9
$THICKNESS
 40
0
  9
$VIEWDIR
 10
0
 20
0
 30
1
  9
$LIMCHECK
 70
0
  9
$BLIPMODE
 70
1
  9
$CHAMFERA
 40
0
  9
$CHAMFERB
 40
0
  9
$FASTZOOM
 70
1
  9
$SKPOLY
 70
0
  9
$ANGBASE
 50
0
  9
$ANGDIR
 70
0
  9
$PDMODE
 70
0
  9
$PDSIZE
 40
0
  9
$PLINEWID
 40
0
  9
$COORDS
 70
2
  0
ENDSEC
  0
SECTION
  2
TABLES
  0
TABLE
  2
DIMSTYLE
 70
0
  0
ENDTAB
  0
TABLE
  2
LTYPE
 70
9
  0
LTYPE
  2
CONTINUOUS
 70
64
  3
Solid line
 72
65
 73
0
 40
0
  0
LTYPE
  2
BORDER
 70
64
  3
__ __ . __ __ .
 72
65
 73
6
 40
16.24745121000997
 49
4.642128917145705
 49
-2.321064458572852
 49
4.642128917145705
 49
-2.321064458572852
 49
0
 49
-2.321064458572852
  0
LTYPE
  2
CENTER
 70
64
  3
____ _ ____ _
 72
65
 73
4
 40
18.56851566858282
 49
11.60532229286426
 49
-2.321064458572852
 49
2.321064458572852
 49
-2.321064458572852
  0
LTYPE
  2
DASHDOT
 70
64
  3
__ . __ . __ .
 72
65
 73
4
 40
9.28425783429141
 49
4.642128917145705
 49
-2.321064458572852
 49
0
 49
-2.321064458572852
  0
LTYPE
  2
DASHED
 70
64
  3
__ __ __ __ __
 72
65
 73
2
 40
6.963193375718557
 49
4.642128917145705
 49
-2.321064458572852
  0
LTYPE
  2
DIVIDE
 70
64
  3
__ . . __ . . 
 72
65
 73
6
 40
11.60532229286426
 49
4.642128917145705
 49
-2.321064458572852
 49
0
 49
-2.321064458572852
 49
0
 49
-2.321064458572852
  0
LTYPE
  2
DOT
 70
64
  3
..............
 72
65
 73
4
 40
4.642128917145705
 49
0
 49
-2.321064458572852
 49
0
 49
-2.321064458572852
  0
LTYPE
  2
HIDDEN
 70
64
  3
_ _ _ _ _ _ _
 72
65
 73
2
 40
3.481596687859279
 49
2.321064458572852
 49
-1.160532229286426
  0
LTYPE
  2
PHANTOM
 70
64
  3
_____ _ _ _____ _ _ 
 72
65
 73
6
 40
23.21064458572852
 49
11.60532229286426
 49
-2.321064458572852
 49
2.321064458572852
 49
-2.321064458572852
 49
2.321064458572852
 49
-2.321064458572852
  0
ENDTAB
  0
TABLE
  2
LAYER
 70
4
  0
LAYER
  2
1
 70
0
 62
7
  6
CONTINUOUS
  0
LAYER
  2
2
 70
0
 62
7
  6
CONTINUOUS
  0
LAYER
  2
0
 70
0
 62
7
  6
CONTINUOUS
  0
ENDTAB
  0
TABLE
  2
STYLE
 70
4
  0
STYLE
  2
STANDARD
 70
0
 40
0
 41
1
 50
0
 71
0
 42
3.5
  3
txt
  4

  0
STYLE
  2
SIMPLEX
 70
0
 40
0
 41
1
 50
0
 71
0
 42
3.5
  3
simplex
  4

  0
STYLE
  2
COMPLEX
 70
0
 40
0
 41
1
 50
0
 71
0
 42
3.5
  3
complex
  4

  0
STYLE
  2
ITALIC
 70
0
 40
0
 41
1
 50
0
 71
0
 42
3.5
  3
italic
  4

  0
ENDTAB
  0
TABLE
  2
VIEW
 70
0
  0
ENDTAB
  0
ENDSEC
  0
SECTION
  2
BLOCKS
  0
BLOCK
  8
1
  2
*X0
 70
1
 10
0
 20
0
 30
0
  0
LINE
  8
1
 62
3
 10
292.1846653780467
 20
287.9420246909273
 30
0
 11
292.3202252119604
 21
288.077584524841
 31
0
  0
LINE
  8
1
 62
3
 10
292.1846653780467
 20
287.5177606222154
 30
0
 11
292.7444892806723
 21
288.077584524841
 31
0
  0
LINE
  8
1
 62
3
 10
292.1846653780467
 20
287.0934965535035
 30
0
 11
293.1687533493842
 21
288.077584524841
 31
0
  0
LINE
  8
1
 62
3
 10
292.1846653780467
 20
286.6692324847916
 30
0
 11
293.1846653780467
 21
287.6692324847915
 31
0
  0
LINE
  8
1
 62
3
 10
292.1846653780467
 20
286.2449684160796
 30
0
 11
293.1846653780467
 21
287.2449684160796
 31
0
  0
LINE
  8
1
 62
3
 10
292.1846653780467
 20
285.8207043473677
 30
0
 11
293.1846653780467
 21
286.8207043473677
 31
0
  0
LINE
  8
1
 62
3
 10
292.1846653780467
 20
285.3964402786558
 30
0
 11
293.1846653780467
 21
286.3964402786558
 31
0
  0
LINE
  8
1
 62
3
 10
292.2900736929439
 20
285.077584524841
 30
0
 11
293.1846653780467
 21
285.9721762099438
 31
0
  0
LINE
  8
1
 62
3
 10
292.7143377616558
 20
285.077584524841
 30
0
 11
293.1846653780467
 21
285.5479121412319
 31
0
  0
LINE
  8
1
 62
3
 10
293.1386018303677
 20
285.077584524841
 30
0
 11
293.1846653780467
 21
285.12364807252
 31
0
  0
ENDBLK
  8
0
  0
BLOCK
  8
1
  2
*X1
 70
1
 10
0
 20
0
 30
0
  0
LINE
  8
1
 62
3
 10
291.1846653780468
 20
284.8207043473678
 30
0
 11
291.44154555552
 21
285.077584524841
 31
0
  0
LINE
  8
1
 62
3
 10
291.1846653780468
 20
284.3964402786559
 30
0
 11
291.8658096242319
 21
285.077584524841
 31
0
  0
LINE
  8
1
 62
3
 10
291.1846653780468
 20
283.9721762099439
 30
0
 11
292.2900736929439
 21
285.077584524841
 31
0
  0
LINE
  8
1
 62
3
 10
291.2143377616557
 20
283.577584524841
 30
0
 11
292.7143377616558
 21
285.077584524841
 31
0
  0
LINE
  8
1
 62
3
 10
291.6386018303676
 20
283.577584524841
 30
0
 11
293.1386018303677
 21
285.077584524841
 31
0
  0
LINE
  8
1
 62
3
 10
292.0628658990796
 20
283.577584524841
 30
0
 11
293.5628658990796
 21
285.077584524841
 31
0
  0
LINE
  8
1
 62
3
 10
292.4871299677915
 20
283.577584524841
 30
0
 11
293.9871299677915
 21
285.077584524841
 31
0
  0
LINE
  8
1
 62
3
 10
292.9113940365034
 20
283.577584524841
 30
0
 11
294.1846653780467
 21
284.8508558663842
 31
0
  0
LINE
  8
1
 62
3
 10
293.3356581052153
 20
283.577584524841
 30
0
 11
294.1846653780467
 21
284.4265917976723
 31
0
  0
LINE
  8
1
 62
3
 10
293.7599221739272
 20
283.577584524841
 30
0
 11
294.1846653780467
 21
284.0023277289604
 31
0
  0
LINE
  8
1
 62
3
 10
294.1841862426392
 20
283.577584524841
 30
0
 11
294.1846653780467
 21
283.5780636602485
 31
0
  0
ENDBLK
  8
0
  0
ENDSEC
  0
SECTION
  2
ENTITIES
  0
INSERT
  8
1
  2
*X0
 10
0
 20
0
 30
0
  0
INSERT
  8
1
  2
*X1
 10
0
 20
0
 30
0
  0
LINE
  8
1
 62
2
 10
365.0307729491279
 20
287.6324081065387
 30
0
 11
366.9307729491283
 21
287.6324081065387
 31
0
  0
LINE
  8
1
 62
2
 10
366.9307729491283
 20
287.6324081065387
 30
0
 11
366.9307729491283
 21
285.732408106539
 31
0
  0
LINE
  8
1
 62
2
 10
365.0307729491279
 20
285.732408106539
 30
0
 11
365.0307729491279
 21
287.6324081065387
 31
0
  0
LINE
  8
1
 62
2
 10
366.9307729491283
 20
285.732408106539
 30
0
 11
365.0307729491279
 21
285.732408106539
 31
0
  0
LINE
  8
1
 62
3
 10
364.230772949128
 20
288.4324081065389
 30
0
 11
364.230772949128
 21
284.9324081065389
 31
0
  0
LINE
  8
1
 62
3
 10
364.230772949128
 20
284.9324081065389
 30
0
 11
367.730772949128
 21
284.9324081065386
 31
0
  0
LINE
  8
1
 62
3
 10
367.730772949128
 20
288.4324081065386
 30
0
 11
367.730772949128
 21
284.9324081065386
 31
0
  0
LINE
  8
1
 62
3
 10
364.230772949128
 20
288.4324081065389
 30
0
 11
367.730772949128
 21
288.4324081065386
 31
0
  0
LINE
  8
1
 62
2
 10
365.0307729491279
 20
291.8324081065389
 30
0
 11
366.9307729491283
 21
291.8324081065389
 31
0
  0
LINE
  8
1
 62
2
 10
365.0307729491279
 20
289.9324081065389
 30
0
 11
365.0307729491279
 21
291.8324081065389
 31
0
  0
LINE
  8
1
 62
2
 10
366.9307729491283
 20
289.9324081065389
 30
0
 11
365.0307729491279
 21
289.9324081065389
 31
0
  0
LINE
  8
1
 62
2
 10
366.9307729491283
 20
291.8324081065389
 30
0
 11
366.9307729491283
 21
289.9324081065389
 31
0
  0
LINE
  8
1
 62
3
 10
367.730772949128
 20
292.6324081065387
 30
0
 11
367.730772949128
 21
289.1324081065387
 31
0
  0
LINE
  8
1
 62
3
 10
364.230772949128
 20
292.6324081065391
 30
0
 11
364.230772949128
 21
289.1324081065387
 31
0
  0
LINE
  8
1
 62
3
 10
364.230772949128
 20
289.1324081065387
 30
0
 11
367.730772949128
 21
289.1324081065387
 31
0
  0
LINE
  8
1
 62
3
 10
364.230772949128
 20
292.6324081065391
 30
0
 11
367.730772949128
 21
292.6324081065387
 31
0
  0
LINE
  8
1
 62
2
 10
369.230772949128
 20
281.532408106539
 30
0
 11
369.230772949128
 21
283.4324081065387
 31
0
  0
LINE
  8
1
 62
2
 10
369.230772949128
 20
283.4324081065387
 30
0
 11
371.1307729491279
 21
283.4324081065387
 31
0
  0
LINE
  8
1
 62
2
 10
371.1307729491279
 20
283.4324081065387
 30
0
 11
371.1307729491279
 21
281.532408106539
 31
0
  0
LINE
  8
1
 62
2
 10
371.1307729491279
 20
281.532408106539
 30
0
 11
369.230772949128
 21
281.532408106539
 31
0
  0
LINE
  8
1
 62
3
 10
371.9307729491281
 20
284.232408106539
 30
0
 11
371.9307729491281
 21
280.732408106539
 31
0
  0
LINE
  8
1
 62
3
 10
368.4307729491283
 20
284.232408106539
 30
0
 11
368.4307729491283
 21
280.732408106539
 31
0
  0
LINE
  8
1
 62
3
 10
368.4307729491283
 20
280.732408106539
 30
0
 11
371.9307729491281
 21
280.732408106539
 31
0
  0
LINE
  8
1
 62
3
 10
368.4307729491283
 20
284.232408106539
 30
0
 11
371.9307729491281
 21
284.232408106539
 31
0
  0
LINE
  8
1
 62
2
 10
369.230772949128
 20
294.1324081065392
 30
0
 11
369.230772949128
 21
296.0324081065394
 31
0
  0
LINE
  8
1
 62
2
 10
369.230772949128
 20
296.0324081065394
 30
0
 11
371.1307729491279
 21
296.0324081065394
 31
0
  0
LINE
  8
1
 62
2
 10
371.1307729491279
 20
296.0324081065394
 30
0
 11
371.1307729491279
 21
294.1324081065392
 31
0
  0
LINE
  8
1
 62
2
 10
371.1307729491279
 20
294.1324081065392
 30
0
 11
369.230772949128
 21
294.1324081065392
 31
0
  0
LINE
  8
1
 62
3
 10
371.9307729491283
 20
296.8324081065392
 30
0
 11
371.9307729491283
 21
293.3324081065392
 31
0
  0
LINE
  8
1
 62
3
 10
368.4307729491283
 20
296.8324081065392
 30
0
 11
368.4307729491283
 21
293.3324081065392
 31
0
  0
LINE
  8
1
 62
3
 10
368.4307729491283
 20
293.3324081065392
 30
0
 11
371.9307729491283
 21
293.3324081065392
 31
0
  0
LINE
  8
1
 62
3
 10
368.4307729491283
 20
296.8324081065392
 30
0
 11
371.9307729491283
 21
296.8324081065392
 31
0
  0
LINE
  8
1
 62
3
 10
374.0807729491279
 20
297.2824081065386
 30
0
 11
374.0807729491277
 21
280.2824081065394
 31
0
  0
LINE
  8
1
 62
3
 10
373.0807729491277
 20
279.7824081065394
 30
0
 11
373.5807729491277
 21
279.7824081065394
 31
0
  0
LINE
  8
1
 62
3
 10
373.0807729491279
 20
297.7824081065386
 30
0
 11
373.5807729491279
 21
297.7824081065386
 31
0
  0
LINE
  8
1
 62
3
 10
363.480772949128
 20
286.0824081065389
 30
0
 11
363.480772949128
 21
284.7824081065386
 31
0
  0
LINE
  8
1
 62
3
 10
362.980772949128
 20
284.7824081065386
 30
0
 11
363.480772949128
 21
284.7824081065386
 31
0
  0
LINE
  8
1
 62
3
 10
362.980772949128
 20
279.7824081065394
 30
0
 11
363.480772949128
 21
279.7824081065394
 31
0
  0
LINE
  8
1
 62
3
 10
362.480772949128
 20
280.2824081065394
 30
0
 11
362.480772949128
 21
284.2824081065386
 31
0
  0
LINE
  8
1
 62
3
 10
362.480772949128
 20
297.2824081065386
 30
0
 11
362.480772949128
 21
293.2824081065386
 31
0
  0
LINE
  8
1
 62
3
 10
363.480772949128
 20
297.7824081065386
 30
0
 11
363.480772949128
 21
292.7824081065386
 31
0
  0
LINE
  8
1
 62
3
 10
362.980772949128
 20
292.7824081065386
 30
0
 11
363.480772949128
 21
292.7824081065386
 31
0
  0
LINE
  8
1
 62
3
 10
362.980772949128
 20
297.7824081065386
 30
0
 11
363.480772949128
 21
297.7824081065386
 31
0
  0
LINE
  8
1
 62
2
 10
365.0307729491279
 20
296.032408106539
 30
0
 11
366.9307729491283
 21
296.032408106539
 31
0
  0
LINE
  8
1
 62
2
 10
365.0307729491279
 20
294.1324081065391
 30
0
 11
365.0307729491279
 21
296.032408106539
 31
0
  0
LINE
  8
1
 62
2
 10
366.9307729491283
 20
294.1324081065391
 30
0
 11
365.0307729491279
 21
294.1324081065391
 31
0
  0
LINE
  8
1
 62
2
 10
366.9307729491283
 20
296.032408106539
 30
0
 11
366.9307729491283
 21
294.1324081065391
 31
0
  0
LINE
  8
1
 62
2
 10
369.230772949128
 20
289.9324081065395
 30
0
 11
369.230772949128
 21
291.8324081065389
 31
0
  0
LINE
  8
1
 62
2
 10
369.230772949128
 20
291.8324081065389
 30
0
 11
371.1307729491279
 21
291.8324081065389
 31
0
  0
LINE
  8
1
 62
2
 10
371.1307729491279
 20
291.8324081065389
 30
0
 11
371.1307729491279
 21
289.9324081065395
 31
0
  0
LINE
  8
1
 62
2
 10
371.1307729491279
 20
289.9324081065395
 30
0
 11
369.230772949128
 21
289.9324081065395
 31
0
  0
LINE
  8
1
 62
2
 10
369.230772949128
 20
285.7324081065391
 30
0
 11
369.230772949128
 21
287.6324081065391
 31
0
  0
LINE
  8
1
 62
2
 10
369.230772949128
 20
287.6324081065391
 30
0
 11
371.1307729491279
 21
287.6324081065391
 31
0
  0
LINE
  8
1
 62
2
 10
371.1307729491279
 20
287.6324081065391
 30
0
 11
371.1307729491279
 21
285.7324081065391
 31
0
  0
LINE
  8
1
 62
2
 10
371.1307729491279
 20
285.7324081065391
 30
0
 11
369.230772949128
 21
285.7324081065391
 31
0
  0
LINE
  8
1
 62
2
 10
366.9307729491283
 20
281.532408106539
 30
0
 11
365.0307729491279
 21
281.532408106539
 31
0
  0
LINE
  8
1
 62
2
 10
365.0307729491279
 20
281.532408106539
 30
0
 11
365.0307729491279
 21
283.4324081065389
 31
0
  0
LINE
  8
1
 62
2
 10
365.0307729491279
 20
283.4324081065389
 30
0
 11
366.9307729491283
 21
283.4324081065389
 31
0
  0
LINE
  8
1
 62
2
 10
366.9307729491283
 20
283.4324081065389
 30
0
 11
366.9307729491283
 21
281.532408106539
 31
0
  0
LINE
  8
1
 62
3
 10
359.980772949128
 20
290.2824081065394
 30
0
 11
362.2263204305031
 21
290.2824081065386
 31
0
  0
LINE
  8
1
 62
3
 10
359.980772949128
 20
287.2824081065386
 30
0
 11
362.2263204305031
 21
287.2824081065386
 31
0
  0
LINE
  8
1
 62
2
 10
362.2263204305031
 20
290.2824081065386
 30
0
 11
362.2263204305031
 21
287.2824081065386
 31
0
  0
LINE
  8
1
 62
3
 10
359.980772949128
 20
291.482408106539
 30
0
 11
360.1214070058658
 21
291.482408106539
 31
0
  0
LINE
  8
1
 62
3
 10
359.980772949128
 20
286.0824081065389
 30
0
 11
360.1214070058658
 21
286.0824081065389
 31
0
  0
LINE
  8
1
 62
2
 10
360.1214070058658
 20
291.482408106539
 30
0
 11
360.1214070058658
 21
286.0824081065389
 31
0
  0
LINE
  8
1
 62
3
 10
360.1214070058658
 20
291.482408106539
 30
0
 11
360.980772949128
 21
291.482408106539
 31
0
  0
LINE
  8
1
 62
3
 10
360.1214070058658
 20
286.0824081065389
 30
0
 11
360.980772949128
 21
286.0824081065389
 31
0
  0
LINE
  8
1
 62
3
 10
360.980772949128
 20
291.482408106539
 30
0
 11
360.980772949128
 21
286.0824081065389
 31
0
  0
LINE
  8
1
 62
3
 10
359.980772949128
 20
291.482408106539
 30
0
 11
359.980772949128
 21
286.0824081065389
 31
0
  0
LINE
  8
1
 62
3
 10
363.480772949128
 20
287.2824081065386
 30
0
 11
363.480772949128
 21
286.0824081065389
 31
0
  0
LINE
  8
1
 62
3
 10
360.980772949128
 20
286.0824081065389
 30
0
 11
363.480772949128
 21
286.0824081065389
 31
0
  0
LINE
  8
1
 62
3
 10
363.480772949128
 20
290.2824081065386
 30
0
 11
363.480772949128
 21
287.2824081065386
 31
0
  0
LINE
  8
1
 62
3
 10
362.2263204305031
 20
287.2824081065386
 30
0
 11
363.480772949128
 21
287.2824081065386
 31
0
  0
LINE
  8
1
 62
3
 10
363.480772949128
 20
291.482408106539
 30
0
 11
363.480772949128
 21
290.2824081065386
 31
0
  0
LINE
  8
1
 62
3
 10
362.2263204305031
 20
290.2824081065386
 30
0
 11
363.480772949128
 21
290.2824081065386
 31
0
  0
LINE
  8
1
 62
3
 10
363.480772949128
 20
292.7824081065386
 30
0
 11
363.480772949128
 21
291.482408106539
 31
0
  0
LINE
  8
1
 62
3
 10
360.980772949128
 20
291.482408106539
 30
0
 11
363.480772949128
 21
291.482408106539
 31
0
  0
LINE
  8
1
 62
3
 10
371.9307729491283
 20
292.6324081065391
 30
0
 11
371.9307729491281
 21
289.1324081065391
 31
0
  0
LINE
  8
1
 62
3
 10
368.4307729491283
 20
292.6324081065391
 30
0
 11
368.4307729491283
 21
289.1324081065391
 31
0
  0
LINE
  8
1
 62
3
 10
368.4307729491283
 20
289.1324081065391
 30
0
 11
371.9307729491281
 21
289.1324081065391
 31
0
  0
LINE
  8
1
 62
3
 10
368.4307729491283
 20
292.6324081065391
 30
0
 11
371.9307729491283
 21
292.6324081065391
 31
0
  0
LINE
  8
1
 62
3
 10
371.9307729491281
 20
288.4324081065389
 30
0
 11
371.9307729491281
 21
284.9324081065389
 31
0
  0
LINE
  8
1
 62
3
 10
368.4307729491283
 20
288.4324081065389
 30
0
 11
368.4307729491283
 21
284.9324081065389
 31
0
  0
LINE
  8
1
 62
3
 10
368.4307729491283
 20
284.9324081065389
 30
0
 11
371.9307729491281
 21
284.9324081065389
 31
0
  0
LINE
  8
1
 62
3
 10
368.4307729491283
 20
288.4324081065389
 30
0
 11
371.9307729491281
 21
288.4324081065389
 31
0
  0
LINE
  8
1
 62
3
 10
367.730772949128
 20
296.8324081065389
 30
0
 11
367.730772949128
 21
293.3324081065389
 31
0
  0
LINE
  8
1
 62
3
 10
364.230772949128
 20
296.8324081065389
 30
0
 11
364.230772949128
 21
293.3324081065389
 31
0
  0
LINE
  8
1
 62
3
 10
364.230772949128
 20
293.3324081065389
 30
0
 11
367.730772949128
 21
293.3324081065389
 31
0
  0
LINE
  8
1
 62
3
 10
364.230772949128
 20
296.8324081065389
 30
0
 11
367.730772949128
 21
296.8324081065389
 31
0
  0
LINE
  8
1
 62
3
 10
367.730772949128
 20
284.2324081065391
 30
0
 11
367.730772949128
 21
280.7324081065391
 31
0
  0
LINE
  8
1
 62
3
 10
364.230772949128
 20
284.2324081065391
 30
0
 11
364.230772949128
 21
280.7324081065391
 31
0
  0
LINE
  8
1
 62
3
 10
364.230772949128
 20
280.7324081065391
 30
0
 11
367.730772949128
 21
280.7324081065391
 31
0
  0
LINE
  8
1
 62
3
 10
364.230772949128
 20
284.2324081065391
 30
0
 11
367.730772949128
 21
284.2324081065391
 31
0
  0
LINE
  8
1
 62
3
 10
373.0807729491279
 20
297.7824081065386
 30
0
 11
373.0807729491277
 21
279.7824081065394
 31
0
  0
LINE
  8
1
 62
3
 10
363.480772949128
 20
284.7824081065386
 30
0
 11
363.480772949128
 21
279.7824081065394
 31
0
  0
LINE
  8
1
 62
3
 10
363.480772949128
 20
279.7824081065394
 30
0
 11
373.0807729491277
 21
279.7824081065394
 31
0
  0
LINE
  8
1
 62
3
 10
363.480772949128
 20
297.7824081065386
 30
0
 11
373.0807729491279
 21
297.7824081065386
 31
0
  0
LINE
  8
1
 62
3
 10
336.2176033467506
 20
296.782408106539
 30
0
 11
327.6176033467506
 21
296.7824081065388
 31
0
  0
LINE
  8
1
 62
3
 10
336.2176033467506
 20
292.582408106539
 30
0
 11
327.6176033467506
 21
292.582408106539
 31
0
  0
LINE
  8
1
 62
3
 10
336.2176033467506
 20
284.1824081065387
 30
0
 11
327.6176033467506
 21
284.1824081065387
 31
0
  0
LINE
  8
1
 62
3
 10
327.6176033467506
 20
293.3824081065391
 30
0
 11
336.2176033467506
 21
293.3824081065391
 31
0
  0
LINE
  8
1
 62
3
 10
332.8963684099967
 20
289.1824081065387
 30
0
 11
336.2176033467506
 21
289.1824081065387
 31
0
  0
LINE
  8
1
 62
3
 10
327.6176033467506
 20
284.9824081065391
 30
0
 11
336.2176033467506
 21
284.9824081065391
 31
0
  0
LINE
  8
1
 62
3
 10
327.6176033467506
 20
280.7824081065388
 30
0
 11
336.2176033467506
 21
280.7824081065388
 31
0
  0
LINE
  8
1
 62
3
 10
317.7530200944477
 20
297.7824081065388
 30
0
 11
327.6176033467506
 21
297.7824081065386
 31
0
  0
LINE
  8
1
 62
3
 10
317.7530200944477
 20
292.782408106539
 30
0
 11
317.7530200944477
 21
297.7824081065388
 31
0
  0
LINE
  8
1
 62
3
 10
316.6176033467506
 20
292.7824081065388
 30
0
 11
317.7530200944477
 21
292.782408106539
 31
0
  0
LINE
  8
1
 62
3
 10
317.7530200944477
 20
284.7824081065388
 30
0
 11
316.6176033467506
 21
284.7824081065388
 31
0
  0
LINE
  8
1
 62
3
 10
317.7530200944477
 20
284.7824081065388
 30
0
 11
317.7530200944477
 21
279.7824081065386
 31
0
  0
LINE
  8
1
 62
3
 10
316.6176033467506
 20
281.0046095486562
 30
0
 11
316.6176033467506
 21
279.7824081065386
 31
0
  0
LINE
  8
1
 62
3
 10
317.7530200944477
 20
279.7824081065386
 30
0
 11
316.6176033467506
 21
279.7824081065386
 31
0
  0
LINE
  8
1
 62
3
 10
316.6176033467506
 20
297.7824081065386
 30
0
 11
317.7530200944477
 21
297.7824081065388
 31
0
  0
LINE
  8
1
 62
3
 10
327.6176033467506
 20
279.782408106539
 30
0
 11
317.7530200944477
 21
279.7824081065386
 31
0
  0
LINE
  8
1
 62
3
 10
321.5696363365777
 20
291.482408106539
 30
0
 11
326.3096274759974
 21
291.482408106539
 31
0
  0
LINE
  8
1
 62
3
 10
321.5696363365775
 20
290.2824081065386
 30
0
 11
326.3096274759974
 21
290.282408106539
 31
0
  0
LINE
  8
1
 62
3
 10
321.5696363365775
 20
290.2824081065386
 30
0
 11
321.5696363365777
 21
291.482408106539
 31
0
  0
LINE
  8
1
 62
3
 10
321.5696363365775
 20
287.2824081065386
 30
0
 11
320.4615864598308
 21
287.2824081065386
 31
0
  0
LINE
  8
1
 62
3
 10
321.5696363365775
 20
286.0824081065389
 30
0
 11
320.4615864598308
 21
286.0824081065389
 31
0
  0
LINE
  8
1
 62
3
 10
321.5696363365775
 20
286.0824081065389
 30
0
 11
321.5696363365775
 21
287.2824081065386
 31
0
  0
LINE
  8
1
 62
3
 10
320.4615864598308
 20
291.482408106539
 30
0
 11
321.5696363365777
 21
291.482408106539
 31
0
  0
LINE
  8
1
 62
3
 10
320.4615864598308
 20
290.2824081065386
 30
0
 11
320.4615864598308
 21
291.482408106539
 31
0
  0
LINE
  8
1
 62
3
 10
320.4615864598308
 20
286.0824081065389
 30
0
 11
319.1176033467506
 21
286.0824081065389
 31
0
  0
LINE
  8
1
 62
3
 10
320.4615864598308
 20
286.0824081065389
 30
0
 11
320.4615864598308
 21
287.2824081065386
 31
0
  0
LINE
  8
1
 62
3
 10
327.6176033467506
 20
290.2824081065386
 30
0
 11
326.3096274759974
 21
290.282408106539
 31
0
  0
LINE
  8
1
 62
3
 10
326.3096274759974
 20
290.282408106539
 30
0
 11
326.3096274759974
 21
291.482408106539
 31
0
  0
LINE
  8
1
 62
3
 10
326.3096274759974
 20
287.2824081065386
 30
0
 11
321.5696363365775
 21
287.2824081065386
 31
0
  0
LINE
  8
1
 62
3
 10
326.3096274759974
 20
286.082408106539
 30
0
 11
321.5696363365775
 21
286.0824081065389
 31
0
  0
LINE
  8
1
 62
3
 10
326.3096274759974
 20
286.082408106539
 30
0
 11
326.3096274759974
 21
287.2824081065386
 31
0
  0
LINE
  8
1
 62
3
 10
332.8963684099966
 20
290.2824081065388
 30
0
 11
332.8963684099966
 21
287.2824081065388
 31
0
  0
LINE
  8
1
 62
3
 10
320.4615864598308
 20
290.2824081065386
 30
0
 11
321.5696363365775
 21
290.2824081065386
 31
0
  0
LINE
  8
1
 62
3
 10
320.4615864598308
 20
287.2824081065386
 30
0
 11
320.4615864598308
 21
290.2824081065386
 31
0
  0
LINE
  8
1
 62
3
 10
327.6176033467506
 20
287.2824081065386
 30
0
 11
332.8963684099966
 21
287.2824081065388
 31
0
  0
LINE
  8
1
 62
3
 10
319.1176033467506
 20
291.4824081065386
 30
0
 11
320.4615864598308
 21
291.482408106539
 31
0
  0
LINE
  8
1
 62
3
 10
319.1176033467506
 20
286.0824081065389
 30
0
 11
319.1176033467506
 21
291.4824081065386
 31
0
  0
LINE
  8
1
 62
3
 10
336.2176033467506
 20
284.1824081065387
 30
0
 11
336.2176033467506
 21
280.7824081065388
 31
0
  0
LINE
  8
1
 62
3
 10
336.2176033467506
 20
288.3824081065387
 30
0
 11
336.2176033467506
 21
284.9824081065391
 31
0
  0
LINE
  8
1
 62
3
 10
336.2176033467506
 20
292.582408106539
 30
0
 11
336.2176033467506
 21
289.1824081065387
 31
0
  0
LINE
  8
1
 62
3
 10
336.2176033467506
 20
296.782408106539
 30
0
 11
336.2176033467506
 21
293.3824081065391
 31
0
  0
LINE
  8
1
 62
3
 10
327.6176033467506
 20
287.2824081065386
 30
0
 11
327.6176033467506
 21
279.782408106539
 31
0
  0
LINE
  8
1
 62
3
 10
326.3096274759974
 20
287.2824081065386
 30
0
 11
327.6176033467506
 21
287.2824081065386
 31
0
  0
LINE
  8
1
 62
3
 10
327.6176033467506
 20
290.2824081065386
 30
0
 11
327.6176033467506
 21
297.7824081065386
 31
0
  0
LINE
  8
1
 62
3
 10
332.8963684099966
 20
290.2824081065388
 30
0
 11
327.6176033467506
 21
290.2824081065386
 31
0
  0
LINE
  8
1
 62
3
 10
336.2176033467506
 20
288.3824081065387
 30
0
 11
332.8963684099967
 21
288.3824081065391
 31
0
  0
LINE
  8
1
 62
3
 10
316.6176033467506
 20
284.7824081065388
 30
0
 11
316.6176033467506
 21
279.7824081065386
 31
0
  0
LINE
  8
1
 62
3
 10
307.5723515175029
 20
289.0143922947224
 30
0
 11
316.6176033467506
 21
294.6271842028385
 31
0
  0
LINE
  8
1
 62
3
 10
316.6176033467506
 20
295.7466050173538
 30
0
 11
304.2854880543266
 21
288.1376320102389
 31
0
  0
LINE
  8
1
 62
3
 10
304.2854880543266
 20
288.1376320102389
 30
0
 11
316.6176033467506
 21
291.4271842028385
 31
0
  0
LINE
  8
1
 62
3
 10
304.2854880543266
 20
285.1077633883234
 30
0
 11
316.6176033467506
 21
281.818211195724
 31
0
  0
LINE
  8
1
 62
3
 10
304.2854880543266
 20
287.1376320102378
 30
0
 11
316.6176033467503
 21
290.4271842028371
 31
0
  0
LINE
  8
1
 62
3
 10
316.6176033467503
 20
282.9376320102389
 30
0
 11
304.2854880543266
 21
286.2271842028388
 31
0
  0
LINE
  8
1
 62
3
 10
316.6176033467506
 20
292.7824081065388
 30
0
 11
316.6176033467506
 21
297.7824081065386
 31
0
  0
LINE
  8
1
 62
3
 10
316.6176033467506
 20
284.7824081065388
 30
0
 11
316.6176033467506
 21
292.7824081065388
 31
0
  0
LINE
  8
1
 62
3
 10
316.6176033467506
 20
281.0046095486562
 30
0
 11
316.6176033467506
 21
279.7824081065386
 31
0
  0
LINE
  8
1
 62
3
 10
316.6176033467506
 20
284.7824081065388
 30
0
 11
316.6176033467506
 21
279.7824081065386
 31
0
  0
LINE
  8
1
 62
1
 10
292.6846653780467
 20
282.8365757703524
 30
0
 11
292.6846653780467
 21
289.2321975631993
 31
0
  0
LINE
  8
1
 62
3
 10
293.1846653780467
 20
288.077584524841
 30
0
 11
293.1846653780467
 21
285.077584524841
 31
0
  0
LINE
  8
1
 62
3
 10
292.1846653780467
 20
288.077584524841
 30
0
 11
292.1846653780467
 21
285.077584524841
 31
0
  0
LINE
  8
1
 62
3
 10
294.1846653780467
 20
283.577584524841
 30
0
 11
294.1846653780467
 21
285.077584524841
 31
0
  0
LINE
  8
1
 62
3
 10
291.1846653780468
 20
283.577584524841
 30
0
 11
294.1846653780467
 21
283.577584524841
 31
0
  0
LINE
  8
1
 62
3
 10
291.1846653780468
 20
285.077584524841
 30
0
 11
291.1846653780468
 21
283.577584524841
 31
0
  0
LINE
  8
1
 62
3
 10
290.8762211589176
 20
288.1376320102389
 30
0
 11
304.2854880543266
 21
288.1376320102389
 31
0
  0
LINE
  8
1
 62
3
 10
290.1463331320732
 20
285.1077633883234
 30
0
 11
304.2854880543266
 21
285.1077633883234
 31
0
  0
LINE
  8
1
 62
3
 10
316.6176033467506
 20
286.2271842028388
 30
0
 11
290.6927330464735
 21
286.2271842028388
 31
0
  0
LINE
  8
1
 62
3
 10
248.7804691342413
 20
298.077584524841
 30
0
 11
248.7804691342413
 21
289.6652406281056
 31
0
  0
LINE
  8
1
 62
3
 10
248.7804691342413
 20
300.577584524841
 30
0
 11
248.7804691342413
 21
289.6652406281056
 31
0
  0
LINE
  8
1
 62
3
 10
248.7804691342413
 20
289.6652406281056
 30
0
 11
248.7804691342413
 21
288.5501110505239
 31
0
  0
LINE
  8
1
 62
3
 10
248.7804691342413
 20
289.6652406281056
 30
0
 11
248.7804691342413
 21
288.5501110505239
 31
0
  0
LINE
  8
1
 62
3
 10
248.7804691342413
 20
288.5501110505239
 30
0
 11
248.7804691342413
 21
275.077584524841
 31
0
  0
LINE
  8
1
 62
3
 10
248.7804691342413
 20
288.5501110505239
 30
0
 11
248.7804691342413
 21
277.577584524841
 31
0
  0
LINE
  8
1
 62
3
 10
248.7804691342413
 20
278.577584524841
 30
0
 11
248.7804691342413
 21
279.577584524841
 31
0
  0
LINE
  8
1
 62
3
 10
248.7804691342413
 20
273.577584524841
 30
0
 11
248.7804691342413
 21
274.577584524841
 31
0
  0
LINE
  8
1
 62
3
 10
248.7804691342413
 20
272.577584524841
 30
0
 11
248.7804691342413
 21
280.6275845248409
 31
0
  0
LINE
  8
1
 62
3
 10
248.7804691342413
 20
298.077584524841
 30
0
 11
248.7804691342413
 21
275.077584524841
 31
0
  0
LINE
  8
1
 62
3
 10
248.7804691342413
 20
300.577584524841
 30
0
 11
248.7804691342413
 21
277.577584524841
 31
0
  0
LINE
  8
1
 62
3
 10
248.7804691342413
 20
273.577584524841
 30
0
 11
248.7804691342413
 21
274.577584524841
 31
0
  0
LINE
  8
1
 62
3
 10
248.7804691342413
 20
272.577584524841
 30
0
 11
248.7804691342413
 21
280.6275845248409
 31
0
  0
LINE
  8
1
 62
3
 10
268.7804691342413
 20
287.077584524841
 30
0
 11
288.7444662491887
 21
287.1180835194605
 31
0
  0
LINE
  8
1
 62
3
 10
268.7804691342413
 20
286.077584524841
 30
0
 11
289.1902939481669
 21
286.077584524841
 31
0
  0
LINE
  8
1
 62
3
 10
245.6251338052801
 20
278.6275845248409
 30
0
 11
246.1858520337803
 21
278.6275845248409
 31
0
  0
LINE
  8
1
 62
3
 10
245.6251338052801
 20
280.6275845248409
 30
0
 11
240.8804691342413
 21
280.6275845248409
 31
0
  0
LINE
  8
1
 62
3
 10
245.6251338052801
 20
280.6275845248409
 30
0
 11
245.6251338052801
 21
278.6275845248409
 31
0
  0
LINE
  8
1
 62
3
 10
245.6251338052801
 20
292.5275845248408
 30
0
 11
246.1858520337803
 21
292.5275845248408
 31
0
  0
LINE
  8
1
 62
3
 10
245.6251338052801
 20
294.527584524841
 30
0
 11
240.8804691342413
 21
294.527584524841
 31
0
  0
LINE
  8
1
 62
3
 10
245.6251338052801
 20
294.527584524841
 30
0
 11
245.6251338052801
 21
292.5275845248408
 31
0
  0
LINE
  8
1
 62
3
 10
244.2794100568812
 20
272.577584524841
 30
0
 11
244.7279846396812
 21
272.577584524841
 31
0
  0
LINE
  8
1
 62
3
 10
244.2794100568812
 20
275.577584524841
 30
0
 11
244.7279846396812
 21
275.577584524841
 31
0
  0
LINE
  8
1
 62
3
 10
244.2794100568812
 20
275.577584524841
 30
0
 11
244.2794100568812
 21
272.577584524841
 31
0
  0
LINE
  8
1
 62
3
 10
243.0084487389482
 20
275.577584524841
 30
0
 11
244.2794100568812
 21
275.577584524841
 31
0
  0
LINE
  8
1
 62
3
 10
243.0084487389482
 20
272.577584524841
 30
0
 11
244.2794100568812
 21
272.577584524841
 31
0
  0
LINE
  8
1
 62
3
 10
243.0084487389482
 20
272.577584524841
 30
0
 11
243.0084487389482
 21
275.577584524841
 31
0
  0
LINE
  8
1
 62
3
 10
244.2794100568812
 20
297.577584524841
 30
0
 11
244.7279846396812
 21
297.577584524841
 31
0
  0
LINE
  8
1
 62
3
 10
244.2794100568812
 20
300.577584524841
 30
0
 11
243.0084487389482
 21
300.577584524841
 31
0
  0
LINE
  8
1
 62
3
 10
244.2794100568812
 20
300.577584524841
 30
0
 11
244.2794100568812
 21
297.577584524841
 31
0
  0
LINE
  8
1
 62
3
 10
243.0084487389482
 20
300.577584524841
 30
0
 11
241.9991559276484
 21
300.577584524841
 31
0
  0
LINE
  8
1
 62
3
 10
243.0084487389482
 20
297.577584524841
 30
0
 11
244.2794100568812
 21
297.577584524841
 31
0
  0
LINE
  8
1
 62
3
 10
243.0084487389482
 20
297.577584524841
 30
0
 11
243.0084487389482
 21
300.577584524841
 31
0
  0
LINE
  8
1
 62
3
 10
244.7279846396812
 20
272.577584524841
 30
0
 11
248.7804691342413
 21
272.577584524841
 31
0
  0
LINE
  8
1
 62
3
 10
244.7279846396812
 20
275.577584524841
 30
0
 11
244.7279846396812
 21
272.577584524841
 31
0
  0
LINE
  8
1
 62
3
 10
241.9991559276484
 20
275.577584524841
 30
0
 11
243.0084487389482
 21
275.577584524841
 31
0
  0
LINE
  8
1
 62
3
 10
241.9991559276484
 20
272.577584524841
 30
0
 11
243.0084487389482
 21
272.577584524841
 31
0
  0
LINE
  8
1
 62
3
 10
241.9991559276484
 20
272.577584524841
 30
0
 11
241.9991559276484
 21
275.577584524841
 31
0
  0
LINE
  8
1
 62
3
 10
244.7279846396812
 20
300.577584524841
 30
0
 11
244.2794100568812
 21
300.577584524841
 31
0
  0
LINE
  8
1
 62
3
 10
244.7279846396812
 20
297.577584524841
 30
0
 11
244.7279846396812
 21
300.577584524841
 31
0
  0
LINE
  8
1
 62
3
 10
241.9991559276484
 20
297.577584524841
 30
0
 11
243.0084487389482
 21
297.577584524841
 31
0
  0
LINE
  8
1
 62
3
 10
241.9991559276484
 20
300.577584524841
 30
0
 11
240.8804691342413
 21
300.577584524841
 31
0
  0
LINE
  8
1
 62
3
 10
241.9991559276484
 20
300.577584524841
 30
0
 11
241.9991559276484
 21
297.577584524841
 31
0
  0
LINE
  8
1
 62
3
 10
240.8804691342413
 20
294.527584524841
 30
0
 11
240.8804691342413
 21
292.5275845248408
 31
0
  0
LINE
  8
1
 62
3
 10
246.1858520337803
 20
294.527584524841
 30
0
 11
245.6251338052801
 21
294.527584524841
 31
0
  0
LINE
  8
1
 62
3
 10
246.1858520337803
 20
292.5275845248408
 30
0
 11
246.1858520337803
 21
294.527584524841
 31
0
  0
LINE
  8
1
 62
3
 10
240.8804691342413
 20
292.5275845248408
 30
0
 11
245.6251338052801
 21
292.5275845248408
 31
0
  0
LINE
  8
1
 62
3
 10
240.8804691342413
 20
292.5275845248408
 30
0
 11
240.8804691342413
 21
280.6275845248409
 31
0
  0
LINE
  8
1
 62
3
 10
240.8804691342413
 20
280.6275845248409
 30
0
 11
240.8804691342413
 21
292.5275845248408
 31
0
  0
LINE
  8
1
 62
3
 10
240.8804691342413
 20
280.6275845248409
 30
0
 11
240.8804691342413
 21
278.6275845248409
 31
0
  0
LINE
  8
1
 62
3
 10
246.1858520337803
 20
280.6275845248409
 30
0
 11
245.6251338052801
 21
280.6275845248409
 31
0
  0
LINE
  8
1
 62
3
 10
246.1858520337803
 20
278.6275845248409
 30
0
 11
246.1858520337803
 21
280.6275845248409
 31
0
  0
LINE
  8
1
 62
3
 10
240.8804691342413
 20
278.6275845248409
 30
0
 11
240.8804691342413
 21
272.577584524841
 31
0
  0
LINE
  8
1
 62
3
 10
240.8804691342413
 20
278.6275845248409
 30
0
 11
245.6251338052801
 21
278.6275845248409
 31
0
  0
LINE
  8
1
 62
3
 10
240.8804691342413
 20
272.577584524841
 30
0
 11
241.9991559276484
 21
272.577584524841
 31
0
  0
LINE
  8
1
 62
3
 10
240.8804691342413
 20
300.577584524841
 30
0
 11
240.8804691342413
 21
294.527584524841
 31
0
  0
LINE
  8
1
 62
3
 10
248.7804691342413
 20
300.577584524841
 30
0
 11
244.7279846396812
 21
300.577584524841
 31
0
  0
LINE
  8
1
 62
3
 10
248.7804691342413
 20
272.577584524841
 30
0
 11
248.7804691342413
 21
300.577584524841
 31
0
  0
LINE
  8
1
 62
3
 10
268.7804691342413
 20
288.077584524841
 30
0
 11
289.190293948167
 21
288.077584524841
 31
0
  0
LINE
  8
1
 62
3
 10
268.7804691342413
 20
285.077584524841
 30
0
 11
288.7444721054266
 21
285.077584524841
 31
0
  0
LINE
  8
1
 62
3
 10
290.0629787285792
 20
287.1376320102389
 30
0
 11
316.6176033467503
 21
287.1376320102389
 31
0
  0
LINE
  8
1
 62
3
 10
300.4433336913502
 20
194.347741332984
 30
0
 11
301.6436082477164
 21
194.347741332984
 31
0
  0
LINE
  8
1
 62
3
 10
300.4433336913502
 20
131.5477413329836
 30
0
 11
300.4433336913502
 21
192.2477413329838
 31
0
  0
LINE
  8
1
 62
3
 10
294.0430336913499
 20
125.5977413329839
 30
0
 11
295.5430336913499
 21
125.5977413329839
 31
0
  0
LINE
  8
1
 62
3
 10
294.0430336913499
 20
133.5977413329839
 30
0
 11
295.5430336913499
 21
133.5977413329839
 31
0
  0
LINE
  8
1
 62
3
 10
294.0430336913499
 20
136.8477413329833
 30
0
 11
295.5430336913499
 21
136.8477413329833
 31
0
  0
LINE
  8
1
 62
3
 10
294.0430336913499
 20
188.8477413329839
 30
0
 11
295.5430336913499
 21
188.8477413329839
 31
0
  0
LINE
  8
1
 62
3
 10
294.0430336913499
 20
192.0977413329839
 30
0
 11
295.5430336913499
 21
192.0977413329839
 31
0
  0
LINE
  8
1
 62
3
 10
294.0430336913499
 20
200.0977413329839
 30
0
 11
295.5430336913499
 21
200.0977413329839
 31
0
  0
LINE
  8
1
 62
3
 10
294.0430336913499
 20
200.8477413329839
 30
0
 11
294.0430336913499
 21
122.8477413329837
 31
0
  0
LINE
  8
1
 62
3
 10
295.5430336913499
 20
200.8477413329839
 30
0
 11
294.0430336913499
 21
200.8477413329839
 31
0
  0
LINE
  8
1
 62
3
 10
294.0430336913499
 20
202.8477413329841
 30
0
 11
294.0430336913499
 21
200.8477413329839
 31
0
  0
LINE
  8
1
 62
3
 10
297.1430336913499
 20
123.295070388689
 30
0
 11
297.1430336913499
 21
138.0477845232442
 31
0
  0
LINE
  8
1
 62
3
 10
295.5430336913499
 20
123.295070388689
 30
0
 11
297.1430336913499
 21
123.295070388689
 31
0
  0
LINE
  8
1
 62
3
 10
167.9068513433588
 20
156.1477413329838
 30
0
 11
168.7368513433589
 21
156.1477413329838
 31
0
  0
LINE
  8
1
 62
3
 10
165.9068513433588
 20
157.1477413329838
 30
0
 11
165.0968513433588
 21
157.1477413329838
 31
0
  0
LINE
  8
1
 62
3
 10
167.9068513433588
 20
158.5355019857491
 30
0
 11
168.7168513433588
 21
158.5355019857491
 31
0
  0
LINE
  8
1
 62
3
 10
167.9068513433588
 20
157.1477413329838
 30
0
 11
167.9068513433588
 21
156.1477413329838
 31
0
  0
LINE
  8
1
 62
3
 10
165.9068513433588
 20
157.1477413329838
 30
0
 11
165.9068513433588
 21
156.1477413329838
 31
0
  0
LINE
  8
1
 62
3
 10
167.9068513433588
 20
159.5110896658932
 30
0
 11
167.9068513433588
 21
158.5355019857491
 31
0
  0
LINE
  8
1
 62
3
 10
165.9068513433588
 20
159.5110896658932
 30
0
 11
165.9068513433588
 21
158.5355019857491
 31
0
  0
LINE
  8
1
 62
3
 10
163.4068513433588
 20
159.7108639047122
 30
0
 11
163.4068513433588
 21
157.8177413329838
 31
0
  0
LINE
  8
1
 62
3
 10
164.4068513433588
 20
157.8377413329838
 30
0
 11
164.4068513433588
 21
157.8455019857491
 31
0
  0
LINE
  8
1
 62
3
 10
168.7168513433589
 20
157.1477413329838
 30
0
 11
167.9068513433588
 21
157.1477413329838
 31
0
  0
LINE
  8
1
 62
3
 10
169.4068513433588
 20
157.8455019857491
 30
0
 11
169.4068513433588
 21
157.8377413329838
 31
0
  0
LINE
  8
1
 62
3
 10
165.0968513433589
 20
158.5355019857491
 30
0
 11
165.9068513433588
 21
158.5355019857491
 31
0
  0
LINE
  8
1
 62
3
 10
170.4068513433588
 20
157.8177413329838
 30
0
 11
170.4068513433588
 21
159.7108639047121
 31
0
  0
LINE
  8
1
 62
3
 10
165.0768513433588
 20
156.1477413329838
 30
0
 11
165.9068513433588
 21
156.1477413329838
 31
0
  0
LINE
  8
1
 62
3
 10
295.5430336913499
 20
138.0477845232444
 30
0
 11
299.5430336913507
 21
138.047784523244
 31
0
  0
LINE
  8
1
 62
3
 10
295.5430336913499
 20
122.8477413329837
 30
0
 11
295.5430336913499
 21
194.1251063359097
 31
0
  0
LINE
  8
1
 62
3
 10
199.9068513433588
 20
122.8477413329838
 30
0
 11
133.9068513433588
 21
122.8477413329838
 31
0
  0
LINE
  8
1
 62
1
 10
200.1568513433588
 20
125.1575652462223
 30
0
 11
200.1568513433588
 21
134.0379174197452
 31
0
  0
LINE
  8
1
 62
1
 10
204.5970274301202
 20
129.5977413329836
 30
0
 11
195.7166752565973
 21
129.5977413329838
 31
0
  0
LINE
  8
1
 62
1
 10
129.2166752565974
 20
129.5977413329838
 30
0
 11
138.0970274301204
 21
129.5977413329838
 31
0
  0
LINE
  8
1
 62
1
 10
133.6568513433588
 20
125.1575652462223
 30
0
 11
133.6568513433588
 21
134.0379174197453
 31
0
  0
LINE
  8
1
 62
3
 10
126.9068513433588
 20
162.8477413329838
 30
0
 11
126.9068513433588
 21
129.8477413329838
 31
0
  0
LINE
  8
1
 62
3
 10
206.9068513433588
 20
162.8477413329838
 30
0
 11
206.9068513433588
 21
129.8477413329838
 31
0
  0
LINE
  8
1
 62
3
 10
133.9068513433588
 20
202.8477413329838
 30
0
 11
199.9068513433588
 21
202.8477413329838
 31
0
  0
LINE
  8
1
 62
1
 10
200.1568513433588
 20
191.6575652462222
 30
0
 11
200.1568513433588
 21
200.5379174197452
 31
0
  0
LINE
  8
1
 62
1
 10
195.7166752565973
 20
196.0977413329838
 30
0
 11
204.5970274301202
 21
196.0977413329838
 31
0
  0
LINE
  8
1
 62
1
 10
138.0970274301204
 20
196.0977413329838
 30
0
 11
129.2166752565974
 21
196.0977413329838
 31
0
  0
LINE
  8
1
 62
1
 10
133.6568513433588
 20
191.6575652462223
 30
0
 11
133.6568513433588
 21
200.5379174197453
 31
0
  0
LINE
  8
1
 62
3
 10
126.9068513433588
 20
195.8477413329838
 30
0
 11
126.9068513433588
 21
162.8477413329838
 31
0
  0
LINE
  8
1
 62
3
 10
206.9068513433588
 20
195.8477413329838
 30
0
 11
206.9068513433588
 21
162.8477413329838
 31
0
  0
LINE
  8
1
 62
1
 10
166.9068513433588
 20
162.8477413329838
 30
0
 11
166.9068513433588
 21
204.4488006738852
 31
0
  0
LINE
  8
1
 62
1
 10
200.4068513433588
 20
162.8477413329838
 30
0
 11
203.5568513433588
 21
162.8477413329838
 31
0
  0
LINE
  8
1
 62
1
 10
203.5568513433588
 20
162.8477413329838
 30
0
 11
210.877739748226
 21
162.8477413329838
 31
0
  0
LINE
  8
1
 62
1
 10
161.1068513433589
 20
162.8477413329838
 30
0
 11
177.9068513433588
 21
162.8477413329838
 31
0
  0
LINE
  8
1
 62
1
 10
166.9068513433588
 20
115.4478658015628
 30
0
 11
166.9068513433588
 21
162.8477413329838
 31
0
  0
LINE
  8
1
 62
1
 10
125.3057920024573
 20
162.8477413329838
 30
0
 11
153.256851343359
 21
162.8477413329838
 31
0
  0
LINE
  8
1
 62
1
 10
177.9068513433588
 20
162.8477413329838
 30
0
 11
200.4068513433588
 21
162.8477413329838
 31
0
  0
LINE
  8
1
 62
1
 10
153.7068513433588
 20
162.8477413329838
 30
0
 11
161.1068513433589
 21
162.8477413329838
 31
0
  0
LINE
  8
1
 62
1
 10
265.266838262533
 20
162.8477413329838
 30
0
 11
338.5534455840501
 21
162.8477413329838
 31
0
  0
LINE
  8
1
 62
3
 10
284.5430336913499
 20
196.3477413329837
 30
0
 11
284.5430336913499
 21
166.3477413329836
 31
0
  0
LINE
  8
1
 62
3
 10
284.5430336913499
 20
198.9977413329838
 30
0
 11
284.5430336913499
 21
196.3477413329837
 31
0
  0
LINE
  8
1
 62
3
 10
284.8930336913498
 20
199.3477413329837
 30
0
 11
287.5430336913499
 21
199.3477413329837
 31
0
  0
LINE
  8
1
 62
3
 10
284.5430336913499
 20
198.9977413329838
 30
0
 11
284.8930336913498
 21
199.3477413329837
 31
0
  0
LINE
  8
1
 62
3
 10
287.5430336913501
 20
202.8477413329842
 30
0
 11
287.5430336913499
 21
199.3477413329837
 31
0
  0
LINE
  8
1
 62
3
 10
284.5430336913499
 20
129.3477413329835
 30
0
 11
284.5430336913499
 21
126.6977413329836
 31
0
  0
LINE
  8
1
 62
3
 10
287.5430336913499
 20
126.3477413329836
 30
0
 11
284.8930336913498
 21
126.3477413329836
 31
0
  0
LINE
  8
1
 62
3
 10
284.5430336913499
 20
126.6977413329836
 30
0
 11
284.8930336913498
 21
126.3477413329836
 31
0
  0
LINE
  8
1
 62
3
 10
287.5430336913499
 20
126.3477413329836
 30
0
 11
287.5430336913499
 21
122.8477413329838
 31
0
  0
LINE
  8
1
 62
3
 10
287.5430336913499
 20
122.8477413329838
 30
0
 11
295.5430336913499
 21
122.8477413329837
 31
0
  0
LINE
  8
1
 62
3
 10
284.5430336913499
 20
166.3477413329836
 30
0
 11
284.5430336913499
 21
129.3477413329835
 31
0
  0
LINE
  8
1
 62
3
 10
295.5430336913499
 20
194.1251063359097
 30
0
 11
295.5430336913499
 21
200.8477413329839
 31
0
  0
LINE
  8
1
 62
3
 10
287.5430336913501
 20
202.8477413329842
 30
0
 11
294.0430336913499
 21
202.8477413329841
 31
0
  0
LINE
  8
1
 62
3
 10
180.9068513433588
 20
120.8477413329838
 30
0
 11
152.9068513433588
 21
120.8477413329838
 31
0
  0
LINE
  8
1
 62
3
 10
287.5430336913499
 20
199.3477413329837
 30
0
 11
287.5430336913499
 21
126.3477413329836
 31
0
  0
LINE
  8
1
 62
3
 10
299.5430336913507
 20
194.9608227796468
 30
0
 11
299.5430336913507
 21
138.047784523244
 31
0
  0
LINE
  8
1
 62
3
 10
303.0430413262416
 20
126.547741332984
 30
0
 11
303.0430413262416
 21
121.8477413329835
 31
0
  0
LINE
  8
1
 62
3
 10
301.8276085809763
 20
121.8477413329835
 30
0
 11
301.8276085809763
 21
126.547741332984
 31
0
  0
LINE
  8
1
 62
3
 10
303.0430413262416
 20
121.8477413329835
 30
0
 11
301.8276085809763
 21
121.8477413329835
 31
0
  0
LINE
  8
1
 62
3
 10
299.7230413262416
 20
122.9991213132887
 30
0
 11
299.7230413262416
 21
126.547741332984
 31
0
  0
LINE
  8
1
 62
3
 10
301.8276085809763
 20
126.8477413329835
 30
0
 11
300.3630413262415
 21
126.8477413329835
 31
0
  0
LINE
  8
1
 62
3
 10
300.0630413262416
 20
122.6991213132885
 30
0
 11
300.0230413262415
 21
122.6991213132885
 31
0
  0
LINE
  8
1
 62
3
 10
300.3630413262415
 20
122.9991213132885
 30
0
 11
300.3630413262415
 21
126.547741332984
 31
0
  0
LINE
  8
1
 62
3
 10
299.7230413262416
 20
126.547741332984
 30
0
 11
299.7230413262416
 21
126.8477413329835
 31
0
  0
LINE
  8
1
 62
3
 10
300.3630413262415
 20
126.547741332984
 30
0
 11
300.3630413262415
 21
126.8477413329835
 31
0
  0
LINE
  8
1
 62
3
 10
301.8276085809763
 20
126.547741332984
 30
0
 11
301.8276085809763
 21
126.8477413329835
 31
0
  0
LINE
  8
1
 62
3
 10
299.7230413262416
 20
126.8477413329835
 30
0
 11
300.3630413262415
 21
126.8477413329835
 31
0
  0
LINE
  8
1
 62
3
 10
299.7230413262416
 20
126.8477413329835
 30
0
 11
298.6680413262412
 21
126.8477413329835
 31
0
  0
LINE
  8
1
 62
3
 10
303.0430413262416
 20
131.5477413329836
 30
0
 11
303.0430413262416
 21
126.547741332984
 31
0
  0
LINE
  8
1
 62
3
 10
297.1430336913499
 20
131.5477413329836
 30
0
 11
303.0430413262416
 21
131.5477413329836
 31
0
  0
LINE
  8
1
 62
3
 10
299.5430336913507
 20
194.9608227796468
 30
0
 11
295.5430336913499
 21
194.9608227796467
 31
0
  0
LINE
  8
1
 62
3
 10
297.9554667883003
 20
128.9484636221385
 30
0
 11
297.1430336913499
 21
128.9484636221386
 31
0
  0
LINE
  8
1
 62
3
 10
297.1430336913499
 20
124.7484636221384
 30
0
 11
297.9554667883002
 21
124.7484636221385
 31
0
  0
LINE
  8
1
 62
3
 10
298.8430413262412
 20
127.2109636221383
 30
0
 11
298.6680413262412
 21
127.2109636221383
 31
0
  0
LINE
  8
1
 62
3
 10
298.6680413262412
 20
127.2109636221383
 30
0
 11
298.6680413262412
 21
126.4859636221384
 31
0
  0
LINE
  8
1
 62
3
 10
298.6680413262412
 20
126.4859636221384
 30
0
 11
298.8430413262412
 21
126.4859636221384
 31
0
  0
LINE
  8
1
 62
3
 10
190.735278468105
 20
122.8477413329838
 30
0
 11
189.9068513433588
 21
122.8477413329838
 31
0
  0
LINE
  8
1
 62
3
 10
143.9068513433588
 20
122.8477413329838
 30
0
 11
142.2499970938664
 21
122.8477413329838
 31
0
  0
LINE
  8
1
 62
3
 10
166.9068513433588
 20
122.8477413329838
 30
0
 11
143.9068513433588
 21
122.8477413329838
 31
0
  0
LINE
  8
1
 62
3
 10
189.9068513433588
 20
122.8477413329838
 30
0
 11
166.9068513433588
 21
122.8477413329838
 31
0
  0
LINE
  8
1
 62
3
 10
180.9068513433588
 20
122.8477413329838
 30
0
 11
180.9068513433588
 21
120.8477413329838
 31
0
  0
LINE
  8
1
 62
3
 10
152.9068513433588
 20
122.8477413329838
 30
0
 11
152.9068513433588
 21
120.8477413329838
 31
0
  0
LINE
  8
1
 62
3
 10
332.5430336913502
 20
190.4477413329838
 30
0
 11
332.5430336913502
 21
168.8477413329838
 31
0
  0
LINE
  8
1
 62
3
 10
332.5430336913502
 20
191.6477413329838
 30
0
 11
332.5430336913502
 21
190.4477413329838
 31
0
  0
LINE
  8
1
 62
3
 10
332.5430336913502
 20
162.8477413329838
 30
0
 11
332.5430336913502
 21
168.8477413329838
 31
0
  0
LINE
  8
1
 62
3
 10
332.5430336913502
 20
156.8477413329838
 30
0
 11
332.5430336913502
 21
135.2477413329838
 31
0
  0
LINE
  8
1
 62
3
 10
330.34303369135
 20
131.8477413329838
 30
0
 11
302.1433336913502
 21
131.847741332984
 31
0
  0
LINE
  8
1
 62
3
 10
332.5430336913502
 20
135.2477413329838
 30
0
 11
332.5430336913502
 21
134.0477413329838
 31
0
  0
LINE
  8
1
 62
3
 10
332.5430336913502
 20
156.8477413329838
 30
0
 11
332.5430336913502
 21
162.8477413329838
 31
0
  0
LINE
  8
1
 62
3
 10
332.9430336913499
 20
158.547741332984
 30
0
 11
332.9430336913499
 21
157.1477413329838
 31
0
  0
LINE
  8
1
 62
3
 10
332.64303369135
 20
168.8477413329841
 30
0
 11
332.5430336913502
 21
168.8477413329838
 31
0
  0
LINE
  8
1
 62
3
 10
332.9430336913499
 20
168.547741332984
 30
0
 11
332.9430336913499
 21
167.1477413329838
 31
0
  0
LINE
  8
1
 62
3
 10
332.9430336913499
 20
158.547741332984
 30
0
 11
332.9430336913499
 21
167.1477413329838
 31
0
  0
LINE
  8
1
 62
3
 10
332.64303369135
 20
168.8477413329841
 30
0
 11
332.9430336913499
 21
168.547741332984
 31
0
  0
LINE
  8
1
 62
3
 10
332.9430336913499
 20
157.1477413329838
 30
0
 11
332.64303369135
 21
156.8477413329838
 31
0
  0
LINE
  8
1
 62
3
 10
332.9430336913501
 20
166.6477413329839
 30
0
 11
332.9430336913499
 21
159.0477413329839
 31
0
  0
LINE
  8
1
 62
3
 10
332.5430336913502
 20
156.8477413329838
 30
0
 11
332.64303369135
 21
156.8477413329838
 31
0
  0
LINE
  8
1
 62
3
 10
299.5430336913507
 20
149.8477413329837
 30
0
 11
299.943059134984
 21
149.8477413329837
 31
0
  0
LINE
  8
1
 62
3
 10
299.943059134984
 20
133.4477413329839
 30
0
 11
300.443059134984
 21
133.4477413329839
 31
0
  0
LINE
  8
1
 62
3
 10
299.943059134984
 20
175.8477413329841
 30
0
 11
299.5430336913507
 21
175.8477413329841
 31
0
  0
LINE
  8
1
 62
3
 10
300.443059134984
 20
194.347741332984
 30
0
 11
301.6433336913502
 21
194.347741332984
 31
0
  0
LINE
  8
1
 62
3
 10
299.943059134984
 20
192.2477413329838
 30
0
 11
299.943059134984
 21
133.4448248437692
 31
0
  0
LINE
  8
1
 62
3
 10
299.943059134984
 20
133.4448248437692
 30
0
 11
299.943059134984
 21
136.7977413329841
 31
0
  0
LINE
  8
1
 62
3
 10
299.943059134984
 20
150.8477413329843
 30
0
 11
299.943059134984
 21
136.7977413329841
 31
0
  0
LINE
  8
1
 62
3
 10
302.1433336913502
 20
193.8477413329841
 30
0
 11
330.34303369135
 21
193.8477413329838
 31
0
  0
LINE
  8
1
 62
3
 10
299.943059134984
 20
192.2477413329838
 30
0
 11
300.4433336913502
 21
192.2477413329838
 31
0
  0
LINE
  8
1
 62
3
 10
300.4433336913502
 20
192.2477413329838
 30
0
 11
300.4433336913502
 21
194.347741332984
 31
0
  0
LINE
  8
1
 62
3
 10
415.0575897055304
 20
131.3477548984324
 30
0
 11
415.0575897055304
 21
139.1528147286966
 31
0
  0
LINE
  8
1
 62
3
 10
455.6575897055303
 20
139.21069307455
 30
0
 11
455.6575897055303
 21
139.4183811454696
 31
0
  0
LINE
  8
1
 62
3
 10
457.6653303870306
 20
139.2127100089736
 30
0
 11
456.9885041832982
 21
138.6122535894755
 31
0
  0
LINE
  8
1
 62
3
 10
441.0575897055304
 20
193.465383306199
 30
0
 11
441.0575897055304
 21
193.8741816702186
 31
0
  0
LINE
  8
1
 62
3
 10
429.6575897055303
 20
193.465383306199
 30
0
 11
429.6575897055303
 21
193.8741816702186
 31
0
  0
LINE
  8
1
 62
3
 10
455.6575897055303
 20
131.3477548984318
 30
0
 11
455.6575897055303
 21
139.21069307455
 31
0
  0
LINE
  8
1
 62
3
 10
415.0575897055304
 20
139.1901844007897
 30
0
 11
415.0575897055304
 21
139.4194447570417
 31
0
  0
LINE
  8
1
 62
3
 10
456.3575897055303
 20
123.0977413329832
 30
0
 11
454.5190275332962
 21
123.0977413329832
 31
0
  0
LINE
  8
1
 62
3
 10
458.3575897055303
 20
123.0977413329832
 30
0
 11
458.6860168302767
 21
123.0977413329832
 31
0
  0
LINE
  8
1
 62
3
 10
412.3575897055302
 20
123.0977413329833
 30
0
 11
412.0291625807841
 21
123.0977413329833
 31
0
  0
LINE
  8
1
 62
1
 10
468.6075897055303
 20
200.537917419745
 30
0
 11
468.6075897055303
 21
191.6575652462222
 31
0
  0
LINE
  8
1
 62
1
 10
473.0477657922918
 20
196.0977413329837
 30
0
 11
464.1674136187688
 21
196.0977413329837
 31
0
  0
LINE
  8
1
 62
1
 10
473.0477657922918
 20
129.5977413329838
 30
0
 11
464.1674136187688
 21
129.5977413329838
 31
0
  0
LINE
  8
1
 62
1
 10
468.6075897055303
 20
125.1575652462224
 30
0
 11
468.6075897055303
 21
134.037917419745
 31
0
  0
LINE
  8
1
 62
3
 10
410.8575897055302
 20
123.0977413329833
 30
0
 11
412.0291625807841
 21
123.0977413329833
 31
0
  0
LINE
  8
1
 62
1
 10
406.5477657922915
 20
129.5977413329839
 30
0
 11
397.6674136187688
 21
129.5977413329839
 31
0
  0
LINE
  8
1
 62
1
 10
402.1075897055302
 20
134.0379174197451
 30
0
 11
402.1075897055302
 21
125.1575652462225
 31
0
  0
LINE
  8
1
 62
1
 10
402.1075897055302
 20
191.6575652462222
 30
0
 11
402.1075897055302
 21
200.537917419745
 31
0
  0
LINE
  8
1
 62
1
 10
406.5477657922915
 20
196.0977413329837
 30
0
 11
397.6674136187688
 21
196.0977413329837
 31
0
  0
LINE
  8
1
 62
3
 10
458.6860168302767
 20
123.0977413329832
 30
0
 11
459.8575897055303
 21
123.0977413329832
 31
0
  0
LINE
  8
1
 62
3
 10
414.3575897055302
 20
123.0977413329833
 30
0
 11
412.3575897055302
 21
123.0977413329833
 31
0
  0
LINE
  8
1
 62
3
 10
456.3575897055303
 20
123.0977413329832
 30
0
 11
458.3575897055303
 21
123.0977413329832
 31
0
  0
LINE
  8
1
 62
3
 10
409.3575897055302
 20
124.5977413329833
 30
0
 11
409.3575897055302
 21
133.8477413329833
 31
0
  0
LINE
  8
1
 62
3
 10
406.3575897055302
 20
188.8477413329838
 30
0
 11
398.8575897055302
 21
188.8477413329838
 31
0
  0
LINE
  8
1
 62
3
 10
409.3575897055302
 20
191.8477413329838
 30
0
 11
409.3575897055302
 21
199.3477413329837
 31
0
  0
LINE
  8
1
 62
3
 10
461.3575897055303
 20
133.8477413329832
 30
0
 11
461.3575897055303
 21
124.5977413329832
 31
0
  0
LINE
  8
1
 62
3
 10
464.3575897055303
 20
136.8477413329832
 30
0
 11
471.8575897055303
 21
136.8477413329832
 31
0
  0
LINE
  8
1
 62
3
 10
459.8575897055303
 20
200.8477413329837
 30
0
 11
410.8575897055302
 21
200.8477413329837
 31
0
  0
LINE
  8
1
 62
3
 10
461.3575897055303
 20
199.3477413329837
 30
0
 11
461.3575897055303
 21
191.8477413329838
 31
0
  0
LINE
  8
1
 62
3
 10
397.3575897055302
 20
138.3477413329833
 30
0
 11
397.3575897055302
 21
187.3477413329838
 31
0
  0
LINE
  8
1
 62
3
 10
398.8575897055302
 20
136.8477413329833
 30
0
 11
406.3575897055302
 21
136.8477413329833
 31
0
  0
LINE
  8
1
 62
3
 10
473.3575897055303
 20
138.3477413329832
 30
0
 11
473.3575897055303
 21
187.3477413329838
 31
0
  0
LINE
  8
1
 62
3
 10
471.8575897055303
 20
188.8477413329838
 30
0
 11
464.3575897055303
 21
188.8477413329838
 31
0
  0
LINE
  8
1
 62
3
 10
454.8575897055303
 20
127.4477413329828
 30
0
 11
454.8575897055303
 21
138.7484895446004
 31
0
  0
LINE
  8
1
 62
3
 10
415.8575897055303
 20
127.4477413329829
 30
0
 11
415.8575897055303
 21
138.7494828380908
 31
0
  0
LINE
  8
1
 62
3
 10
454.8575897055303
 20
123.8477413329838
 30
0
 11
454.8575897055303
 21
126.2477413329828
 31
0
  0
LINE
  8
1
 62
3
 10
415.8575897055303
 20
123.8477413329839
 30
0
 11
415.8575897055303
 21
126.247741332983
 31
0
  0
LINE
  8
1
 62
3
 10
440.2575897055304
 20
194.8377413329837
 30
0
 11
440.2575897055304
 21
193.4579354625625
 31
0
  0
LINE
  8
1
 62
3
 10
430.4575897055307
 20
194.8377413329837
 30
0
 11
430.4575897055307
 21
193.4579354625625
 31
0
  0
LINE
  8
1
 62
3
 10
430.4675897055307
 20
194.8477413329837
 30
0
 11
440.2475897055304
 21
194.8477413329837
 31
0
  0
LINE
  8
1
 62
3
 10
446.7575897055304
 20
131.5477413329835
 30
0
 11
449.7575897055304
 21
131.5477413329835
 31
0
  0
LINE
  8
1
 62
3
 10
446.7575897055304
 20
129.5477413329835
 30
0
 11
446.7575897055304
 21
131.5477413329835
 31
0
  0
LINE
  8
1
 62
3
 10
424.7575897055304
 20
129.5477413329836
 30
0
 11
446.7575897055304
 21
129.5477413329835
 31
0
  0
LINE
  8
1
 62
3
 10
424.7575897055304
 20
131.5477413329836
 30
0
 11
424.7575897055304
 21
129.5477413329836
 31
0
  0
LINE
  8
1
 62
3
 10
449.7575897055304
 20
121.8477413329838
 30
0
 11
421.7575897055304
 21
121.8477413329839
 31
0
  0
LINE
  8
1
 62
3
 10
449.7575897055304
 20
131.5477413329835
 30
0
 11
449.7575897055304
 21
121.8477413329838
 31
0
  0
LINE
  8
1
 62
3
 10
421.7575897055304
 20
131.5477413329836
 30
0
 11
424.7575897055304
 21
131.5477413329836
 31
0
  0
LINE
  8
1
 62
3
 10
421.7575897055304
 20
121.8477413329839
 30
0
 11
421.7575897055304
 21
131.5477413329836
 31
0
  0
LINE
  8
1
 62
3
 10
421.7575897055304
 20
122.8477413329829
 30
0
 11
416.8575897055314
 21
122.8477413329829
 31
0
  0
LINE
  8
1
 62
3
 10
449.7575897055304
 20
122.8477413329828
 30
0
 11
453.8575897055303
 21
122.8477413329828
 31
0
  0
LINE
  8
1
 62
3
 10
453.4829960542821
 20
125.9463092327018
 30
0
 11
453.043047707052
 21
126.3862575799318
 31
0
  0
LINE
  8
1
 62
3
 10
452.4321802614414
 20
125.9463092327018
 30
0
 11
452.8721286086714
 21
126.3862575799318
 31
0
  0
LINE
  8
1
 62
3
 10
453.8597425472981
 20
127.3738715185585
 30
0
 11
453.4197942000682
 21
126.9339231713287
 31
0
  0
LINE
  8
1
 62
3
 10
453.8597425472981
 20
126.3230557257181
 30
0
 11
453.4197942000682
 21
126.7630040729479
 31
0
  0
LINE
  8
1
 62
3
 10
452.8721286086714
 20
127.3106696643448
 30
0
 11
452.8677114448013
 21
127.3150868282151
 31
0
  0
LINE
  8
1
 62
3
 10
452.8677114448013
 20
127.3150868282151
 30
0
 11
452.4321802614414
 21
127.7506180115748
 31
0
  0
LINE
  8
1
 62
3
 10
453.4829960542821
 20
127.7506180115748
 30
0
 11
453.0430477070519
 21
127.3106696643448
 31
0
  0
LINE
  8
1
 62
3
 10
452.0554337684253
 20
126.3230557257181
 30
0
 11
452.4953821156552
 21
126.7630040729479
 31
0
  0
LINE
  8
1
 62
3
 10
452.0554337684253
 20
127.3738715185585
 30
0
 11
452.4953821156552
 21
126.9339231713287
 31
0
  0
LINE
  8
1
 62
3
 10
418.2829991496195
 20
125.9463092327019
 30
0
 11
417.8430508023897
 21
126.3862575799319
 31
0
  0
LINE
  8
1
 62
3
 10
417.232183356779
 20
125.9463092327019
 30
0
 11
417.672131704009
 21
126.3862575799319
 31
0
  0
LINE
  8
1
 62
3
 10
418.6597456426358
 20
127.3738715185586
 30
0
 11
418.2197972954057
 21
126.9339231713288
 31
0
  0
LINE
  8
1
 62
3
 10
418.6597456426358
 20
126.3230557257182
 30
0
 11
418.2197972954057
 21
126.763004072948
 31
0
  0
LINE
  8
1
 62
3
 10
417.672131704009
 20
127.3106696643449
 30
0
 11
417.6677145401387
 21
127.3150868282153
 31
0
  0
LINE
  8
1
 62
3
 10
417.6677145401387
 20
127.3150868282153
 30
0
 11
417.232183356779
 21
127.7506180115749
 31
0
  0
LINE
  8
1
 62
3
 10
418.2829991496195
 20
127.7506180115749
 30
0
 11
417.8430508023895
 21
127.3106696643449
 31
0
  0
LINE
  8
1
 62
3
 10
416.8554368637629
 20
126.3230557257182
 30
0
 11
417.2953852109927
 21
126.763004072948
 31
0
  0
LINE
  8
1
 62
3
 10
416.8554368637629
 20
127.3738715185586
 30
0
 11
417.2953852109927
 21
126.9339231713288
 31
0
  0
LINE
  8
1
 62
3
 10
416.1961518777633
 20
123.0977413329833
 30
0
 11
414.3575897055302
 21
123.0977413329833
 31
0
  0
LINE
  8
1
 62
1
 10
478.1075897055308
 20
162.8477413329837
 30
0
 11
392.6075897055301
 21
162.8477413329837
 31
0
  0
LINE
  8
1
 62
3
 10
422.0458724885392
 20
174.6204673326567
 30
0
 11
448.045872488539
 21
174.6204673326567
 31
0
  0
LINE
  8
1
 62
3
 10
421.0458724885392
 20
185.6204673326567
 30
0
 11
421.0458724885392
 21
175.6204673326567
 31
0
  0
LINE
  8
1
 62
3
 10
448.045872488539
 20
186.6204673326567
 30
0
 11
422.0458724885392
 21
186.6204673326567
 31
0
  0
LINE
  8
1
 62
3
 10
449.045872488539
 20
175.6204673326567
 30
0
 11
449.045872488539
 21
185.6204673326567
 31
0
  0
LINE
  8
1
 62
1
 10
435.358203478264
 20
118.8477413329839
 30
0
 11
435.358203478264
 21
205.597741332984
 31
0
  0
LINE
  8
1
 62
3
 10
300.4433336913502
 20
28.03336988345349
 30
0
 11
300.4433336913502
 21
45.53336988345377
 31
0
  0
LINE
  8
1
 62
3
 10
294.0430336913499
 20
22.28336988345389
 30
0
 11
295.5430336913499
 21
22.28336988345389
 31
0
  0
LINE
  8
1
 62
3
 10
294.0430336913499
 20
30.28336988345389
 30
0
 11
295.5430336913499
 21
30.28336988345389
 31
0
  0
LINE
  8
1
 62
3
 10
294.0430336913499
 20
33.53336988345338
 30
0
 11
295.5430336913499
 21
33.53336988345338
 31
0
  0
LINE
  8
1
 62
3
 10
294.0430336913499
 20
85.53336988345389
 30
0
 11
295.5430336913499
 21
85.53336988345389
 31
0
  0
LINE
  8
1
 62
3
 10
294.0430336913499
 20
88.78336988345389
 30
0
 11
295.5430336913499
 21
88.78336988345389
 31
0
  0
LINE
  8
1
 62
3
 10
294.0430336913499
 20
96.78336988345389
 30
0
 11
295.5430336913499
 21
96.78336988345389
 31
0
  0
LINE
  8
1
 62
3
 10
294.0430336913499
 20
97.53336988345389
 30
0
 11
294.0430336913499
 21
19.53336988345366
 31
0
  0
LINE
  8
1
 62
3
 10
295.5430336913499
 20
97.53336988345389
 30
0
 11
294.0430336913499
 21
97.53336988345389
 31
0
  0
LINE
  8
1
 62
3
 10
294.0430336913499
 20
99.53336988345406
 30
0
 11
294.0430336913499
 21
97.53336988345389
 31
0
  0
LINE
  8
1
 62
1
 10
337.94303369135
 20
59.53336988345377
 30
0
 11
265.266838262533
 21
59.53336988345377
 31
0
  0
LINE
  8
1
 62
3
 10
284.5430336913499
 20
93.03336988345366
 30
0
 11
284.5430336913499
 21
63.0333698834536
 31
0
  0
LINE
  8
1
 62
3
 10
284.5430336913499
 20
95.68336988345375
 30
0
 11
284.5430336913499
 21
93.03336988345366
 31
0
  0
LINE
  8
1
 62
3
 10
284.8930336913497
 20
96.03336988345366
 30
0
 11
287.5430336913499
 21
96.03336988345366
 31
0
  0
LINE
  8
1
 62
3
 10
284.5430336913499
 20
95.68336988345375
 30
0
 11
284.8930336913497
 21
96.03336988345366
 31
0
  0
LINE
  8
1
 62
3
 10
287.5430336913502
 20
99.53336988345428
 30
0
 11
287.5430336913499
 21
96.03336988345366
 31
0
  0
LINE
  8
1
 62
3
 10
284.5430336913499
 20
26.03336988345349
 30
0
 11
284.5430336913499
 21
23.38336988345357
 31
0
  0
LINE
  8
1
 62
3
 10
287.5430336913499
 20
23.03336988345366
 30
0
 11
284.8930336913497
 21
23.03336988345366
 31
0
  0
LINE
  8
1
 62
3
 10
284.5430336913499
 20
23.38336988345357
 30
0
 11
284.8930336913497
 21
23.03336988345366
 31
0
  0
LINE
  8
1
 62
3
 10
287.5430336913499
 20
23.03336988345366
 30
0
 11
287.5430336913499
 21
19.53336988345377
 31
0
  0
LINE
  8
1
 62
3
 10
287.5430336913499
 20
19.53336988345377
 30
0
 11
294.0430336913499
 21
19.53336988345366
 31
0
  0
LINE
  8
1
 62
3
 10
284.5430336913499
 20
63.0333698834536
 30
0
 11
284.5430336913499
 21
26.03336988345349
 31
0
  0
LINE
  8
1
 62
3
 10
295.5430336913499
 20
90.81073488637965
 30
0
 11
295.5430336913499
 21
97.53336988345389
 31
0
  0
LINE
  8
1
 62
3
 10
287.5430336913502
 20
99.53336988345428
 30
0
 11
294.0430336913499
 21
99.53336988345406
 31
0
  0
LINE
  8
1
 62
3
 10
287.5430336913499
 20
96.03336988345366
 30
0
 11
287.5430336913499
 21
23.03336988345366
 31
0
  0
LINE
  8
1
 62
3
 10
299.5430336913507
 20
92.03336988345377
 30
0
 11
299.5430336913507
 21
73.53336988345377
 31
0
  0
LINE
  8
1
 62
3
 10
299.5430336913507
 20
92.03336988345377
 30
0
 11
295.5430336913499
 21
92.03336988345366
 31
0
  0
LINE
  8
1
 62
3
 10
297.9554667883004
 20
44.03336988345377
 30
0
 11
297.1430336913499
 21
44.03336988345389
 31
0
  0
LINE
  8
1
 62
3
 10
297.1430336913499
 20
39.83336988345367
 30
0
 11
297.9554667883003
 21
39.83336988345378
 31
0
  0
LINE
  8
1
 62
3
 10
298.8430413262412
 20
42.29586988345359
 30
0
 11
298.6680413262413
 21
42.29586988345359
 31
0
  0
LINE
  8
1
 62
3
 10
298.6680413262413
 20
42.29586988345359
 30
0
 11
298.6680413262413
 21
41.57086988345368
 31
0
  0
LINE
  8
1
 62
3
 10
298.6680413262413
 20
41.57086988345368
 30
0
 11
298.8430413262412
 21
41.57086988345368
 31
0
  0
LINE
  8
1
 62
3
 10
332.5430336913502
 20
88.33336988345378
 30
0
 11
332.5430336913502
 21
65.53336988345377
 31
0
  0
LINE
  8
1
 62
3
 10
332.5430336913502
 20
59.53336988345377
 30
0
 11
332.5430336913502
 21
65.53336988345377
 31
0
  0
LINE
  8
1
 62
3
 10
332.5430336913502
 20
53.53336988345377
 30
0
 11
332.5430336913502
 21
30.73336988345388
 31
0
  0
LINE
  8
1
 62
3
 10
330.3430336913501
 20
28.53336988345377
 30
0
 11
302.1433336913503
 21
28.533369883454
 31
0
  0
LINE
  8
1
 62
3
 10
332.5430336913502
 20
53.53336988345377
 30
0
 11
332.5430336913502
 21
59.53336988345377
 31
0
  0
LINE
  8
1
 62
3
 10
332.94303369135
 20
55.23336988345399
 30
0
 11
332.94303369135
 21
53.83336988345378
 31
0
  0
LINE
  8
1
 62
3
 10
332.6430336913501
 20
65.53336988345417
 30
0
 11
332.5430336913502
 21
65.53336988345377
 31
0
  0
LINE
  8
1
 62
3
 10
332.94303369135
 20
65.23336988345399
 30
0
 11
332.94303369135
 21
63.83336988345378
 31
0
  0
LINE
  8
1
 62
3
 10
332.94303369135
 20
55.23336988345399
 30
0
 11
332.94303369135
 21
63.83336988345378
 31
0
  0
LINE
  8
1
 62
3
 10
332.6430336913501
 20
65.53336988345417
 30
0
 11
332.94303369135
 21
65.23336988345399
 31
0
  0
LINE
  8
1
 62
3
 10
332.94303369135
 20
53.83336988345378
 30
0
 11
332.6430336913501
 21
53.53336988345377
 31
0
  0
LINE
  8
1
 62
3
 10
332.9430336913501
 20
63.3333698834539
 30
0
 11
332.94303369135
 21
55.73336988345388
 31
0
  0
LINE
  8
1
 62
3
 10
332.5430336913502
 20
53.53336988345377
 30
0
 11
332.6430336913501
 21
53.53336988345377
 31
0
  0
LINE
  8
1
 62
3
 10
299.9430591349841
 20
30.13336988345397
 30
0
 11
300.4430591349841
 21
30.13336988345397
 31
0
  0
LINE
  8
1
 62
3
 10
299.9430591349841
 20
88.93336988345375
 30
0
 11
299.9430591349841
 21
73.53336988345377
 31
0
  0
LINE
  8
1
 62
3
 10
299.9430591349841
 20
30.13045339423918
 30
0
 11
299.9430591349841
 21
33.4833698834541
 31
0
  0
LINE
  8
1
 62
3
 10
302.1433336913503
 20
90.53336988345406
 30
0
 11
330.3430336913501
 21
90.53336988345377
 31
0
  0
LINE
  8
1
 62
3
 10
299.9430591349841
 20
88.93336988345375
 30
0
 11
300.4433336913502
 21
88.93336988345375
 31
0
  0
LINE
  8
1
 62
3
 10
300.4433336913502
 20
88.93336988345375
 30
0
 11
300.4433336913502
 21
91.033369883454
 31
0
  0
LINE
  8
1
 62
3
 10
300.4433336913502
 20
91.033369883454
 30
0
 11
301.6436082477164
 21
91.033369883454
 31
0
  0
LINE
  8
1
 62
3
 10
299.5430336913507
 20
45.53336988345377
 30
0
 11
299.5430336913507
 21
34.73341307371398
 31
0
  0
LINE
  8
1
 62
3
 10
299.9430591349841
 20
45.53336988345377
 30
0
 11
299.9430591349841
 21
33.4833698834541
 31
0
  0
LINE
  8
1
 62
3
 10
300.4433336913502
 20
73.53336988345377
 30
0
 11
300.4433336913502
 21
88.93336988345375
 31
0
  0
LINE
  8
1
 62
3
 10
301.8276085809764
 20
69.84199928644178
 30
0
 11
301.8276085809764
 21
73.53336988345377
 31
0
  0
LINE
  8
1
 62
3
 10
302.4430336913499
 20
69.84199928644178
 30
0
 11
301.8276085809764
 21
69.84199928644178
 31
0
  0
LINE
  8
1
 62
3
 10
302.4430336913499
 20
67.2247404804656
 30
0
 11
301.8276085809764
 21
67.2247404804656
 31
0
  0
LINE
  8
1
 62
3
 10
302.6430336913499
 20
70.03336988345377
 30
0
 11
302.6430336913499
 21
67.03336988345377
 31
0
  0
LINE
  8
1
 62
3
 10
302.6430336913499
 20
67.03336988345377
 30
0
 11
302.4430336913499
 21
67.2247404804656
 31
0
  0
LINE
  8
1
 62
3
 10
302.4430336913499
 20
69.84199928644178
 30
0
 11
302.6430336913499
 21
70.03336988345377
 31
0
  0
LINE
  8
1
 62
3
 10
301.8276085809764
 20
73.53336988345377
 30
0
 11
297.1430336913499
 21
73.53336988345377
 31
0
  0
LINE
  8
1
 62
3
 10
301.8276085809764
 20
51.84199928644195
 30
0
 11
301.8276085809764
 21
67.2247404804656
 31
0
  0
LINE
  8
1
 62
3
 10
301.8276085809764
 20
45.53336988345377
 30
0
 11
302.4430336913499
 21
45.53336988345377
 31
0
  0
LINE
  8
1
 62
3
 10
301.8276085809764
 20
49.22474048046577
 30
0
 11
301.8276085809764
 21
45.53336988345377
 31
0
  0
LINE
  8
1
 62
3
 10
302.4430336913499
 20
51.84199928644195
 30
0
 11
301.8276085809764
 21
51.84199928644195
 31
0
  0
LINE
  8
1
 62
3
 10
302.4430336913499
 20
49.22474048046577
 30
0
 11
301.8276085809764
 21
49.22474048046577
 31
0
  0
LINE
  8
1
 62
3
 10
297.1430336913499
 20
45.53336988345377
 30
0
 11
301.8276085809764
 21
45.53336988345377
 31
0
  0
LINE
  8
1
 62
3
 10
303.1430336913499
 20
45.53336988345377
 30
0
 11
303.1430336913499
 21
73.53336988345377
 31
0
  0
LINE
  8
1
 62
3
 10
303.1430336913499
 20
73.53336988345377
 30
0
 11
302.4430336913499
 21
73.53336988345377
 31
0
  0
LINE
  8
1
 62
3
 10
297.1430336913499
 20
73.53336988345377
 30
0
 11
297.1430336913499
 21
45.53336988345377
 31
0
  0
LINE
  8
1
 62
3
 10
302.4430336913499
 20
45.53336988345377
 30
0
 11
303.1430336913499
 21
45.53336988345377
 31
0
  0
LINE
  8
1
 62
3
 10
302.4430336913499
 20
73.53336988345377
 30
0
 11
301.8276085809764
 21
73.53336988345377
 31
0
  0
LINE
  8
1
 62
3
 10
302.6430336913499
 20
52.03336988345377
 30
0
 11
302.6430336913499
 21
49.03336988345377
 31
0
  0
LINE
  8
1
 62
3
 10
302.6430336913499
 20
49.03336988345377
 30
0
 11
302.4430336913499
 21
49.22474048046577
 31
0
  0
LINE
  8
1
 62
3
 10
302.4430336913499
 20
51.84199928644195
 30
0
 11
302.6430336913499
 21
52.03336988345377
 31
0
  0
LINE
  8
1
 62
3
 10
301.6436082477164
 20
28.03336988345349
 30
0
 11
300.4433336913502
 21
28.03336988345349
 31
0
  0
LINE
  8
1
 62
3
 10
297.1430336913499
 20
45.53336988345377
 30
0
 11
297.1430336913499
 21
40.03336988345377
 31
0
  0
LINE
  8
1
 62
3
 10
297.1430336913499
 20
40.03336988345377
 30
0
 11
295.5430336913499
 21
40.03336988345377
 31
0
  0
LINE
  8
1
 62
3
 10
295.5430336913499
 20
27.03336988345389
 30
0
 11
299.5430336913507
 21
27.03336988345377
 31
0
  0
LINE
  8
1
 62
3
 10
299.5430336913507
 20
38.22024524653058
 30
0
 11
299.5430336913507
 21
27.03336988345377
 31
0
  0
LINE
  8
1
 62
3
 10
297.1430336913499
 20
40.03336988345377
 30
0
 11
297.1430336913499
 21
39.83336988345367
 31
0
  0
LINE
  8
1
 62
3
 10
297.1430336913499
 20
75.03336988345366
 30
0
 11
297.9554667883004
 21
75.03336988345377
 31
0
  0
LINE
  8
1
 62
3
 10
297.9554667883003
 20
79.23336988345376
 30
0
 11
297.1430336913499
 21
79.23336988345388
 31
0
  0
LINE
  8
1
 62
3
 10
298.6680413262413
 20
76.77086988345396
 30
0
 11
298.8430413262412
 21
76.77086988345396
 31
0
  0
LINE
  8
1
 62
3
 10
298.6680413262413
 20
77.49586988345386
 30
0
 11
298.6680413262413
 21
76.77086988345396
 31
0
  0
LINE
  8
1
 62
3
 10
298.8430413262412
 20
77.49586988345386
 30
0
 11
298.6680413262413
 21
77.49586988345386
 31
0
  0
LINE
  8
1
 62
3
 10
297.1430336913499
 20
79.23336988345388
 30
0
 11
297.1430336913499
 21
79.03336988345377
 31
0
  0
LINE
  8
1
 62
3
 10
295.5430336913499
 20
79.03336988345377
 30
0
 11
297.1430336913499
 21
79.03336988345377
 31
0
  0
LINE
  8
1
 62
3
 10
297.1430336913499
 20
79.03336988345377
 30
0
 11
297.1430336913499
 21
73.53336988345377
 31
0
  0
LINE
  8
1
 62
3
 10
295.5430336913499
 20
21.53336988345377
 30
0
 11
295.5430336913499
 21
90.81073488637965
 31
0
  0
LINE
  8
1
 62
3
 10
295.5430336913499
 20
21.53336988345377
 30
0
 11
294.0430336913499
 21
21.53336988345377
 31
0
  0
LINE
  8
1
 62
3
 10
295.5430336913499
 20
79.83336988345377
 30
0
 11
299.5430336913507
 21
79.83336988345377
 31
0
  0
LINE
  8
1
 62
3
 10
295.5430336913499
 20
39.23336988345378
 30
0
 11
299.5430336913507
 21
39.23336988345378
 31
0
  0
LINE
  8
1
 62
3
 10
402.3582034782639
 20
202.8477413329838
 30
0
 11
468.3582034782639
 21
202.8477413329838
 31
0
  0
LINE
  8
1
 62
3
 10
468.3582034782639
 20
122.8477413329838
 30
0
 11
449.7575897055304
 21
122.8477413329828
 31
0
  0
LINE
  8
1
 62
3
 10
395.3582034782639
 20
129.8477413329838
 30
0
 11
395.3582034782639
 21
162.8477413329838
 31
0
  0
LINE
  8
1
 62
3
 10
475.3582034782639
 20
162.8477413329838
 30
0
 11
475.3582034782639
 21
195.8477413329838
 31
0
  0
LINE
  8
1
 62
3
 10
475.3582034782639
 20
129.8477413329838
 30
0
 11
475.3582034782639
 21
162.8477413329838
 31
0
  0
LINE
  8
1
 62
3
 10
395.3582034782639
 20
162.8477413329838
 30
0
 11
395.3582034782639
 21
195.8477413329838
 31
0
  0
LINE
  8
1
 62
3
 10
421.7575897055304
 20
122.8477413329829
 30
0
 11
402.3582034782639
 21
122.8477413329838
 31
0
  0
LINE
  8
1
 62
3
 10
275.5430336913499
 20
159.3477413329838
 30
0
 11
275.5430336913499
 21
166.3477413329838
 31
0
  0
LINE
  8
1
 62
3
 10
275.5430336913499
 20
166.3477413329838
 30
0
 11
284.5430336913499
 21
166.3477413329836
 31
0
  0
LINE
  8
1
 62
3
 10
275.5430336913499
 20
159.3477413329838
 30
0
 11
284.5430336913499
 21
159.3477413329838
 31
0
  0
LINE
  8
2
 62
1
  6
CENTER
 10
273.9975336913498
 20
165.7477413329838
 30
0
 11
284.4975336913498
 21
165.7477413329838
 31
0
  0
LINE
  8
2
 62
1
  6
CENTER
 10
273.9066336913499
 20
159.9477413329838
 30
0
 11
284.5430336913499
 21
159.9477413329838
 31
0
  0
LINE
  8
1
 62
2
 10
281.1844855756773
 20
159.3477413329838
 30
0
 11
277.1430336913499
 21
166.3477413329838
 31
0
  0
LINE
  8
1
 62
2
 10
282.1844855756773
 20
159.3477413329838
 30
0
 11
278.1430336913499
 21
166.3477413329838
 31
0
  0
LINE
  8
1
 62
2
 10
283.1844855756773
 20
159.3477413329838
 30
0
 11
279.1430336913499
 21
166.3477413329838
 31
0
  0
LINE
  8
1
 62
3
 10
275.5430336913499
 20
56.03336988345377
 30
0
 11
275.5430336913499
 21
63.03336988345377
 31
0
  0
LINE
  8
1
 62
3
 10
275.5430336913499
 20
63.03336988345377
 30
0
 11
284.5430336913499
 21
63.0333698834536
 31
0
  0
LINE
  8
1
 62
3
 10
275.5430336913499
 20
56.03336988345377
 30
0
 11
284.5430336913499
 21
56.03336988345377
 31
0
  0
LINE
  8
2
 62
1
  6
CENTER
 10
273.9975336913498
 20
62.43336988345375
 30
0
 11
284.4975336913498
 21
62.43336988345375
 31
0
  0
LINE
  8
2
 62
1
  6
CENTER
 10
273.9066336913499
 20
56.63336988345368
 30
0
 11
284.5430336913499
 21
56.63336988345368
 31
0
  0
LINE
  8
1
 62
2
 10
281.1844855756773
 20
56.03336988345377
 30
0
 11
277.1430336913499
 21
63.03336988345377
 31
0
  0
LINE
  8
1
 62
2
 10
282.1844855756773
 20
56.03336988345377
 30
0
 11
278.1430336913499
 21
63.03336988345377
 31
0
  0
LINE
  8
1
 62
2
 10
283.1844855756773
 20
56.03336988345377
 30
0
 11
279.1430336913499
 21
63.03336988345377
 31
0
  0
ARC
  8
1
 62
3
 10
166.9068513433588
 20
162.8477413329838
 30
0
 40
4.700000000000033
 50
318.1316937737067
 51
0
  0
ARC
  8
1
 62
3
 10
166.9068513433588
 20
162.8477413329838
 30
0
 40
4.699999999999903
 50
180
 51
221.8683062262925
  0
ARC
  8
1
 62
3
 10
166.8254823497052
 20
163.3416216593664
 30
0
 40
4.806808424543241
 50
354.1026806983087
 51
89.03005857679203
  0
ARC
  8
1
 62
3
 10
166.9882203370125
 20
163.3416216593664
 30
0
 40
4.806808424543289
 50
90.96994142320934
 51
185.8973193016913
  0
ARC
  8
1
 62
3
 10
294.0567490503769
 20
126.8484636221384
 30
0
 40
4.799999999999949
 50
342.4172239915731
 51
355.6688512692111
  0
ARC
  8
1
 62
3
 10
296.253833616913
 20
126.4984636221385
 30
0
 40
2.982960852905301
 50
37.1157559778604
 51
55.21831468208897
  0
ARC
  8
1
 62
3
 10
294.0567490503769
 20
126.8484636221384
 30
0
 40
4.79999999999981
 50
4.331148730787718
 51
17.58277600842575
  0
ARC
  8
1
 62
3
 10
296.2538336169132
 20
127.1984636221385
 30
0
 40
2.982960852905155
 50
304.7816853179064
 51
322.8842440221329
  0
ARC
  8
1
 62
3
 10
435.3575897055303
 20
162.8477413329838
 30
0
 40
32.5
 50
180
 51
228.2704652751674
  0
ARC
  8
1
 62
3
 10
435.3575897055303
 20
162.8477413329838
 30
0
 40
32.50000000000011
 50
313.3451802810879
 51
78.16773095150302
  0
ARC
  8
1
 62
3
 10
435.3575897055303
 20
162.8477413329838
 30
0
 40
32.5
 50
180
 51
228.2704652751674
  0
ARC
  8
1
 62
3
 10
435.3575897055303
 20
162.8477413329838
 30
0
 40
32.49999999999985
 50
101.832269048497
 51
180
  0
ARC
  8
1
 62
4
 10
435.3575897055303
 20
162.8477413329838
 30
0
 40
32.50000000000031
 50
210.0576211967898
 51
210.5882742142301
  0
ARC
  8
1
 62
3
 10
435.3575897055303
 20
162.8477413329838
 30
0
 40
32.50000000000031
 50
210.0576211967898
 51
210.5882742142301
  0
ARC
  8
1
 62
3
 10
452.9575881578615
 20
126.8484636221383
 30
0
 40
1.043999999999845
 50
210.2161982852563
 51
239.7838017147557
  0
ARC
  8
1
 62
3
 10
452.9575881578615
 20
126.8484636221383
 30
0
 40
0.457199999999875
 50
262.5415509437112
 51
277.4584490563524
  0
ARC
  8
1
 62
3
 10
452.9575881578615
 20
126.8484636221383
 30
0
 40
1.044000000000337
 50
300.2161982852686
 51
329.7838017147547
  0
ARC
  8
1
 62
3
 10
452.9575881578615
 20
126.8484636221383
 30
0
 40
0.4572000000004191
 50
352.5415509436841
 51
7.458449056315838
  0
ARC
  8
1
 62
3
 10
452.9575881578615
 20
126.8484636221383
 30
0
 40
1.044000000000196
 50
30.21619828524601
 51
59.78380171473143
  0
ARC
  8
1
 62
3
 10
452.9575881578615
 20
126.8484636221383
 30
0
 40
0.4571999999999414
 50
82.54155094364758
 51
97.45844905628884
  0
ARC
  8
1
 62
3
 10
452.9575881578615
 20
126.8484636221383
 30
0
 40
1.04400000000008
 50
120.2161982852443
 51
149.783801714743
  0
ARC
  8
1
 62
3
 10
452.9575881578615
 20
126.8484636221383
 30
0
 40
0.4571999999999119
 50
172.5415509436758
 51
187.4584490563242
  0
ARC
  8
1
 62
3
 10
417.757591253199
 20
126.8484636221384
 30
0
 40
1.043999999999747
 50
210.2161982852595
 51
239.7838017147607
  0
ARC
  8
1
 62
3
 10
417.757591253199
 20
126.8484636221384
 30
0
 40
0.4571999999998455
 50
262.5415509437394
 51
277.4584490563595
  0
ARC
  8
1
 62
3
 10
417.757591253199
 20
126.8484636221384
 30
0
 40
1.044000000000268
 50
300.2161982852635
 51
329.783801714761
  0
ARC
  8
1
 62
3
 10
417.757591253199
 20
126.8484636221384
 30
0
 40
0.4572000000001919
 50
352.5415509436822
 51
7.458449056319535
  0
ARC
  8
1
 62
3
 10
417.757591253199
 20
126.8484636221384
 30
0
 40
1.044000000000393
 50
30.21619828523973
 51
59.7838017147368
  0
ARC
  8
1
 62
3
 10
417.757591253199
 20
126.8484636221384
 30
0
 40
0.4571999999999489
 50
82.54155094364053
 51
97.45844905626058
  0
ARC
  8
1
 62
3
 10
417.757591253199
 20
126.8484636221384
 30
0
 40
1.044000000000023
 50
120.2161982852389
 51
149.7838017147399
  0
ARC
  8
1
 62
3
 10
417.757591253199
 20
126.8484636221384
 30
0
 40
0.4571999999999119
 50
172.5415509436758
 51
187.4584490563224
  0
ARC
  8
1
 62
3
 10
435.3575897055303
 20
162.8477413329838
 30
0
 40
6
 50
0
 51
15.63848843708385
  0
ARC
  8
1
 62
3
 10
435.3575897055303
 20
162.8477413329838
 30
0
 40
5.999999999999859
 50
164.3615115629157
 51
255.638488437084
  0
ARC
  8
1
 62
3
 10
440.5537421282371
 20
165.8477413329838
 30
0
 40
1.499999999999894
 50
292.8192442185368
 51
127.1807557814607
  0
ARC
  8
1
 62
3
 10
435.3575897055303
 20
156.8477413329838
 30
0
 40
1.499999999999942
 50
172.8192442185414
 51
7.180755781458561
  0
ARC
  8
1
 62
3
 10
435.3575897055303
 20
162.8477413329838
 30
0
 40
6.000000000000093
 50
44.3615115629181
 51
135.6384884370812
  0
ARC
  8
1
 62
3
 10
435.3575897055303
 20
162.8477413329838
 30
0
 40
5.999999999999986
 50
284.361511562916
 51
0
  0
ARC
  8
1
 62
3
 10
430.1614372828238
 20
165.8477413329838
 30
0
 40
1.500000000000171
 50
52.81924421854449
 51
247.1807557814593
  0
ARC
  8
1
 62
3
 10
294.0567490503769
 20
41.93336988345369
 30
0
 40
4.799999999999949
 50
342.4172239915731
 51
355.668851269211
  0
ARC
  8
1
 62
3
 10
296.2538336169131
 20
41.58336988345378
 30
0
 40
2.982960852905261
 50
37.11575597786117
 51
55.21831468208904
  0
ARC
  8
1
 62
3
 10
294.0567490503769
 20
41.93336988345369
 30
0
 40
4.79999999999981
 50
4.331148730787718
 51
17.58277600842559
  0
ARC
  8
1
 62
3
 10
296.2538336169133
 20
42.28336988345377
 30
0
 40
2.982960852905149
 50
304.7816853179065
 51
322.884244022132
  0
ARC
  8
1
 62
3
 10
294.0567490503769
 20
77.13336988345385
 30
0
 40
4.799999999999818
 50
4.331148730789072
 51
17.58277600842688
  0
ARC
  8
1
 62
3
 10
296.2538336169131
 20
77.48336988345376
 30
0
 40
2.982960852905305
 50
304.781685317911
 51
322.8842440221389
  0
ARC
  8
1
 62
3
 10
294.0567490503769
 20
77.13336988345385
 30
0
 40
4.799999999999915
 50
342.4172239915744
 51
355.6688512692123
  0
ARC
  8
1
 62
3
 10
296.2538336169133
 20
76.78336988345377
 30
0
 40
2.982960852905246
 50
37.11575597786805
 51
55.21831468209344
  0
CIRCLE
  8
1
 62
1
  6
DASHDOT
 10
166.9068513433588
 20
162.8477413329838
 30
0
 40
2.900000000000006
  0
CIRCLE
  8
1
 62
3
 10
166.9068513433588
 20
162.8477413329838
 30
0
 40
3.499999999999801
  0
CIRCLE
  8
1
 62
3
 10
200.1568513433588
 20
129.5977413329838
 30
0
 40
2.749999999999922
  0
CIRCLE
  8
1
 62
3
 10
133.6568513433588
 20
129.5977413329838
 30
0
 40
2.749999999999998
  0
CIRCLE
  8
1
 62
3
 10
200.1568513433588
 20
196.0977413329838
 30
0
 40
2.750000000000086
  0
CIRCLE
  8
1
 62
3
 10
133.6568513433588
 20
196.0977413329838
 30
0
 40
2.750000000000069
  0
CIRCLE
  8
1
 62
3
 10
166.9068513433588
 20
162.8477413329838
 30
0
 40
11
  0
CIRCLE
  8
1
 62
3
 10
166.9068513433588
 20
162.8477413329838
 30
0
 40
33.5
  0
CIRCLE
  8
1
 62
3
 10
166.9068513433588
 20
162.8477413329838
 30
0
 40
36.65000000000001
  0
CIRCLE
  8
1
 62
3
 10
166.9068513433588
 20
162.8477413329838
 30
0
 40
11.84999999999999
  0
CIRCLE
  8
1
 62
3
 10
402.1075897055302
 20
129.5977413329839
 30
0
 40
2.599999999999839
  0
CIRCLE
  8
1
 62
3
 10
402.1075897055302
 20
196.0977413329837
 30
0
 40
2.599999999999896
  0
CIRCLE
  8
1
 62
3
 10
468.6075897055303
 20
129.5977413329838
 30
0
 40
2.599999999999896
  0
CIRCLE
  8
1
 62
3
 10
468.6075897055303
 20
196.0977413329837
 30
0
 40
2.599999999999798
  0
CIRCLE
  8
1
 62
3
 10
468.6075897055303
 20
196.0977413329837
 30
0
 40
4.000000000000227
  0
CIRCLE
  8
1
 62
3
 10
468.6075897055303
 20
129.5977413329838
 30
0
 40
4.000000000000227
  0
CIRCLE
  8
1
 62
3
 10
402.1075897055302
 20
129.5977413329839
 30
0
 40
4
  0
CIRCLE
  8
1
 62
3
 10
402.1075897055302
 20
196.0977413329837
 30
0
 40
4
  0
CIRCLE
  8
1
 62
3
 10
452.9575881578615
 20
126.8484636221383
 30
0
 40
2.015999999999622
  0
CIRCLE
  8
1
 62
3
 10
417.757591253199
 20
126.8484636221384
 30
0
 40
2.015999999999679
  0
CIRCLE
  8
1
 62
3
 10
435.358203478264
 20
162.8477413329838
 30
0
 40
31
  0
CIRCLE
  8
1
 62
3
 10
435.358203478264
 20
162.8477413329838
 30
0
 40
5.999388762663936
  0
CIRCLE
  8
1
 62
3
 10
435.358203478264
 20
162.8477413329838
 30
0
 40
4
  0
CIRCLE
  8
1
 62
3
 10
300.0131414639286
 20
72.03336988345377
 30
0
 40
0.3499999999997954
  0
CIRCLE
  8
1
 62
3
 10
300.0131414639286
 20
47.03336988345377
 30
0
 40
0.3499999999996817
  0
CIRCLE
  8
1
 62
3
 10
300.0131414639286
 20
59.53336988345377
 30
0
 40
0.3499999999996817
  0
CIRCLE
  8
1
 62
3
 10
300.0131414639286
 20
57.03336988345377
 30
0
 40
0.3499999999996817
  0
CIRCLE
  8
1
 62
3
 10
300.0131414639286
 20
54.53336988345377
 30
0
 40
0.3499999999996817
  0
CIRCLE
  8
1
 62
3
 10
300.0131414639286
 20
52.03336988345377
 30
0
 40
0.3499999999996817
  0
CIRCLE
  8
1
 62
3
 10
300.0131414639286
 20
49.53336988345377
 30
0
 40
0.3499999999996817
  0
CIRCLE
  8
1
 62
3
 10
300.0131414639286
 20
62.03336988345377
 30
0
 40
0.3499999999996817
  0
CIRCLE
  8
1
 62
3
 10
300.0131414639286
 20
64.53336988345377
 30
0
 40
0.3499999999996817
  0
CIRCLE
  8
1
 62
3
 10
300.0131414639286
 20
67.03336988345377
 30
0
 40
0.3499999999996817
  0
CIRCLE
  8
1
 62
3
 10
300.0131414639286
 20
69.53336988345377
 30
0
 40
0.3499999999997954
  0
POLYLINE
  8
1
 62
3
 66
1
  0
VERTEX
  8
1
 10
264.0847958265415
 20
287.1784025515191
 30
0
 42
-0.001154420490582639
  0
VERTEX
  8
1
 10
263.3532041756857
 20
287.2570175761632
 30
0
 42
-0.003468734100016332
  0
VERTEX
  8
1
 10
262.622947107731
 20
287.3423237231866
 30
0
 42
-0.005796547176478765
  0
VERTEX
  8
1
 10
261.8953592055783
 20
287.4410121149685
 30
0
 42
-0.008136977558752933
  0
VERTEX
  8
1
 10
261.1717750521286
 20
287.5597738738886
 30
0
 42
-0.01756846700870852
  0
VERTEX
  8
1
 10
259.9756218646523
 20
287.8197956485821
 30
0
 42
-0.003142605946858616
  0
VERTEX
  8
1
 10
259.4995108118449
 20
287.9433503313052
 30
0
 42
-5.559773165658568e-005
  0
VERTEX
  8
1
 10
259.0239960728254
 20
288.0700008886287
 30
0
 42
0.003030683839579865
  0
VERTEX
  8
1
 10
258.547877648559
 20
288.1937840386858
 30
0
 42
0.006125008534268436
  0
VERTEX
  8
1
 10
258.0699555400103
 20
288.3087364996098
 30
0
 42
0.009595418813426342
  0
VERTEX
  8
1
 10
257.4216374234101
 20
288.443265967395
 30
0
 42
0.003443420274575383
  0
VERTEX
  8
1
 10
256.7697427777175
 20
288.5608975684607
 30
0
 42
0.001921277061772693
  0
VERTEX
  8
1
 10
256.1161515465915
 20
288.6716080733624
 30
0
 42
-0.00305980764159986
  0
VERTEX
  8
1
 10
255.4627436736911
 20
288.7853742526553
 30
0
 42
-0.00688043413178926
  0
VERTEX
  8
1
 10
254.8113991026753
 20
288.9121728768947
 30
0
 42
-0.00568394669513782
  0
VERTEX
  8
1
 10
254.2258753230569
 20
289.0432095252286
 30
0
 42
-0.001199148558291188
  0
VERTEX
  8
1
 10
253.6420079733052
 20
289.1823384621893
 30
0
 42
0.003285732452804951
  0
VERTEX
  8
1
 10
253.05823587038
 20
289.3188768968497
 30
0
 42
0.007799462787616488
  0
VERTEX
  8
1
 10
252.4729978312407
 20
289.4421420382831
 30
0
 42
0.01237618344509199
  0
VERTEX
  8
1
 10
251.8847326728472
 20
289.5414510955624
 30
0
 42
0.01495152526749212
  0
VERTEX
  8
1
 10
251.2698101224554
 20
289.6109780616825
 30
0
 42
0.009328849676459507
  0
VERTEX
  8
1
 10
250.650934133844
 20
289.6506589880617
 30
0
 42
0.008782865383048375
  0
VERTEX
  8
1
 10
250.0290930665679
 20
289.667955384635
 30
0
 42
0.003218905574696092
  0
VERTEX
  8
1
 10
249.405275280182
 20
289.6703287613379
 30
0
 42
0.002755082482923868
  0
VERTEX
  8
1
 10
248.7804691342413
 20
289.6652406281056
 30
0
  0
SEQEND
  8
1
  0
POLYLINE
  8
1
 62
3
 66
1
  0
VERTEX
  8
1
 10
265.1069160778123
 20
286.077584524841
 30
0
 42
-7.052380709833438e-005
  0
VERTEX
  8
1
 10
264.8164157153507
 20
286.1009598030873
 30
0
 42
-0.0002115044987188317
  0
VERTEX
  8
1
 10
264.525882630672
 20
286.1245026730674
 30
0
 42
-0.0003522839051001569
  0
VERTEX
  8
1
 10
264.2352841015594
 20
286.1483807265147
 30
0
 42
-0.0004927261341891312
  0
VERTEX
  8
1
 10
263.9445874057956
 20
286.1727615551632
 30
0
 42
-0.0006326927685116452
  0
VERTEX
  8
1
 10
263.6537598211638
 20
286.1978127507463
 30
0
 42
-0.002829224898401648
  0
VERTEX
  8
1
 10
262.9841499116876
 20
286.2596508470633
 30
0
 42
-0.00526217755518512
  0
VERTEX
  8
1
 10
262.3154633226665
 20
286.3323307201921
 30
0
 42
-0.007717915863655668
  0
VERTEX
  8
1
 10
261.6494899017497
 20
286.4222560981822
 30
0
 42
-0.01019790816424371
  0
VERTEX
  8
1
 10
260.9880194965865
 20
286.5358307090826
 30
0
 42
-0.02165487244662772
  0
VERTEX
  8
1
 10
259.8671397401765
 20
286.8028061373207
 30
0
 42
-0.003174607387957121
  0
VERTEX
  8
1
 10
259.4037827709756
 20
286.9363845691775
 30
0
 42
0.00134173671070548
  0
VERTEX
  8
1
 10
258.9409539038452
 20
287.0716498924602
 30
0
 42
0.005867617843850162
  0
VERTEX
  8
1
 10
258.4768359954069
 20
287.2000584231158
 30
0
 42
0.01043616403250844
  0
VERTEX
  8
1
 10
258.0096119022822
 20
287.313066477091
 30
0
 42
0.01572676402649991
  0
VERTEX
  8
1
 10
257.3684737516628
 20
287.4330430062515
 30
0
 42
0.004938296709476726
  0
VERTEX
  8
1
 10
256.7216647990756
 20
287.5266104947852
 30
0
 42
0.001884020282745099
  0
VERTEX
  8
1
 10
256.072586459951
 20
287.6114818108079
 30
0
 42
-0.006909369922461679
  0
VERTEX
  8
1
 10
255.4246401497196
 20
287.7053698224352
 30
0
 42
-0.01379629701620237
  0
VERTEX
  8
1
 10
254.7812272838114
 20
287.825987397783
 30
0
 42
-0.01224550147358129
  0
VERTEX
  8
1
 10
254.1812900793967
 20
287.9742865647794
 30
0
 42
-0.004376625229323565
  0
VERTEX
  8
1
 10
253.5855082298029
 20
288.1427331375267
 30
0
 42
0.003443735131175203
  0
VERTEX
  8
1
 10
252.990993975661
 20
288.3120266761881
 30
0
 42
0.01135075693035841
  0
VERTEX
  8
1
 10
252.3948595576012
 20
288.4628667409272
 30
0
 42
0.01951810480743088
  0
VERTEX
  8
1
 10
251.7942172162544
 20
288.5759528919074
 30
0
 42
0.02289053426957418
  0
VERTEX
  8
1
 10
251.1999668923316
 20
288.6363527288903
 30
0
 42
0.01385585263748777
  0
VERTEX
  8
1
 10
250.6000503734223
 20
288.6530404290335
 30
0
 42
0.01336861782344609
  0
VERTEX
  8
1
 10
249.995884208273
 20
288.6369440265468
 30
0
 42
0.004535915093922793
  0
VERTEX
  8
1
 10
249.3888849456305
 20
288.5989915556403
 30
0
 42
0.004326632835681251
  0
VERTEX
  8
1
 10
248.7804691342413
 20
288.5501110505239
 30
0
  0
SEQEND
  8
1
  0
POLYLINE
  8
1
 62
3
 66
1
  0
VERTEX
  8
1
 10
248.7804691342413
 20
299.577584524841
 30
0
 42
-0.001607743817705111
  0
VERTEX
  8
1
 10
249.6885980531766
 20
299.5739191119932
 30
0
 42
-0.004839459238478431
  0
VERTEX
  8
1
 10
250.5950808654898
 20
299.5585798442416
 30
0
 42
-0.008112118624322534
  0
VERTEX
  8
1
 10
251.4982714645584
 20
299.5198928666827
 30
0
 42
-0.01142630948600124
  0
VERTEX
  8
1
 10
252.3965237437604
 20
299.4461843244126
 30
0
 42
-0.01474034783442742
  0
VERTEX
  8
1
 10
253.2881915964736
 20
299.3257803625278
 30
0
 42
-0.01091907975213511
  0
VERTEX
  8
1
 10
253.9023266620775
 20
299.2096264218642
 30
0
 42
-0.01003733773323401
  0
VERTEX
  8
1
 10
254.5121860797577
 20
299.0675799290568
 30
0
 42
-0.00916721934815126
  0
VERTEX
  8
1
 10
255.1174585443014
 20
298.901862647868
 30
0
 42
-0.008316733795416495
  0
VERTEX
  8
1
 10
255.7178327504956
 20
298.7146963420599
 30
0
 42
-0.02049271564582928
  0
VERTEX
  8
1
 10
257.3315819471403
 20
298.1076231297461
 30
0
 42
-0.01613454575085513
  0
VERTEX
  8
1
 10
258.3239251778699
 20
297.6475823821462
 30
0
 42
-0.01882779289648414
  0
VERTEX
  8
1
 10
259.2804239954172
 20
297.1200688699971
 30
0
 42
-0.02154182287537021
  0
VERTEX
  8
1
 10
260.1914753098832
 20
296.5169709307002
 30
0
 42
-0.02412403713680736
  0
VERTEX
  8
1
 10
261.0474760313692
 20
295.8301769016572
 30
0
 42
-0.01837071847584921
  0
VERTEX
  8
1
 10
261.8650610566833
 20
295.0422242430411
 30
0
 42
-0.003824838418918461
  0
VERTEX
  8
1
 10
262.6503490539446
 20
294.2154380402217
 30
0
 42
0.01068385427305359
  0
VERTEX
  8
1
 10
263.4389195311366
 20
293.4073689290286
 30
0
 42
0.02605597401748701
  0
VERTEX
  8
1
 10
264.2663519962426
 20
292.6755675452918
 30
0
 42
0.04330280254893169
  0
VERTEX
  8
1
 10
265.1682259572463
 20
292.077584524841
 30
0
 42
0.03453843384911981
  0
VERTEX
  8
1
 10
265.8309650385885
 20
291.7737265595941
 30
0
 42
0.01926728948012788
  0
VERTEX
  8
1
 10
266.5335104893019
 20
291.5391072378451
 30
0
 42
0.01966704674595975
  0
VERTEX
  8
1
 10
267.2659107170438
 20
291.3564168987195
 30
0
 42
0.005391877216816413
  0
VERTEX
  8
1
 10
268.0182141294713
 20
291.208345881343
 30
0
 42
0.006832092944499965
  0
VERTEX
  8
1
 10
268.7804691342416
 20
291.077584524841
 30
0
  0
SEQEND
  8
1
  0
POLYLINE
  8
1
 62
3
 66
1
  0
VERTEX
  8
1
 10
248.7804691342413
 20
298.577584524841
 30
0
 42
-0.001607743817892962
  0
VERTEX
  8
1
 10
249.6885980531766
 20
298.5739191119931
 30
0
 42
-0.004839459238541271
  0
VERTEX
  8
1
 10
250.5950808654898
 20
298.5585798442416
 30
0
 42
-0.008112118624322534
  0
VERTEX
  8
1
 10
251.4982714645584
 20
298.5198928666827
 30
0
 42
-0.01142630948600124
  0
VERTEX
  8
1
 10
252.3965237437604
 20
298.4461843244126
 30
0
 42
-0.01474034783455291
  0
VERTEX
  8
1
 10
253.2881915964736
 20
298.3257803625278
 30
0
 42
-0.01091907975213511
  0
VERTEX
  8
1
 10
253.9023266620775
 20
298.2096264218642
 30
0
 42
-0.01003733773341078
  0
VERTEX
  8
1
 10
254.5121860797577
 20
298.0675799290568
 30
0
 42
-0.00916721934815126
  0
VERTEX
  8
1
 10
255.1174585443014
 20
297.901862647868
 30
0
 42
-0.008316733795589257
  0
VERTEX
  8
1
 10
255.7178327504956
 20
297.7146963420599
 30
0
 42
-0.02049271564582928
  0
VERTEX
  8
1
 10
257.3315819471403
 20
297.1076231297461
 30
0
 42
-0.01613454575094952
  0
VERTEX
  8
1
 10
258.3239251778699
 20
296.6475823821462
 30
0
 42
-0.01882779289652856
  0
VERTEX
  8
1
 10
259.2804239954172
 20
296.120068869997
 30
0
 42
-0.02154182287541531
  0
VERTEX
  8
1
 10
260.1914753098832
 20
295.5169709307002
 30
0
 42
-0.02412403713680736
  0
VERTEX
  8
1
 10
261.0474760313692
 20
294.8301769016572
 30
0
 42
-0.01837071847584921
  0
VERTEX
  8
1
 10
261.8650610566833
 20
294.0422242430411
 30
0
 42
-0.003824838418988851
  0
VERTEX
  8
1
 10
262.6503490539446
 20
293.2154380402216
 30
0
 42
0.01068385427301826
  0
VERTEX
  8
1
 10
263.4389195311365
 20
292.4073689290286
 30
0
 42
0.02605597401748563
  0
VERTEX
  8
1
 10
264.2663519962426
 20
291.6755675452918
 30
0
 42
0.04330280254898845
  0
VERTEX
  8
1
 10
265.1682259572463
 20
291.077584524841
 30
0
 42
0.0345384338489752
  0
VERTEX
  8
1
 10
265.8309650385884
 20
290.773726559594
 30
0
 42
0.01926728948034867
  0
VERTEX
  8
1
 10
266.5335104893018
 20
290.5391072378451
 30
0
 42
0.01966704674571585
  0
VERTEX
  8
1
 10
267.2659107170437
 20
290.3564168987195
 30
0
 42
0.005391877217046901
  0
VERTEX
  8
1
 10
268.0182141294711
 20
290.208345881343
 30
0
 42
0.006832092944271137
  0
VERTEX
  8
1
 10
268.7804691342413
 20
290.077584524841
 30
0
  0
SEQEND
  8
1
  0
POLYLINE
  8
1
 62
3
 66
1
  0
VERTEX
  8
1
 10
248.7804691342413
 20
297.077584524841
 30
0
 42
-0.001902789264338385
  0
VERTEX
  8
1
 10
249.522534969919
 20
297.123378885206
 30
0
 42
-0.005745277525818377
  0
VERTEX
  8
1
 10
250.2628245928784
 20
297.1577246554797
 30
0
 42
-0.009686512557381987
  0
VERTEX
  8
1
 10
250.9995617904013
 20
297.169173245571
 30
0
 42
-0.01374928444268945
  0
VERTEX
  8
1
 10
251.7309703497694
 20
297.1462760653885
 30
0
 42
-0.01788295130655689
  0
VERTEX
  8
1
 10
252.4552740582644
 20
297.077584524841
 30
0
 42
-0.01866086244708059
  0
VERTEX
  8
1
 10
253.2152305785326
 20
296.9465777428721
 30
0
 42
-0.0135331706971704
  0
VERTEX
  8
1
 10
253.9686978404391
 20
296.766078892244
 30
0
 42
-0.008418840653978023
  0
VERTEX
  8
1
 10
254.7191916226642
 20
296.5510834326004
 30
0
 42
-0.003422876774871869
  0
VERTEX
  8
1
 10
255.4702277038879
 20
296.3165868235848
 30
0
 42
0.001454396476879094
  0
VERTEX
  8
1
 10
256.2253218627905
 20
296.077584524841
 30
0
 42
0.002341100075046856
  0
VERTEX
  8
1
 10
257.0687000257966
 20
295.8176652962517
 30
0
 42
-0.008094591874646158
  0
VERTEX
  8
1
 10
257.9053578332994
 20
295.5452769280237
 30
0
 42
-0.01670365432651953
  0
VERTEX
  8
1
 10
258.719250222336
 20
295.2350355867165
 30
0
 42
-0.02578314228303246
  0
VERTEX
  8
1
 10
259.4943321299439
 20
294.8615574388898
 30
0
 42
-0.07276438933752406
  0
VERTEX
  8
1
 10
260.9288625907386
 20
293.7791245002151
 30
0
 42
-0.01438878185774638
  0
VERTEX
  8
1
 10
261.5932717803891
 20
293.0827089460877
 30
0
 42
0.002813176268208548
  0
VERTEX
  8
1
 10
262.2424634895679
 20
292.3701184834627
 30
0
 42
0.02037324986599587
  0
VERTEX
  8
1
 10
262.911115145731
 20
291.7012596070818
 30
0
 42
0.04059420823334026
  0
VERTEX
  8
1
 10
263.6339041763345
 20
291.1360388116867
 30
0
 42
0.05710425916621805
  0
VERTEX
  8
1
 10
264.5315206865138
 20
290.6818405713613
 30
0
 42
0.03290429397071414
  0
VERTEX
  8
1
 10
265.5169348509612
 20
290.3893139196733
 30
0
 42
0.03065123788465341
  0
VERTEX
  8
1
 10
266.5681972561096
 20
290.2180409594636
 30
0
 42
0.00891376750731593
  0
VERTEX
  8
1
 10
267.6633584883919
 20
290.1276037935726
 30
0
 42
0.009909907619944968
  0
VERTEX
  8
1
 10
268.7804691342413
 20
290.077584524841
 30
0
  0
SEQEND
  8
1
  0
POLYLINE
  8
1
 62
3
 66
1
  0
VERTEX
  8
1
 10
248.7804691342413
 20
296.077584524841
 30
0
 42
-0.001829921716633723
  0
VERTEX
  8
1
 10
249.5216841805685
 20
296.1215112899542
 30
0
 42
-0.005521412245361751
  0
VERTEX
  8
1
 10
250.2613357115151
 20
296.1544563637891
 30
0
 42
-0.009297014988872783
  0
VERTEX
  8
1
 10
250.9978602117004
 20
296.1654380550674
 30
0
 42
-0.01317426561348423
  0
VERTEX
  8
1
 10
251.7296941657438
 20
296.1434746725108
 30
0
 42
-0.01710602726132901
  0
VERTEX
  8
1
 10
252.4552740582644
 20
296.077584524841
 30
0
 42
-0.01816776250877933
  0
VERTEX
  8
1
 10
253.217515856879
 20
295.951594231368
 30
0
 42
-0.01395037294192753
  0
VERTEX
  8
1
 10
253.9732961174913
 20
295.7761727190941
 30
0
 42
-0.009739958315090615
  0
VERTEX
  8
1
 10
254.7249602592488
 20
295.5637463535568
 30
0
 42
-0.005623898474787032
  0
VERTEX
  8
1
 10
255.4748537012993
 20
295.3267415002933
 30
0
 42
-0.001607917713801646
  0
VERTEX
  8
1
 10
256.2253218627905
 20
295.077584524841
 30
0
 42
-0.003035046829988535
  0
VERTEX
  8
1
 10
257.0726009380572
 20
294.7909547257257
 30
0
 42
-0.01003263971663231
  0
VERTEX
  8
1
 10
257.9093800915113
 20
294.4833442836064
 30
0
 42
-0.01731546574565142
  0
VERTEX
  8
1
 10
258.721443370369
 20
294.1334235662971
 30
0
 42
-0.02487359489828466
  0
VERTEX
  8
1
 10
259.4945748218466
 20
293.7198629416122
 30
0
 42
-0.03223808317310111
  0
VERTEX
  8
1
 10
260.2145584931603
 20
293.2213327773658
 30
0
 42
-0.02888700042264233
  0
VERTEX
  8
1
 10
260.9205137993216
 20
292.5814603188544
 30
0
 42
-0.01142416437677697
  0
VERTEX
  8
1
 10
261.5821402155718
 20
291.8774244490704
 30
0
 42
0.005159818166359205
  0
VERTEX
  8
1
 10
262.2327235470589
 20
291.1675368251373
 30
0
 42
0.0224131747066317
  0
VERTEX
  8
1
 10
262.9055495989306
 20
290.5101091041782
 30
0
 42
0.0426059724395335
  0
VERTEX
  8
1
 10
263.6339041763345
 20
289.9634529433166
 30
0
 42
0.05849288245862312
  0
VERTEX
  8
1
 10
264.5329114068779
 20
289.5382053606238
 30
0
 42
0.03363910028914994
  0
VERTEX
  8
1
 10
265.51878914478
 20
289.2783403772627
 30
0
 42
0.03098575730256611
  0
VERTEX
  8
1
 10
266.569819763201
 20
289.1425123434005
 30
0
 42
0.009028684574866611
  0
VERTEX
  8
1
 10
267.6642856353013
 20
289.0893756092043
 30
0
 42
0.00994635345627236
  0
VERTEX
  8
1
 10
268.7804691342413
 20
289.077584524841
 30
0
  0
SEQEND
  8
1
  0
POLYLINE
  8
1
 62
3
 66
1
  0
VERTEX
  8
1
 10
248.7804691342413
 20
294.577584524841
 30
0
 42
-0.001399310508317973
  0
VERTEX
  8
1
 10
249.4126486239467
 20
294.5977334118871
 30
0
 42
-0.004208486187092084
  0
VERTEX
  8
1
 10
250.0442208283255
 20
294.6107788314867
 30
0
 42
-0.007044180568926539
  0
VERTEX
  8
1
 10
250.6745784620512
 20
294.6096173161935
 30
0
 42
-0.00990647577270613
  0
VERTEX
  8
1
 10
251.3031142397974
 20
294.587145398561
 30
0
 42
-0.01276798874528097
  0
VERTEX
  8
1
 10
251.9292208762374
 20
294.5362596111428
 30
0
 42
-0.01604707638830645
  0
VERTEX
  8
1
 10
252.6797071048829
 20
294.4302140130133
 30
0
 42
-0.01397860901105217
  0
VERTEX
  8
1
 10
253.4244849874509
 20
294.2789233296885
 30
0
 42
-0.01197752447272389
  0
VERTEX
  8
1
 10
254.1622569831149
 20
294.0887360352846
 30
0
 42
-0.0100652744520779
  0
VERTEX
  8
1
 10
254.8917255510486
 20
293.8660006039177
 30
0
 42
-0.008241774927326391
  0
VERTEX
  8
1
 10
255.6115931504254
 20
293.6170655097038
 30
0
 42
-0.00383855397404645
  0
VERTEX
  8
1
 10
256.077738594181
 20
293.4431146527047
 30
0
 42
-0.001856704054576522
  0
VERTEX
  8
1
 10
256.5411791926245
 20
293.2641297381005
 30
0
 42
0.0001371936479661621
  0
VERTEX
  8
1
 10
257.0038872245854
 20
293.0835958984606
 30
0
 42
0.002130188905843544
  0
VERTEX
  8
1
 10
257.4678349688931
 20
292.9049982663542
 30
0
 42
0.004105463468020138
  0
VERTEX
  8
1
 10
257.9349947043771
 20
292.7318219743505
 30
0
 42
0.004136423690088302
  0
VERTEX
  8
1
 10
258.5137596170598
 20
292.5280598436425
 30
0
 42
-0.004610467601049374
  0
VERTEX
  8
1
 10
259.092020244928
 20
292.3218663907427
 30
0
 42
-0.0119034357435285
  0
VERTEX
  8
1
 10
259.6614601135361
 20
292.0973891071812
 30
0
 42
-0.01931776423043938
  0
VERTEX
  8
1
 10
260.2137627484379
 20
291.8387754844881
 30
0
 42
-0.02658956512584931
  0
VERTEX
  8
1
 10
260.7406116751873
 20
291.5301730141933
 30
0
 42
-0.02465029267624172
  0
VERTEX
  8
1
 10
261.2989328556091
 20
291.1138320221981
 30
0
 42
-0.007303506873258127
  0
VERTEX
  8
1
 10
261.8351066062614
 20
290.6583018564122
 30
0
 42
0.009583372171453945
  0
VERTEX
  8
1
 10
262.3698808928868
 20
290.20802602704
 30
0
 42
0.02737041927777854
  0
VERTEX
  8
1
 10
262.9240036812273
 20
289.8074480442861
 30
0
 42
0.04757618206183667
  0
VERTEX
  8
1
 10
263.5182229370251
 20
289.5010114183548
 30
0
 42
0.03703160076204641
  0
VERTEX
  8
1
 10
263.9323292447652
 20
289.369723173506
 30
0
 42
0.01980714861963438
  0
VERTEX
  8
1
 10
264.3659842740183
 20
289.2848030714471
 30
0
 42
0.02086257844033677
  0
VERTEX
  8
1
 10
264.8132116665001
 20
289.2344809898293
 30
0
 42
0.004976522058763556
  0
VERTEX
  8
1
 10
265.2680350639265
 20
289.2069868063035
 30
0
 42
0.00721492084089802
  0
VERTEX
  8
1
 10
265.7244781080129
 20
289.1905503985212
 30
0
 42
-0.0005860077343039358
  0
VERTEX
  8
1
 10
266.3455257189231
 20
289.1695676564455
 30
0
 42
-0.0004655068747480422
  0
VERTEX
  8
1
 10
266.9600070593903
 20
289.1475112925963
 30
0
 42
-0.0003378585556233588
  0
VERTEX
  8
1
 10
267.5695636970252
 20
289.1246497124168
 30
0
 42
-0.0002048992797254392
  0
VERTEX
  8
1
 10
268.1758371994386
 20
289.1012513213506
 30
0
 42
-6.866814284347018e-005
  0
VERTEX
  8
1
 10
268.7804691342413
 20
289.077584524841
 30
0
  0
SEQEND
  8
1
  0
POLYLINE
  8
1
 62
3
 66
1
  0
VERTEX
  8
1
 10
248.7804691342413
 20
293.577584524841
 30
0
 42
-0.001437466414930274
  0
VERTEX
  8
1
 10
249.4130536639682
 20
293.5985435957538
 30
0
 42
-0.004324802430617409
  0
VERTEX
  8
1
 10
250.0449296483632
 20
293.6121966532534
 30
0
 42
-0.007243808653308323
  0
VERTEX
  8
1
 10
250.6753885420943
 20
293.6112376839269
 30
0
 42
-0.01019656978470532
  0
VERTEX
  8
1
 10
251.3037217998297
 20
293.5883606743611
 30
0
 42
-0.01315520811112172
  0
VERTEX
  8
1
 10
251.9292208762374
 20
293.5362596111428
 30
0
 42
-0.01633930251819272
  0
VERTEX
  8
1
 10
252.678436568301
 20
293.4276726141738
 30
0
 42
-0.01378166540675964
  0
VERTEX
  8
1
 10
253.4218938150593
 20
293.2737403207119
 30
0
 42
-0.01127931597960655
  0
VERTEX
  8
1
 10
254.1589804432044
 20
293.0821821155905
 30
0
 42
-0.008860671032433817
  0
VERTEX
  8
1
 10
254.889084279429
 20
292.8607173836433
 30
0
 42
-0.006521860467557694
  0
VERTEX
  8
1
 10
255.6115931504254
 20
292.6170655097038
 30
0
 42
-0.003263998879744103
  0
VERTEX
  8
1
 10
256.0806361320592
 20
292.4489104711848
 30
0
 42
-0.002743206220098414
  0
VERTEX
  8
1
 10
256.546827388372
 20
292.2754275773932
 30
0
 42
-0.002214346597150671
  0
VERTEX
  8
1
 10
257.010837309263
 20
292.0974978493257
 30
0
 42
-0.00168003863385322
  0
VERTEX
  8
1
 10
257.4733362846316
 20
291.9160023079792
 30
0
 42
-0.001142648290379815
  0
VERTEX
  8
1
 10
257.9349947043771
 20
291.7318219743505
 30
0
 42
-0.003025283605865008
  0
VERTEX
  8
1
 10
258.5144046315918
 20
291.496035884731
 30
0
 42
-0.006884513991943392
  0
VERTEX
  8
1
 10
259.0891083853302
 20
291.2487814380087
 30
0
 42
-0.01075366762055367
  0
VERTEX
  8
1
 10
259.6546688725424
 20
290.9814425527067
 30
0
 42
-0.01459082984936691
  0
VERTEX
  8
1
 10
260.2066490001781
 20
290.685403147348
 30
0
 42
-0.01827915716370226
  0
VERTEX
  8
1
 10
260.7406116751873
 20
290.3520471404557
 30
0
 42
-0.01457721295487806
  0
VERTEX
  8
1
 10
261.2891005309259
 20
289.9525779089227
 30
0
 42
-0.001460479569374564
  0
VERTEX
  8
1
 10
261.8265513378088
 20
289.5342480786588
 30
0
 42
0.0117048116221421
  0
VERTEX
  8
1
 10
262.3675188430062
 20
289.1305492919514
 30
0
 42
0.02559818686933463
  0
VERTEX
  8
1
 10
262.9265577936882
 20
288.7749731910877
 30
0
 42
0.04086222631785814
  0
VERTEX
  8
1
 10
263.5182229370251
 20
288.5010114183548
 30
0
 42
0.03180568557304498
  0
VERTEX
  8
1
 10
263.9369748610008
 20
288.3767925655907
 30
0
 42
0.01804985857815748
  0
VERTEX
  8
1
 10
264.3718620243326
 20
288.2937474438276
 30
0
 42
0.0183010851627045
  0
VERTEX
  8
1
 10
264.8179987427754
 20
288.2417656464633
 30
0
 42
0.005464783303460693
  0
VERTEX
  8
1
 10
265.270499332084
 20
288.2107367668952
 30
0
 42
0.006549699693637649
  0
VERTEX
  8
1
 10
265.7244781080129
 20
288.1905503985212
 30
0
 42
0.0004093587786438991
  0
VERTEX
  8
1
 10
266.3433797899409
 20
288.1663021233943
 30
0
 42
0.0003245172122508646
  0
VERTEX
  8
1
 10
266.9571458207473
 20
288.1431572485278
 30
0
 42
0.0002340549040877375
  0
VERTEX
  8
1
 10
267.5670601132127
 20
288.120839923857
 30
0
 42
0.0001422883525019861
  0
VERTEX
  8
1
 10
268.1744065801171
 20
288.0990742993164
 30
0
 42
4.708687566672974e-005
  0
VERTEX
  8
1
 10
268.7804691342413
 20
288.077584524841
 30
0
  0
SEQEND
  8
1
  0
POLYLINE
  8
1
 62
3
 66
1
  0
VERTEX
  8
1
 10
248.7804691342413
 20
292.077584524841
 30
0
 42
-0.001358152087958894
  0
VERTEX
  8
1
 10
249.4123853779088
 20
292.1028002784685
 30
0
 42
-0.004084509566144499
  0
VERTEX
  8
1
 10
250.0437601477593
 20
292.1211175859932
 30
0
 42
-0.006836327826126641
  0
VERTEX
  8
1
 10
250.6740519699755
 20
292.1256380013122
 30
0
 42
-0.009614512800666839
  0
VERTEX
  8
1
 10
251.3027193707406
 20
292.1094630783228
 30
0
 42
-0.0123948757015169
  0
VERTEX
  8
1
 10
251.9292208762374
 20
292.0656943709222
 30
0
 42
-0.01720460201210243
  0
VERTEX
  8
1
 10
252.7566772507283
 20
291.9570152168778
 30
0
 42
-0.01506268212933416
  0
VERTEX
  8
1
 10
253.5777534143821
 20
291.7947476091453
 30
0
 42
-0.0129892933948839
  0
VERTEX
  8
1
 10
254.3908414644189
 20
291.5861029127489
 30
0
 42
-0.01101450300657718
  0
VERTEX
  8
1
 10
255.1943334980583
 20
291.3382924927132
 30
0
 42
-0.00914310076466906
  0
VERTEX
  8
1
 10
255.9866216125203
 20
291.0585277140625
 30
0
 42
-0.003751510980247657
  0
VERTEX
  8
1
 10
256.4222918349956
 20
290.8919539107918
 30
0
 42
-0.002072865824886616
  0
VERTEX
  8
1
 10
256.8552878479696
 20
290.7205932381004
 30
0
 42
-0.0003846956454093037
  0
VERTEX
  8
1
 10
257.2869021770547
 20
290.5473196340489
 30
0
 42
0.001309348898388983
  0
VERTEX
  8
1
 10
257.7184273478634
 20
290.3750070366974
 30
0
 42
0.003005986051838119
  0
VERTEX
  8
1
 10
258.1511558860084
 20
290.2065293841064
 30
0
 42
0.003951844711836792
  0
VERTEX
  8
1
 10
258.6151669351639
 20
290.0332684383612
 30
0
 42
0.001611805709897325
  0
VERTEX
  8
1
 10
259.081323580948
 20
289.8650923727004
 30
0
 42
0.001288536037395355
  0
VERTEX
  8
1
 10
259.5489313013532
 20
289.6994519164178
 30
0
 42
-0.0005425218245469866
  0
VERTEX
  8
1
 10
260.0172955743718
 20
289.5337977988074
 30
0
 42
-0.001862584057000814
  0
VERTEX
  8
1
 10
260.4857218779963
 20
289.3655807491631
 30
0
 42
-0.001452496948212264
  0
VERTEX
  8
1
 10
261.138630090724
 20
289.1248732230217
 30
0
 42
0.002656236824463995
  0
VERTEX
  8
1
 10
261.7922468819542
 20
288.8856895735358
 30
0
 42
0.006791582524856552
  0
VERTEX
  8
1
 10
262.4485117700834
 20
288.6595029261294
 30
0
 42
0.01103558094080652
  0
VERTEX
  8
1
 10
263.1093642735079
 20
288.4577864062258
 30
0
 42
0.01535980820494069
  0
VERTEX
  8
1
 10
263.7767439106243
 20
288.2920131392485
 30
0
 42
0.02443126800991384
  0
VERTEX
  8
1
 10
264.7562223780026
 20
288.1300267296863
 30
0
 42
0.01606205456723872
  0
VERTEX
  8
1
 10
265.7498785636111
 20
288.0474407779112
 30
0
 42
0.01393493870856398
  0
VERTEX
  8
1
 10
266.7541680378919
 20
288.0244051694765
 30
0
 42
0.005770450064565102
  0
VERTEX
  8
1
 10
267.7655463712878
 20
288.0410697899353
 30
0
 42
0.0039729786886161
  0
VERTEX
  8
1
 10
268.7804691342413
 20
288.077584524841
 30
0
  0
SEQEND
  8
1
  0
POLYLINE
  8
1
 62
3
 66
1
  0
VERTEX
  8
1
 10
248.7804691342413
 20
291.077584524841
 30
0
 42
-0.001362471609757022
  0
VERTEX
  8
1
 10
249.41241313575
 20
291.102890705134
 30
0
 42
-0.004097610774149268
  0
VERTEX
  8
1
 10
250.0438087239813
 20
291.1212758326577
 30
0
 42
-0.006858595752917971
  0
VERTEX
  8
1
 10
250.6741074856579
 20
291.1258188546432
 30
0
 42
-0.009646437364400974
  0
VERTEX
  8
1
 10
251.3027610075023
 20
291.1095987183212
 30
0
 42
-0.01243679960353359
  0
VERTEX
  8
1
 10
251.9292208762374
 20
291.0656943709224
 30
0
 42
-0.01723934499775283
  0
VERTEX
  8
1
 10
252.7565790796414
 20
290.9566954051185
 30
0
 42
-0.01504120646962353
  0
VERTEX
  8
1
 10
253.5775510343304
 20
290.7940883160429
 30
0
 42
-0.01291158192500936
  0
VERTEX
  8
1
 10
254.3905839609458
 20
290.5852640441832
 30
0
 42
-0.01088102849108572
  0
VERTEX
  8
1
 10
255.1941250801287
 20
290.3376135300272
 30
0
 42
-0.008953596705462193
  0
VERTEX
  8
1
 10
255.9866216125203
 20
290.0585277140625
 30
0
 42
-0.003703781418754275
  0
VERTEX
  8
1
 10
256.4224820965875
 20
289.8925737256114
 30
0
 42
-0.002172491294113048
  0
VERTEX
  8
1
 10
256.8556540051467
 20
289.7217860676278
 30
0
 42
-0.0006319289789884523
  0
VERTEX
  8
1
 10
257.2873490990211
 20
289.5487755708741
 30
0
 42
0.0009139763723675348
  0
VERTEX
  8
1
 10
257.718779139034
 20
289.3761530661128
 30
0
 42
0.002461932441470276
  0
VERTEX
  8
1
 10
258.1511558860084
 20
289.2065293841064
 30
0
 42
0.003473150353662586
  0
VERTEX
  8
1
 10
258.6144941067366
 20
289.0310765664961
 30
0
 42
0.002008603979623507
  0
VERTEX
  8
1
 10
259.0799541503109
 20
288.8606311811644
 30
0
 42
0.00204756478106866
  0
VERTEX
  8
1
 10
259.5472016827198
 20
288.6938173411436
 30
0
 42
0.0005824769219504393
  0
VERTEX
  8
1
 10
260.015902369952
 20
288.5292591594658
 30
0
 42
0.0006242501456977722
  0
VERTEX
  8
1
 10
260.4857218779963
 20
288.3655807491631
 30
0
 42
0.000336367665391909
  0
VERTEX
  8
1
 10
261.1370120429089
 20
288.1400827686142
 30
0
 42
0.005230759131899447
  0
VERTEX
  8
1
 10
261.7907810008516
 20
287.9218473510555
 30
0
 42
0.006236406618280634
  0
VERTEX
  8
1
 10
262.4480070796009
 20
287.7190859654477
 30
0
 42
0.01123059924269967
  0
VERTEX
  8
1
 10
263.109668606933
 20
287.5400100807511
 30
0
 42
0.01235024403614906
  0
VERTEX
  8
1
 10
263.7767439106243
 20
287.3928311659266
 30
0
 42
0.02178204566554987
  0
VERTEX
  8
1
 10
264.761148750847
 20
287.2451626429758
 30
0
 42
0.01290993169267331
  0
VERTEX
  8
1
 10
265.756447060737
 20
287.1658472088607
 30
0
 42
0.01287933557222228
  0
VERTEX
  8
1
 10
266.7599154728771
 20
287.1377965913724
 30
0
 42
0.004130453162908448
  0
VERTEX
  8
1
 10
267.7688306198508
 20
287.143922518302
 30
0
 42
0.00430528732592166
  0
VERTEX
  8
1
 10
268.7804691342413
 20
287.1671367174405
 30
0
  0
SEQEND
  8
1
  0
POLYLINE
  8
1
 62
3
 66
1
  0
VERTEX
  8
1
 10
248.7804691342413
 20
284.577584524841
 30
0
 42
-0.001012204111019176
  0
VERTEX
  8
1
 10
249.411708975143
 20
284.5969035311139
 30
0
 42
-0.003041506933661965
  0
VERTEX
  8
1
 10
250.0425764429192
 20
284.61109480475
 30
0
 42
-0.005083541123794845
  0
VERTEX
  8
1
 10
250.672699164444
 20
284.6150306131128
 30
0
 42
-0.007140173251190777
  0
VERTEX
  8
1
 10
251.301704766592
 20
284.6035832235656
 30
0
 42
-0.02015103824149248
  0
VERTEX
  8
1
 10
252.6662914550221
 20
284.5041651848241
 30
0
 42
-0.005713191267093903
  0
VERTEX
  8
1
 10
253.4019212271753
 20
284.4135404749628
 30
0
 42
-0.001504699509165336
  0
VERTEX
  8
1
 10
254.137252937355
 20
284.3121623572234
 30
0
 42
0.002686391856143301
  0
VERTEX
  8
1
 10
254.8734293302191
 20
284.2124424149413
 30
0
 42
0.006874857216745488
  0
VERTEX
  8
1
 10
255.6115931504253
 20
284.1267922314522
 30
0
 42
0.006540794940993706
  0
VERTEX
  8
1
 10
256.0756278332716
 20
284.0855315781662
 30
0
 42
0.006046787787586283
  0
VERTEX
  8
1
 10
256.5404386860677
 20
284.0559720997428
 30
0
 42
0.007915314743392816
  0
VERTEX
  8
1
 10
257.0055723528359
 20
284.03941314752
 30
0
 42
0.007448605157928122
  0
VERTEX
  8
1
 10
257.4705754775982
 20
284.0371540728356
 30
0
 42
0.01990100913026004
  0
VERTEX
  8
1
 10
258.4984188453623
 20
284.0884196555728
 30
0
 42
0.006705255687861887
  0
VERTEX
  8
1
 10
259.0605010266787
 20
284.146543939454
 30
0
 42
0.006951790059673519
  0
VERTEX
  8
1
 10
259.6214328345835
 20
284.2200819379868
 30
0
 42
0.00246414404122772
  0
VERTEX
  8
1
 10
260.1814058553339
 20
284.304248510487
 30
0
 42
0.00273769309257631
  0
VERTEX
  8
1
 10
260.7406116751873
 20
284.3942585162698
 30
0
 42
-0.0001339878578163892
  0
VERTEX
  8
1
 10
261.2954964975343
 20
284.4850289431746
 30
0
 42
-0.001401259120565195
  0
VERTEX
  8
1
 10
261.8502567615234
 20
284.5740314237016
 30
0
 42
-0.00267116650105378
  0
VERTEX
  8
1
 10
262.4053357405229
 20
284.6584540281016
 30
0
 42
-0.003942555142937562
  0
VERTEX
  8
1
 10
262.9611767079008
 20
284.7354848266252
 30
0
 42
-0.005212195614934159
  0
VERTEX
  8
1
 10
263.5182229370251
 20
284.8023118895229
 30
0
 42
-0.004276427742180618
  0
VERTEX
  8
1
 10
263.9582380882273
 20
284.8463617711187
 30
0
 42
-0.003618960281160059
  0
VERTEX
  8
1
 10
264.3990740188345
 20
284.8834736418336
 30
0
 42
-0.002963333241840581
  0
VERTEX
  8
1
 10
264.8405278909395
 20
284.9147912479144
 30
0
 42
-0.002309907759096406
  0
VERTEX
  8
1
 10
265.2823968666347
 20
284.9414583356079
 30
0
 42
-0.001658437888531491
  0
VERTEX
  8
1
 10
265.7244781080129
 20
284.9646186511606
 30
0
 42
-0.001659181814350871
  0
VERTEX
  8
1
 10
266.3356546944331
 20
284.9926304789028
 30
0
 42
-0.00129106699976749
  0
VERTEX
  8
1
 10
266.9468456934036
 20
285.0170298713076
 30
0
 42
-0.0009224660058990658
  0
VERTEX
  8
1
 10
267.5580475017869
 20
285.0387199372093
 30
0
 42
-0.0005535777015952311
  0
VERTEX
  8
1
 10
268.1692565164453
 20
285.0586037854423
 30
0
 42
-0.0001845410470869766
  0
VERTEX
  8
1
 10
268.7804691342413
 20
285.077584524841
 30
0
  0
SEQEND
  8
1
  0
POLYLINE
  8
1
 62
3
 66
1
  0
VERTEX
  8
1
 10
248.7804691342413
 20
283.577584524841
 30
0
 42
-0.001012204111019176
  0
VERTEX
  8
1
 10
249.411708975143
 20
283.5969035311139
 30
0
 42
-0.003041506933842267
  0
VERTEX
  8
1
 10
250.0425764429192
 20
283.61109480475
 30
0
 42
-0.005083541123794845
  0
VERTEX
  8
1
 10
250.672699164444
 20
283.6150306131128
 30
0
 42
-0.007140173251190777
  0
VERTEX
  8
1
 10
251.301704766592
 20
283.6035832235656
 30
0
 42
-0.02015103824160954
  0
VERTEX
  8
1
 10
252.6662914550221
 20
283.5041651848241
 30
0
 42
-0.005713191267170289
  0
VERTEX
  8
1
 10
253.4019212271753
 20
283.4135404749628
 30
0
 42
-0.001504699509089397
  0
VERTEX
  8
1
 10
254.137252937355
 20
283.3121623572234
 30
0
 42
0.002686391856219185
  0
VERTEX
  8
1
 10
254.8734293302191
 20
283.2124424149413
 30
0
 42
0.006874857216593547
  0
VERTEX
  8
1
 10
255.6115931504253
 20
283.1267922314522
 30
0
 42
0.006540794941183395
  0
VERTEX
  8
1
 10
256.0756278332716
 20
283.0855315781662
 30
0
 42
0.006046787787396151
  0
VERTEX
  8
1
 10
256.5404386860677
 20
283.0559720997428
 30
0
 42
0.007915314743584175
  0
VERTEX
  8
1
 10
257.0055723528359
 20
283.03941314752
 30
0
 42
0.007448605157735654
  0
VERTEX
  8
1
 10
257.4705754775982
 20
283.0371540728356
 30
0
 42
0.01990100913045169
  0
VERTEX
  8
1
 10
258.4984188453623
 20
283.0884196555728
 30
0
 42
0.006705255687720049
  0
VERTEX
  8
1
 10
259.0605010266787
 20
283.146543939454
 30
0
 42
0.006951790059716264
  0
VERTEX
  8
1
 10
259.6214328345835
 20
283.2200819379868
 30
0
 42
0.002464144041235658
  0
VERTEX
  8
1
 10
260.1814058553339
 20
283.304248510487
 30
0
 42
0.00273769309256815
  0
VERTEX
  8
1
 10
260.7406116751873
 20
283.3942585162698
 30
0
 42
-0.0001339878579160872
  0
VERTEX
  8
1
 10
261.2954964975343
 20
283.4850289431745
 30
0
 42
-0.001401259120664893
  0
VERTEX
  8
1
 10
261.8502567615234
 20
283.5740314237016
 30
0
 42
-0.00267116650105378
  0
VERTEX
  8
1
 10
262.4053357405229
 20
283.6584540281016
 30
0
 42
-0.003942555142937562
  0
VERTEX
  8
1
 10
262.9611767079008
 20
283.7354848266252
 30
0
 42
-0.005212195614934159
  0
VERTEX
  8
1
 10
263.5182229370251
 20
283.8023118895229
 30
0
 42
-0.004276427742180618
  0
VERTEX
  8
1
 10
263.9582380882273
 20
283.8463617711187
 30
0
 42
-0.003618960281160059
  0
VERTEX
  8
1
 10
264.3990740188345
 20
283.8834736418336
 30
0
 42
-0.002963333241840581
  0
VERTEX
  8
1
 10
264.8405278909395
 20
283.9147912479144
 30
0
 42
-0.002309907759096406
  0
VERTEX
  8
1
 10
265.2823968666347
 20
283.9414583356079
 30
0
 42
-0.001658437888531491
  0
VERTEX
  8
1
 10
265.7244781080129
 20
283.9646186511606
 30
0
 42
-0.001659181814350871
  0
VERTEX
  8
1
 10
266.3356546944331
 20
283.9926304789028
 30
0
 42
-0.00129106699976749
  0
VERTEX
  8
1
 10
266.9468456934036
 20
284.0170298713076
 30
0
 42
-0.0009224660058990658
  0
VERTEX
  8
1
 10
267.5580475017869
 20
284.0387199372093
 30
0
 42
-0.0005535777014093798
  0
VERTEX
  8
1
 10
268.1692565164453
 20
284.0586037854423
 30
0
 42
-0.0001845410469011252
  0
VERTEX
  8
1
 10
268.7804691342413
 20
284.077584524841
 30
0
  0
SEQEND
  8
1
  0
POLYLINE
  8
1
 62
3
 66
1
  0
VERTEX
  8
1
 10
248.7804691342413
 20
279.577584524841
 30
0
 42
0.002401515546163157
  0
VERTEX
  8
1
 10
249.5249461962202
 20
279.5192763442885
 30
0
 42
0.007248840753391096
  0
VERTEX
  8
1
 10
250.2670442389056
 20
279.4755452088741
 30
0
 42
0.01229879808566842
  0
VERTEX
  8
1
 10
251.0043842430038
 20
279.4609681637359
 30
0
 42
0.01753962731847599
  0
VERTEX
  8
1
 10
251.7345871892213
 20
279.4901222540122
 30
0
 42
0.02289826929934827
  0
VERTEX
  8
1
 10
252.4552740582644
 20
279.577584524841
 30
0
 42
0.02623792913397577
  0
VERTEX
  8
1
 10
253.2249471975915
 20
279.7489076678577
 30
0
 42
0.01533451021620872
  0
VERTEX
  8
1
 10
253.9836984767288
 20
279.985407053244
 30
0
 42
0.01262719634065801
  0
VERTEX
  8
1
 10
254.7346179666552
 20
280.2664031450385
 30
0
 42
0.002243745491972239
  0
VERTEX
  8
1
 10
255.4807957383495
 20
280.5712164072795
 30
0
 42
-0.002052424584119287
  0
VERTEX
  8
1
 10
256.2253218627905
 20
280.8791673040055
 30
0
 42
-0.004718784383988756
  0
VERTEX
  8
1
 10
257.0218636557926
 20
281.1936002265189
 30
0
 42
-0.002952234778066885
  0
VERTEX
  8
1
 10
257.8195530717742
 20
281.4944097150552
 30
0
 42
-0.001148070354213459
  0
VERTEX
  8
1
 10
258.617895254292
 20
281.7880027423349
 30
0
 42
0.0006697605109344281
  0
VERTEX
  8
1
 10
259.4163953469019
 20
282.0807862810782
 30
0
 42
0.002482044596507462
  0
VERTEX
  8
1
 10
260.2145584931603
 20
282.3791673040055
 30
0
 42
0.001978882975353449
  0
VERTEX
  8
1
 10
260.8919030665426
 20
282.6392930994638
 30
0
 42
-0.002424872975590427
  0
VERTEX
  8
1
 10
261.5705790295066
 20
282.8978607034457
 30
0
 42
-0.005965402688203244
  0
VERTEX
  8
1
 10
262.2525172740971
 20
283.1446599921709
 30
0
 42
-0.009563208241455149
  0
VERTEX
  8
1
 10
262.9396486923582
 20
283.3694808418592
 30
0
 42
-0.01321986738205774
  0
VERTEX
  8
1
 10
263.6339041763345
 20
283.5621131287302
 30
0
 42
-0.01938778054343695
  0
VERTEX
  8
1
 10
264.6410119371123
 20
283.7691805734464
 30
0
 42
-0.0149923944126414
  0
VERTEX
  8
1
 10
265.6629231850924
 20
283.9069325744999
 30
0
 42
-0.01059728124991945
  0
VERTEX
  8
1
 10
266.6959370484744
 20
283.9926979928064
 30
0
 42
-0.006296230251620042
  0
VERTEX
  8
1
 10
267.7363526554575
 20
284.0438056892815
 30
0
 42
-0.002086734309587618
  0
VERTEX
  8
1
 10
268.7804691342413
 20
284.077584524841
 30
0
  0
SEQEND
  8
1
  0
POLYLINE
  8
1
 62
3
 66
1
  0
VERTEX
  8
1
 10
248.7804691342413
 20
278.577584524841
 30
0
 42
0.002401515546163157
  0
VERTEX
  8
1
 10
249.5249461962202
 20
278.5192763442885
 30
0
 42
0.007248840753391096
  0
VERTEX
  8
1
 10
250.2670442389056
 20
278.4755452088741
 30
0
 42
0.01229879808570695
  0
VERTEX
  8
1
 10
251.0043842430038
 20
278.460968163736
 30
0
 42
0.01753962731836038
  0
VERTEX
  8
1
 10
251.7345871892213
 20
278.4901222540122
 30
0
 42
0.02289826929950267
  0
VERTEX
  8
1
 10
252.4552740582644
 20
278.577584524841
 30
0
 42
0.02623792913378668
  0
VERTEX
  8
1
 10
253.2249471975915
 20
278.7489076678576
 30
0
 42
0.01533451021646741
  0
VERTEX
  8
1
 10
253.9836984767288
 20
278.985407053244
 30
0
 42
0.01262719634036531
  0
VERTEX
  8
1
 10
254.7346179666552
 20
279.2664031450385
 30
0
 42
0.002243745492231921
  0
VERTEX
  8
1
 10
255.4807957383495
 20
279.5712164072795
 30
0
 42
-0.00205242458418479
  0
VERTEX
  8
1
 10
256.2253218627905
 20
279.8791673040055
 30
0
 42
-0.004718784384050264
  0
VERTEX
  8
1
 10
257.0218636557926
 20
280.1936002265189
 30
0
 42
-0.002952234778129502
  0
VERTEX
  8
1
 10
257.8195530717742
 20
280.4944097150552
 30
0
 42
-0.001148070354213459
  0
VERTEX
  8
1
 10
258.617895254292
 20
280.7880027423349
 30
0
 42
0.0006697605108717003
  0
VERTEX
  8
1
 10
259.4163953469019
 20
281.0807862810781
 30
0
 42
0.002482044596632806
  0
VERTEX
  8
1
 10
260.2145584931603
 20
281.3791673040055
 30
0
 42
0.00197888297519674
  0
VERTEX
  8
1
 10
260.8919030665426
 20
281.6392930994638
 30
0
 42
-0.002424872975810031
  0
VERTEX
  8
1
 10
261.5705790295066
 20
281.8978607034456
 30
0
 42
-0.005965402688276522
  0
VERTEX
  8
1
 10
262.2525172740971
 20
282.1446599921709
 30
0
 42
-0.009563208241455149
  0
VERTEX
  8
1
 10
262.9396486923582
 20
282.3694808418592
 30
0
 42
-0.01321986738205774
  0
VERTEX
  8
1
 10
263.6339041763345
 20
282.5621131287302
 30
0
 42
-0.01938778054343695
  0
VERTEX
  8
1
 10
264.6410119371123
 20
282.7691805734464
 30
0
 42
-0.01499239441253213
  0
VERTEX
  8
1
 10
265.6629231850924
 20
282.9069325744999
 30
0
 42
-0.01059728124991945
  0
VERTEX
  8
1
 10
266.6959370484744
 20
282.9926979928064
 30
0
 42
-0.006296230251620042
  0
VERTEX
  8
1
 10
267.7363526554575
 20
283.0438056892815
 30
0
 42
-0.002086734309587618
  0
VERTEX
  8
1
 10
268.7804691342413
 20
283.077584524841
 30
0
  0
SEQEND
  8
1
  0
POLYLINE
  8
1
 62
3
 66
1
  0
VERTEX
  8
1
 10
248.7804691342413
 20
274.577584524841
 30
0
 42
0.004358729398469501
  0
VERTEX
  8
1
 10
249.7495831849146
 20
274.5821117100271
 30
0
 42
0.01337584483500358
  0
VERTEX
  8
1
 10
250.7018048460312
 20
274.6203534101881
 30
0
 42
0.02383563990225556
  0
VERTEX
  8
1
 10
251.6202417280343
 20
274.7260241402992
 30
0
 42
0.03589190169512373
  0
VERTEX
  8
1
 10
252.4880014413674
 20
274.9328384153353
 30
0
 42
0.04895632414679543
  0
VERTEX
  8
1
 10
253.2881915964736
 20
275.2745107502715
 30
0
 42
0.04576326853625867
  0
VERTEX
  8
1
 10
253.9459750438367
 20
275.7176549625334
 30
0
 42
0.02110922930131804
  0
VERTEX
  8
1
 10
254.5559310335494
 20
276.2597113210169
 30
0
 42
0.01598160533288572
  0
VERTEX
  8
1
 10
255.139475879246
 20
276.8613924498419
 30
0
 42
-0.001092134691180637
  0
VERTEX
  8
1
 10
255.7180258945606
 20
277.4834109731282
 30
0
 42
-0.01369804712003473
  0
VERTEX
  8
1
 10
256.3129973931272
 20
278.0864795149956
 30
0
 42
-0.02555441647288808
  0
VERTEX
  8
1
 10
257.1689211482988
 20
278.8194511157801
 30
0
 42
-0.02143501595990779
  0
VERTEX
  8
1
 10
258.0820258851127
 20
279.4630833499551
 30
0
 42
-0.01692967819401537
  0
VERTEX
  8
1
 10
259.040616608165
 20
280.0340460590219
 30
0
 42
-0.01233822321844107
  0
VERTEX
  8
1
 10
260.0329983220518
 20
280.549009084482
 30
0
 42
-0.007800748263472072
  0
VERTEX
  8
1
 10
261.0474760313692
 20
281.0246422678364
 30
0
 42
-0.005362192224273305
  0
VERTEX
  8
1
 10
261.8543482750655
 20
281.379418020957
 30
0
 42
-0.007366627213573731
  0
VERTEX
  8
1
 10
262.6687565859089
 20
281.7130472141783
 30
0
 42
-0.009412356290846968
  0
VERTEX
  8
1
 10
263.4918037674918
 20
282.0183990318239
 30
0
 42
-0.01149368119268148
  0
VERTEX
  8
1
 10
264.3245926234068
 20
282.2883426582174
 30
0
 42
-0.02517093435360705
  0
VERTEX
  8
1
 10
265.880697719294
 20
282.6695927427453
 30
0
 42
-0.008504618118557536
  0
VERTEX
  8
1
 10
266.5998207302425
 20
282.7957861973875
 30
0
 42
-0.006047552492587387
  0
VERTEX
  8
1
 10
267.3239321778668
 20
282.901240644214
 30
0
 42
-0.003614339530341933
  0
VERTEX
  8
1
 10
268.0513692499414
 20
282.9928690858301
 30
0
 42
-0.001202089796742069
  0
VERTEX
  8
1
 10
268.7804691342413
 20
283.077584524841
 30
0
  0
SEQEND
  8
1
  0
POLYLINE
  8
1
 62
3
 66
1
  0
VERTEX
  8
1
 10
248.7804691342413
 20
273.577584524841
 30
0
 42
0.004358729398469501
  0
VERTEX
  8
1
 10
249.7495831849146
 20
273.5821117100271
 30
0
 42
0.01337584483500358
  0
VERTEX
  8
1
 10
250.7018048460312
 20
273.6203534101881
 30
0
 42
0.02383563990225556
  0
VERTEX
  8
1
 10
251.6202417280343
 20
273.7260241402992
 30
0
 42
0.03589190169512373
  0
VERTEX
  8
1
 10
252.4880014413674
 20
273.9328384153353
 30
0
 42
0.04895632414679543
  0
VERTEX
  8
1
 10
253.2881915964736
 20
274.2745107502715
 30
0
 42
0.04576326853625867
  0
VERTEX
  8
1
 10
253.9459750438367
 20
274.7176549625334
 30
0
 42
0.02110922930131804
  0
VERTEX
  8
1
 10
254.5559310335494
 20
275.2597113210169
 30
0
 42
0.01598160533290937
  0
VERTEX
  8
1
 10
255.139475879246
 20
275.861392449842
 30
0
 42
-0.001092134691135118
  0
VERTEX
  8
1
 10
255.7180258945606
 20
276.4834109731282
 30
0
 42
-0.01369804712003473
  0
VERTEX
  8
1
 10
256.3129973931272
 20
277.0864795149956
 30
0
 42
-0.02555441647288808
  0
VERTEX
  8
1
 10
257.1689211482988
 20
277.8194511157801
 30
0
 42
-0.02143501595990779
  0
VERTEX
  8
1
 10
258.0820258851127
 20
278.4630833499551
 30
0
 42
-0.01692967819401537
  0
VERTEX
  8
1
 10
259.040616608165
 20
279.0340460590219
 30
0
 42
-0.01233822321848571
  0
VERTEX
  8
1
 10
260.0329983220518
 20
279.5490090844819
 30
0
 42
-0.007800748263517595
  0
VERTEX
  8
1
 10
261.0474760313692
 20
280.0246422678364
 30
0
 42
-0.005362192224273305
  0
VERTEX
  8
1
 10
261.8543482750655
 20
280.379418020957
 30
0
 42
-0.00736662721369342
  0
VERTEX
  8
1
 10
262.6687565859089
 20
280.7130472141783
 30
0
 42
-0.009412356290846968
  0
VERTEX
  8
1
 10
263.4918037674918
 20
281.0183990318239
 30
0
 42
-0.01149368119280496
  0
VERTEX
  8
1
 10
264.3245926234068
 20
281.2883426582174
 30
0
 42
-0.02517093435360705
  0
VERTEX
  8
1
 10
265.880697719294
 20
281.6695927427453
 30
0
 42
-0.008504618118787813
  0
VERTEX
  8
1
 10
266.5998207302425
 20
281.7957861973874
 30
0
 42
-0.006047552492664439
  0
VERTEX
  8
1
 10
267.3239321778668
 20
281.901240644214
 30
0
 42
-0.003614339530188053
  0
VERTEX
  8
1
 10
268.0513692499414
 20
281.9928690858301
 30
0
 42
-0.001202089796587969
  0
VERTEX
  8
1
 10
268.7804691342413
 20
282.077584524841
 30
0
  0
SEQEND
  8
1
  0
POLYLINE
  8
1
 62
3
 66
1
  0
VERTEX
  8
1
 10
265.1069160778123
 20
286.077584524841
 30
0
 42
0.02259622956502806
  0
VERTEX
  8
1
 10
266.3290388128042
 20
285.9662010386602
 30
0
 42
0.0227415942420032
  0
VERTEX
  8
1
 10
267.5535564982806
 20
285.9662010386603
 30
0
 42
0.02251383879693278
  0
VERTEX
  8
1
 10
268.7804691342413
 20
286.077584524841
 30
0
  0
SEQEND
  8
1
  0
POLYLINE
  8
1
 62
3
 66
1
  0
VERTEX
  8
1
 10
290.1463331320732
 20
285.1077633883234
 30
0
 42
0.0407102506787082
  0
VERTEX
  8
1
 10
290.4710127147299
 20
285.3215594629276
 30
0
 42
0.06199146047008288
  0
VERTEX
  8
1
 10
290.6742660894806
 20
285.5309238276927
 30
0
 42
0.08619168503814892
  0
VERTEX
  8
1
 10
290.7741399699916
 20
285.7361081551346
 30
0
 42
0.09222976083279234
  0
VERTEX
  8
1
 10
290.7886810699289
 20
285.9373641177693
 30
0
 42
0.0706461944417399
  0
VERTEX
  8
1
 10
290.7359361029588
 20
286.1349433881128
 30
0
 42
0.04304327987099545
  0
VERTEX
  8
1
 10
290.6339517827474
 20
286.3290976386811
 30
0
 42
0.02162533274602006
  0
VERTEX
  8
1
 10
290.500774822961
 20
286.5200785419901
 30
0
 42
0.005216753895038532
  0
VERTEX
  8
1
 10
290.3544519372655
 20
286.7081377705558
 30
0
 42
-0.01010100466098905
  0
VERTEX
  8
1
 10
290.2130298393273
 20
286.8935269968943
 30
0
 42
-0.02869426395826757
  0
VERTEX
  8
1
 10
290.0945552428123
 20
287.0764978935213
 30
0
 42
-0.05573108952532974
  0
VERTEX
  8
1
 10
290.0170748613869
 20
287.2573021329529
 30
0
 42
-0.09207917610938322
  0
VERTEX
  8
1
 10
289.9986354087171
 20
287.4361913877052
 30
0
 42
-0.1128213517726844
  0
VERTEX
  8
1
 10
290.0572835984691
 20
287.6134173302938
 30
0
 42
-0.09080172897708598
  0
VERTEX
  8
1
 10
290.211066144309
 20
287.789231633235
 30
0
 42
-0.0575464967642815
  0
VERTEX
  8
1
 10
290.4780297599032
 20
287.9638859690447
 30
0
 42
-0.03525709866055176
  0
VERTEX
  8
1
 10
290.8762211589176
 20
288.1376320102389
 30
0
  0
SEQEND
  8
1
  0
POLYLINE
  8
1
 62
3
 66
1
  0
VERTEX
  8
1
 10
288.7444721054266
 20
285.077584524841
 30
0
 42
0.05080912477685041
  0
VERTEX
  8
1
 10
289.0022207819755
 20
285.2903502754598
 30
0
 42
0.06988837635726125
  0
VERTEX
  8
1
 10
289.1561345126934
 20
285.5041268334428
 30
0
 42
0.08041446078087822
  0
VERTEX
  8
1
 10
289.2234834086837
 20
285.7187199570899
 30
0
 42
0.07024993852481459
  0
VERTEX
  8
1
 10
289.2215375810499
 20
285.9339354047011
 30
0
 42
0.04773994140854084
  0
VERTEX
  8
1
 10
289.1675671408956
 20
286.1495789345765
 30
0
 42
0.02608758836480969
  0
VERTEX
  8
1
 10
289.0788421993243
 20
286.3654563050161
 30
0
 42
0.008309190313269269
  0
VERTEX
  8
1
 10
288.9726328674396
 20
286.5813732743197
 30
0
 42
-0.007700004216470297
  0
VERTEX
  8
1
 10
288.8662092563451
 20
286.7971356007876
 30
0
 42
-0.02496678281152274
  0
VERTEX
  8
1
 10
288.776841477144
 20
287.0125490427193
 30
0
 42
-0.04605941347100576
  0
VERTEX
  8
1
 10
288.7217996409402
 20
287.2274193584154
 30
0
 42
-0.06985250209950976
  0
VERTEX
  8
1
 10
288.718353858837
 20
287.4415523061757
 30
0
 42
-0.08496459672815721
  0
VERTEX
  8
1
 10
288.783774241938
 20
287.6547536442999
 30
0
 42
-0.07831527128178878
  0
VERTEX
  8
1
 10
288.935330901347
 20
287.8668291310884
 30
0
 42
-0.05838989814947033
  0
VERTEX
  8
1
 10
289.190293948167
 20
288.077584524841
 30
0
  0
SEQEND
  8
1
  0
POLYLINE
  8
1
 62
3
 66
1
  0
VERTEX
  8
1
 10
268.7804691342413
 20
282.077584524841
 30
0
 42
-0.00125715903222528
  0
VERTEX
  8
1
 10
269.6869681909183
 20
282.1105540668377
 30
0
 42
0.01672185237808121
  0
VERTEX
  8
1
 10
270.6287853181863
 20
282.1742381475184
 30
0
 42
0.03588864036889756
  0
VERTEX
  8
1
 10
271.5517649084825
 20
282.3344994438029
 30
0
 42
0.05941825443865512
  0
VERTEX
  8
1
 10
272.4017513542441
 20
282.6572006326109
 30
0
 42
0.04885265694383575
  0
VERTEX
  8
1
 10
273.0603688824347
 20
283.1071316857655
 30
0
 42
0.0188867149154659
  0
VERTEX
  8
1
 10
273.6671793637528
 20
283.654022432119
 30
0
 42
-0.008828815731206911
  0
VERTEX
  8
1
 10
274.2688670423468
 20
284.2179860411181
 30
0
 42
-0.03690414509086309
  0
VERTEX
  8
1
 10
274.9121161623651
 20
284.7191356822098
 30
0
 42
-0.0655688893916237
  0
VERTEX
  8
1
 10
275.6436109679559
 20
285.077584524841
 30
0
  0
SEQEND
  8
1
  0
POLYLINE
  8
1
 62
3
 66
1
  0
VERTEX
  8
1
 10
268.7804691342413
 20
283.077584524841
 30
0
 42
0.05088675466872796
  0
VERTEX
  8
1
 10
269.4463006986189
 20
282.9693725252487
 30
0
 42
0.04911865911511567
  0
VERTEX
  8
1
 10
270.0850616910457
 20
282.997311754469
 30
0
 42
0.0430992905881255
  0
VERTEX
  8
1
 10
270.6970266126631
 20
283.1408408597872
 30
0
 42
0.03504233058672346
  0
VERTEX
  8
1
 10
271.2824699646131
 20
283.3793984884883
 30
0
 42
0.02689835495067371
  0
VERTEX
  8
1
 10
271.841666248037
 20
283.6924232878574
 30
0
 42
0.01955705333412064
  0
VERTEX
  8
1
 10
272.3748899640767
 20
284.0593539051801
 30
0
 42
0.01309512459644702
  0
VERTEX
  8
1
 10
272.8824156138736
 20
284.4596289877411
 30
0
 42
0.007177072648414168
  0
VERTEX
  8
1
 10
273.3645176985693
 20
284.8726871828257
 30
0
  0
VERTEX
  8
1
 10
273.596120685611
 20
285.077584524841
 30
0
  0
SEQEND
  8
1
  0
POLYLINE
  8
1
 62
3
 66
1
  0
VERTEX
  8
1
 10
268.7804691342413
 20
284.077584524841
 30
0
 42
0.03319036030491197
  0
VERTEX
  8
1
 10
269.6131179820552
 20
284.1062247422767
 30
0
 42
0.03460150905414032
  0
VERTEX
  8
1
 10
270.4189795676143
 20
284.2454832481618
 30
0
 42
0.03473851473767769
  0
VERTEX
  8
1
 10
271.1980538909183
 20
284.4953600424964
 30
0
 42
0.03357139695113547
  0
VERTEX
  8
1
 10
271.9503409519674
 20
284.8558551252804
 30
0
  0
VERTEX
  8
1
 10
272.3164392591463
 20
285.077584524841
 30
0
  0
SEQEND
  8
1
  0
POLYLINE
  8
1
 62
3
 66
1
  0
VERTEX
  8
1
 10
268.7804691342416
 20
291.077584524841
 30
0
 42
-0.05466041113362481
  0
VERTEX
  8
1
 10
269.8836942391593
 20
291.1509178641718
 30
0
 42
-0.05135122700122748
  0
VERTEX
  8
1
 10
270.9772438508018
 20
290.990536083537
 30
0
 42
-0.05006728031375698
  0
VERTEX
  8
1
 10
272.0163588136987
 20
290.6134566069843
 30
0
 42
-0.05119903610653968
  0
VERTEX
  8
1
 10
272.956279972379
 20
290.0366968585615
 30
0
 42
-0.0221633077743265
  0
VERTEX
  8
1
 10
273.513193242548
 20
289.5610813976447
 30
0
 42
0.003396894471830825
  0
VERTEX
  8
1
 10
274.0505662548088
 20
289.0661379389679
 30
0
 42
0.02951794661266335
  0
VERTEX
  8
1
 10
274.6123405695819
 20
288.6130909773776
 30
0
 42
0.0558877690766109
  0
VERTEX
  8
1
 10
275.2424577472879
 20
288.2631650077199
 30
0
 42
0.07410302475794077
  0
VERTEX
  8
1
 10
275.984859348347
 20
288.077584524841
 30
0
  0
SEQEND
  8
1
  0
POLYLINE
  8
1
 62
3
 66
1
  0
VERTEX
  8
1
 10
268.7804691342413
 20
290.077584524841
 30
0
 42
-0.03995606799202731
  0
VERTEX
  8
1
 10
269.8213753196122
 20
290.0981695303732
 30
0
 42
-0.04484345164739103
  0
VERTEX
  8
1
 10
270.7956940000884
 20
289.9479894829417
 30
0
 42
-0.04740704220151331
  0
VERTEX
  8
1
 10
271.7034251756699
 20
289.6270443825463
 30
0
 42
-0.04670923927625575
  0
VERTEX
  8
1
 10
272.5445688463565
 20
289.135334229187
 30
0
 42
-0.04301924621607976
  0
VERTEX
  8
1
 10
273.3191250121485
 20
288.472859022864
 30
0
  0
VERTEX
  8
1
 10
273.6814327807089
 20
288.077584524841
 30
0
  0
SEQEND
  8
1
  0
POLYLINE
  8
1
 62
3
 66
1
  0
VERTEX
  8
1
 10
268.7804691342413
 20
289.077584524841
 30
0
 42
-0.03245757378764744
  0
VERTEX
  8
1
 10
269.5929176236635
 20
289.0920720392797
 30
0
 42
-0.03477904893997983
  0
VERTEX
  8
1
 10
270.3740669046395
 20
288.9993157964989
 30
0
 42
-0.03591000814420023
  0
VERTEX
  8
1
 10
271.1239169771692
 20
288.799315796499
 30
0
 42
-0.0355965883234226
  0
VERTEX
  8
1
 10
271.8424678412528
 20
288.4920720392797
 30
0
 42
-0.03391144079502594
  0
VERTEX
  8
1
 10
272.5297194968899
 20
288.077584524841
 30
0
  0
SEQEND
  8
1
  0
ARC
  8
1
 62
3
 10
362.980772949128
 20
280.2824081065394
 30
0
 40
0.5
 50
180
 51
270
  0
ARC
  8
1
 62
3
 10
362.980772949128
 20
284.2824081065386
 30
0
 40
0.5
 50
90
 51
180
  0
ARC
  8
1
 62
3
 10
362.980772949128
 20
293.2824081065386
 30
0
 40
0.5
 50
180
 51
270
  0
ARC
  8
1
 62
3
 10
362.980772949128
 20
297.2824081065386
 30
0
 40
0.5
 50
90
 51
180
  0
ARC
  8
1
 62
3
 10
373.5807729491279
 20
297.2824081065386
 30
0
 40
0.5
 50
0
 51
90
  0
ARC
  8
1
 62
3
 10
373.5807729491277
 20
280.2824081065394
 30
0
 40
0.5
 50
270
 51
0
  0
ARC
  8
1
 62
3
 10
302.1433336913502
 20
131.347741332984
 30
0
 40
0.5
 50
90
 51
156.4218215218455
  0
ARC
  8
1
 62
3
 10
168.7368513433588
 20
157.8177413329838
 30
0
 40
1.669999999999988
 50
270
 51
0
  0
ARC
  8
1
 62
3
 10
165.0768513433587
 20
157.8177413329838
 30
0
 40
1.669999999999902
 50
180
 51
270
  0
ARC
  8
1
 62
3
 10
168.7168513433588
 20
157.8377413329838
 30
0
 40
0.6899999999999977
 50
270
 51
0
  0
ARC
  8
1
 62
3
 10
168.7168513433588
 20
157.8455019857491
 30
0
 40
0.6899999999999977
 50
0
 51
90
  0
ARC
  8
1
 62
3
 10
165.0968513433588
 20
157.8377413329838
 30
0
 40
0.6899999999999977
 50
180
 51
270
  0
ARC
  8
1
 62
3
 10
165.0968513433588
 20
157.8455019857491
 30
0
 40
0.6899999999999977
 50
90
 51
180
  0
ARC
  8
1
 62
3
 10
133.9068513433588
 20
129.8477413329838
 30
0
 40
7
 50
180
 51
270
  0
ARC
  8
1
 62
3
 10
199.9068513433588
 20
129.8477413329838
 30
0
 40
6.999999999999986
 50
270
 51
0
  0
ARC
  8
1
 62
3
 10
133.9068513433588
 20
195.8477413329838
 30
0
 40
7
 50
90
 51
180
  0
ARC
  8
1
 62
3
 10
199.9068513433588
 20
195.8477413329838
 30
0
 40
7
 50
0
 51
90
  0
ARC
  8
1
 62
3
 10
300.0630413262416
 20
122.9991213132885
 30
0
 40
0.2999999999999972
 50
270
 51
0
  0
ARC
  8
1
 62
3
 10
300.0230413262416
 20
122.9991213132887
 30
0
 40
0.2999999999999545
 50
180
 51
270
  0
ARC
  8
1
 62
3
 10
330.34303369135
 20
191.6477413329838
 30
0
 40
2.200000000000216
 50
0
 51
90
  0
ARC
  8
1
 62
3
 10
330.34303369135
 20
134.0477413329838
 30
0
 40
2.200000000000017
 50
270
 51
0
  0
ARC
  8
1
 62
3
 10
302.1433336913502
 20
194.3477413329841
 30
0
 40
0.5
 50
180
 51
270
  0
ARC
  8
1
 62
3
 10
456.4575897055304
 20
139.21069307455
 30
0
 40
0.8000000000000682
 50
180
 51
311.5783115319667
  0
ARC
  8
1
 62
3
 10
414.2575897055304
 20
139.1901844007897
 30
0
 40
0.8000000000000918
 50
228.2704652751513
 51
0
  0
ARC
  8
1
 62
3
 10
428.8575897055303
 20
193.465383306199
 30
0
 40
0.7999999999999479
 50
349.2722664569577
 51
0
  0
ARC
  8
1
 62
3
 10
428.8575897055303
 20
193.8741816702186
 30
0
 40
0.8000000000000114
 50
0
 51
101.832269048499
  0
ARC
  8
1
 62
3
 10
441.8575897055303
 20
193.8741816702186
 30
0
 40
0.7999999999999782
 50
78.16773095150104
 51
180
  0
ARC
  8
1
 62
3
 10
453.6575897055303
 20
131.3477548984318
 30
0
 40
2.000000000000057
 50
306.8698976458424
 51
0
  0
ARC
  8
1
 62
3
 10
406.3575897055302
 20
133.8477413329833
 30
0
 40
3
 50
0
 51
90
  0
ARC
  8
1
 62
3
 10
406.3575897055302
 20
191.8477413329838
 30
0
 40
3
 50
270
 51
0
  0
ARC
  8
1
 62
3
 10
464.3575897055303
 20
133.8477413329832
 30
0
 40
3
 50
90
 51
180
  0
ARC
  8
1
 62
3
 10
464.3575897055303
 20
191.8477413329838
 30
0
 40
3
 50
180
 51
270
  0
ARC
  8
1
 62
3
 10
398.8575897055302
 20
187.3477413329838
 30
0
 40
1.5
 50
90
 51
180
  0
ARC
  8
1
 62
3
 10
410.8575897055302
 20
199.3477413329837
 30
0
 40
1.5
 50
90
 51
180
  0
ARC
  8
1
 62
3
 10
459.8575897055303
 20
199.3477413329837
 30
0
 40
1.5
 50
0
 51
90
  0
ARC
  8
1
 62
3
 10
471.8575897055303
 20
187.3477413329838
 30
0
 40
1.5
 50
0
 51
90
  0
ARC
  8
1
 62
3
 10
471.8575897055303
 20
138.3477413329832
 30
0
 40
1.5
 50
270
 51
0
  0
ARC
  8
1
 62
3
 10
398.8575897055302
 20
138.3477413329833
 30
0
 40
1.5
 50
180
 51
270
  0
ARC
  8
1
 62
3
 10
410.8575897055302
 20
124.5977413329833
 30
0
 40
1.5
 50
180
 51
270
  0
ARC
  8
1
 62
3
 10
459.8575897055303
 20
124.5977413329832
 30
0
 40
1.5
 50
270
 51
0
  0
ARC
  8
1
 62
3
 10
417.0575897055304
 20
131.3477548984324
 30
0
 40
2
 50
180
 51
233.1301023541555
  0
ARC
  8
1
 62
3
 10
453.8575897055294
 20
123.8477413329838
 30
0
 40
1.000000000000995
 50
270
 51
0
  0
ARC
  8
1
 62
3
 10
416.8575897055303
 20
123.8477413329839
 30
0
 40
1
 50
180
 51
270
  0
ARC
  8
1
 62
3
 10
440.2475897055304
 20
194.8377413329837
 30
0
 40
0.009999999999990905
 50
0
 51
90
  0
ARC
  8
1
 62
3
 10
430.4675897055307
 20
194.8377413329837
 30
0
 40
0.009999999999990905
 50
90
 51
180
  0
ARC
  8
1
 62
3
 10
453.0209859754792
 20
126.3641958483587
 30
0
 40
0.03119999999986621
 50
45.00000000042443
 51
97.45844905641599
  0
ARC
  8
1
 62
3
 10
452.8941903402444
 20
126.3641958483587
 30
0
 40
0.03120000000017999
 50
82.54155094379101
 51
134.9999999998708
  0
ARC
  8
1
 62
3
 10
453.4418559316414
 20
126.9118614397556
 30
0
 40
0.03120000000015762
 50
135.0000000000738
 51
187.4584490561046
  0
ARC
  8
1
 62
3
 10
453.4418559316414
 20
126.785065804521
 30
0
 40
0.03119999999995757
 50
172.5415509438955
 51
224.9999999999262
  0
ARC
  8
1
 62
3
 10
452.8941903402444
 20
127.3327313959179
 30
0
 40
0.03120000000003704
 50
225.0000000001477
 51
277.4584490562056
  0
ARC
  8
1
 62
3
 10
453.0209859754792
 20
127.3327313959179
 30
0
 40
0.03120000000020884
 50
262.5415509435874
 51
314.9999999994834
  0
ARC
  8
1
 62
3
 10
452.4733203840823
 20
126.785065804521
 30
0
 40
0.03119999999999684
 50
314.9999999997786
 51
7.458449056145187
  0
ARC
  8
1
 62
3
 10
452.4733203840823
 20
126.9118614397556
 30
0
 40
0.03119999999978848
 50
352.5415509438549
 51
45.00000000022143
  0
ARC
  8
1
 62
3
 10
417.8209890708166
 20
126.3641958483588
 30
0
 40
0.03120000000010738
 50
44.99999999998155
 51
97.45844905610548
  0
ARC
  8
1
 62
3
 10
417.6941934355819
 20
126.3641958483588
 30
0
 40
0.03120000000020951
 50
82.541550943377
 51
134.9999999997232
  0
ARC
  8
1
 62
3
 10
418.2418590269788
 20
126.9118614397557
 30
0
 40
0.03120000000007723
 50
134.9999999999262
 51
187.4584490560775
  0
ARC
  8
1
 62
3
 10
418.2418590269788
 20
126.7850658045211
 30
0
 40
0.03120000000007214
 50
172.5415509438967
 51
225.0000000000738
  0
ARC
  8
1
 62
3
 10
417.6941934355819
 20
127.332731395918
 30
0
 40
0.03119999999995665
 50
225.0000000002952
 51
277.4584490566196
  0
ARC
  8
1
 62
3
 10
417.8209890708166
 20
127.332731395918
 30
0
 40
0.0312000000001867
 50
262.541550943898
 51
314.9999999997047
  0
ARC
  8
1
 62
3
 10
417.2733234794198
 20
126.7850658045211
 30
0
 40
0.03119999999999684
 50
314.9999999997786
 51
7.458449056171063
  0
ARC
  8
1
 62
3
 10
417.2733234794198
 20
126.9118614397557
 30
0
 40
0.03119999999978848
 50
352.5415509438549
 51
45.00000000022143
  0
ARC
  8
1
 62
3
 10
441.8575897055303
 20
193.465383306199
 30
0
 40
0.7999999999998977
 50
180
 51
190.7103357656713
  0
ARC
  8
1
 62
3
 10
448.045872488539
 20
175.6204673326567
 30
0
 40
1
 50
270
 51
0
  0
ARC
  8
1
 62
3
 10
448.045872488539
 20
185.6204673326567
 30
0
 40
1
 50
0
 51
90
  0
ARC
  8
1
 62
3
 10
422.0458724885392
 20
185.6204673326567
 30
0
 40
1
 50
90
 51
180
  0
ARC
  8
1
 62
3
 10
422.0458724885392
 20
175.6204673326567
 30
0
 40
1
 50
180
 51
270
  0
ARC
  8
1
 62
3
 10
302.1433336913503
 20
28.033369883454
 30
0
 40
0.5
 50
90
 51
156.421821521851
  0
ARC
  8
1
 62
3
 10
330.3430336913501
 20
88.33336988345378
 30
0
 40
2.200000000000102
 50
0
 51
90
  0
ARC
  8
1
 62
3
 10
330.3430336913501
 20
30.73336988345388
 30
0
 40
2.200000000000109
 50
270
 51
0
  0
ARC
  8
1
 62
3
 10
302.1433336913503
 20
91.03336988345406
 30
0
 40
0.5
 50
180
 51
270
  0
ARC
  8
1
 62
3
 10
302.1433336913503
 20
28.033369883454
 30
0
 40
0.5
 50
90
 51
180.0000000000586
  0
ARC
  8
1
 62
3
 10
402.3582034782639
 20
195.8477413329838
 30
0
 40
7
 50
90
 51
180
  0
ARC
  8
1
 62
3
 10
468.3582034782639
 20
195.8477413329838
 30
0
 40
7
 50
0
 51
90
  0
ARC
  8
1
 62
3
 10
468.3582034782639
 20
129.8477413329838
 30
0
 40
6.999999999999986
 50
270
 51
0
  0
ARC
  8
1
 62
3
 10
402.3582034782639
 20
129.8477413329838
 30
0
 40
7
 50
180
 51
270
  0
TEXT
  8
1
 62
2
 10
377.6807729491279
 20
276.3424081065394
 30
0
 40
3.199999999999997
  1
1
 50
90
 41
0.9000000000000015
 72
1
 73
2
 11
376.0807729491279
 21
277.7824081065394
 31
0
  0
TEXT
  8
1
 62
2
 10
377.6807729491277
 20
298.3424081065386
 30
0
 40
3.199999999999997
  1
4
 50
90
 41
0.9000000000000015
 72
1
 73
2
 11
376.0807729491277
 21
299.7824081065386
 31
0
  0
TEXT
  8
1
 62
2
 10
362.0807729491278
 20
276.3424081065394
 30
0
 40
3.199999999999997
  1
5
 50
90
 41
0.9000000000000015
 72
1
 73
2
 11
360.4807729491278
 21
277.7824081065394
 31
0
  0
TEXT
  8
1
 62
2
 10
362.080772949128
 20
298.3424081065386
 30
0
 40
3.199999999999997
  1
8
 50
90
 41
0.9000000000000015
 72
1
 73
2
 11
360.480772949128
 21
299.7824081065386
 31
0
  0
TEXT
  8
1
 62
2
 10
240.4804691342413
 20
269.137584524841
 30
0
 40
3.199999999999997
  1
1
 50
90
 41
0.9000000000000015
 72
1
 73
2
 11
238.8804691342413
 21
270.577584524841
 31
0
  0
TEXT
  8
1
 62
2
 10
240.4804691342413
 20
299.697584524841
 30
0
 40
3.199999999999997
  1
11
 50
90
 41
0.9000000000000015
 72
1
 73
2
 11
238.8804691342413
 21
302.577584524841
 31
0
  0
TEXT
  8
1
 62
2
 10
281.6202033156962
 20
257.9682118652969
 30
0
 40
4
  1
付属ケーブル
 41
0.9
  0
TEXT
  8
1
 62
2
 10
270.4201007210991
 20
-11.75341075729054
 30
0
 40
5
  1
FY8PF25H-D3
 41
0.9
  0
TEXT
  8
1
 62
2
 10
303.9182340833203
 20
50.01044951131476
 30
0
 40
3
  1
11
 50
270
 41
0.9
 72
1
 73
2
 11
305.4182340833203
 21
47.31044951131476
 31
0
  0
TEXT
  8
1
 62
2
 10
303.8318014053126
 20
74.42422917108796
 30
0
 40
3
  1
1
 50
270
 41
0.9
 72
1
 73
2
 11
305.3318014053126
 21
73.07422917108796
 31
0
  0
ENDSEC
  0
EOF
