  0
SECTION
  2
HEADER
  9
$ACADVER
  1
AC1009
  9
$INSBASE
 10
0
 20
0
  9
$EXTMIN
 10
125.3057920024573
 20
-20.1934670713969
  9
$EXTMAX
 10
498.7294538880157
 20
299.9860049101119
  9
$LIMMIN
 10
125.3057920024573
 20
-20.1934670713969
  9
$LIMMAX
 10
498.7294538880157
 20
299.9860049101119
  9
$VIEWCTR
 10
10
 20
10
  9
$VIEWSIZE
 40
10
  9
$SNAPMODE
 70
0
  9
$SNAPUNIT
 10
1
 20
1
  9
$SNAPBASE
 10
0
 20
0
  9
$SNAPANG
 50
0
  9
$SNAPSTYLE
 70
0
  9
$SNAPISOPAIR
 70
0
  9
$GRIDMODE
 70
0
  9
$GRIDUNIT
 10
0
 20
0
  9
$ORTHOMODE
 70
0
  9
$REGENMODE
 70
1
  9
$FILLMODE
 70
1
  9
$QTEXTMODE
 70
0
  9
$DRAGMODE
 70
2
  9
$LTSCALE
 40
1
  9
$OSMODE
 70
0
  9
$ATTMODE
 70
1
  9
$TEXTSIZE
 40
3.5
  9
$TRACEWID
 40
0.5
  9
$TEXTSTYLE
  7
STANDARD
  9
$CLAYER
  8
0
  9
$CELTYPE
  6
BYLAYER
  9
$CECOLOR
 62
256
  9
$DIMSCALE
 40
1
  9
$DIMASZ
 40
0.18
  9
$DIMEXO
 40
0.0625
  9
$DIMDLI
 40
0.38
  9
$DIMRND
 40
0
  9
$DIMDLE
 40
0
  9
$DIMEXE
 40
0.18
  9
$DIMTP
 40
0
  9
$DIMTM
 40
0
  9
$DIMTXT
 40
0.18
  9
$DIMCEN
 40
0.09
  9
$DIMTSZ
 40
0
  9
$DIMTOL
 70
0
  9
$DIMLIM
 70
0
  9
$DIMTIH
 70
1
  9
$DIMTOH
 70
1
  9
$DIMSE1
 70
0
  9
$DIMSE2
 70
0
  9
$DIMTAD
 70
0
  9
$DIMZIN
 70
0
  9
$DIMBLK
  1

  9
$DIMASO
 70
1
  9
$DIMSHO
 70
1
  9
$DIMPOST
  1

  9
$DIMAPOST
  1

  9
$DIMALT
 70
0
  9
$DIMALTD
 70
2
  9
$DIMALTF
 40
25.4
  9
$DIMLFAC
 40
1
  9
$DIMTOFL
 70
0
  9
$DIMTVP
 40
0
  9
$DIMTIX
 70
0
  9
$DIMSOXD
 70
0
  9
$DIMSAH
 70
0
  9
$DIMBLK1
  1

  9
$DIMBLK2
  1

  9
$DIMSTYLE
  2
*UNNAMED
  9
$DIMCLRD
 70
0
  9
$DIMCLRE
 70
0
  9
$DIMCLRT
 70
0
  9
$DIMTFAC
 40
1
  9
$DIMGAP
 40
0.09
  9
$LUNITS
 70
2
  9
$LUPREC
 70
4
  9
$AXISMODE
 70
0
  9
$AXISUNIT
 10
0
 20
0
  9
$SKETCHINC
 40
0.1
  9
$FILLETRAD
 40
2
  9
$AUNITS
 70
0
  9
$AUPREC
 70
0
  9
$MENU
  1
ACAD
  9
$ELEVATION
 40
0
  9
$THICKNESS
 40
0
  9
$VIEWDIR
 10
0
 20
0
 30
1
  9
$LIMCHECK
 70
0
  9
$BLIPMODE
 70
1
  9
$CHAMFERA
 40
0
  9
$CHAMFERB
 40
0
  9
$FASTZOOM
 70
1
  9
$SKPOLY
 70
0
  9
$ANGBASE
 50
0
  9
$ANGDIR
 70
0
  9
$PDMODE
 70
0
  9
$PDSIZE
 40
0
  9
$PLINEWID
 40
0
  9
$COORDS
 70
2
  0
ENDSEC
  0
SECTION
  2
TABLES
  0
TABLE
  2
DIMSTYLE
 70
0
  0
ENDTAB
  0
TABLE
  2
LTYPE
 70
9
  0
LTYPE
  2
CONTINUOUS
 70
64
  3
Solid line
 72
65
 73
0
 40
0
  0
LTYPE
  2
BORDER
 70
64
  3
__ __ . __ __ .
 72
65
 73
6
 40
17.19714232367704
 49
4.913469235336295
 49
-2.456734617668148
 49
4.913469235336295
 49
-2.456734617668148
 49
0
 49
-2.456734617668148
  0
LTYPE
  2
CENTER
 70
64
  3
____ _ ____ _
 72
65
 73
4
 40
19.65387694134518
 49
12.28367308834074
 49
-2.456734617668148
 49
2.456734617668148
 49
-2.456734617668148
  0
LTYPE
  2
DASHDOT
 70
64
  3
__ . __ . __ .
 72
65
 73
4
 40
9.826938470672591
 49
4.913469235336295
 49
-2.456734617668148
 49
0
 49
-2.456734617668148
  0
LTYPE
  2
DASHED
 70
64
  3
__ __ __ __ __
 72
65
 73
2
 40
7.370203853004443
 49
4.913469235336295
 49
-2.456734617668148
  0
LTYPE
  2
DIVIDE
 70
64
  3
__ . . __ . . 
 72
65
 73
6
 40
12.28367308834074
 49
4.913469235336295
 49
-2.456734617668148
 49
0
 49
-2.456734617668148
 49
0
 49
-2.456734617668148
  0
LTYPE
  2
DOT
 70
64
  3
..............
 72
65
 73
4
 40
4.913469235336295
 49
0
 49
-2.456734617668148
 49
0
 49
-2.456734617668148
  0
LTYPE
  2
HIDDEN
 70
64
  3
_ _ _ _ _ _ _
 72
65
 73
2
 40
3.685101926502222
 49
2.456734617668148
 49
-1.228367308834074
  0
LTYPE
  2
PHANTOM
 70
64
  3
_____ _ _ _____ _ _ 
 72
65
 73
6
 40
24.56734617668148
 49
12.28367308834074
 49
-2.456734617668148
 49
2.456734617668148
 49
-2.456734617668148
 49
2.456734617668148
 49
-2.456734617668148
  0
ENDTAB
  0
TABLE
  2
LAYER
 70
4
  0
LAYER
  2
1
 70
0
 62
7
  6
CONTINUOUS
  0
LAYER
  2
2
 70
0
 62
7
  6
CONTINUOUS
  0
LAYER
  2
0
 70
0
 62
7
  6
CONTINUOUS
  0
ENDTAB
  0
TABLE
  2
STYLE
 70
4
  0
STYLE
  2
STANDARD
 70
0
 40
0
 41
1
 50
0
 71
0
 42
3.5
  3
txt
  4

  0
STYLE
  2
SIMPLEX
 70
0
 40
0
 41
1
 50
0
 71
0
 42
3.5
  3
simplex
  4

  0
STYLE
  2
COMPLEX
 70
0
 40
0
 41
1
 50
0
 71
0
 42
3.5
  3
complex
  4

  0
STYLE
  2
ITALIC
 70
0
 40
0
 41
1
 50
0
 71
0
 42
3.5
  3
italic
  4

  0
ENDTAB
  0
TABLE
  2
VIEW
 70
0
  0
ENDTAB
  0
ENDSEC
  0
SECTION
  2
BLOCKS
  0
ENDSEC
  0
SECTION
  2
ENTITIES
  0
LINE
  8
1
 62
3
 10
444.0788934573073
 20
122.8477413329828
 30
0
 11
424.6795072300409
 21
122.8477413329838
 31
0
  0
LINE
  8
1
 62
3
 10
490.6795072300409
 20
122.8477413329838
 30
0
 11
472.0788934573073
 21
122.8477413329828
 31
0
  0
LINE
  8
1
 62
3
 10
417.6795072300409
 20
129.8477413329838
 30
0
 11
417.6795072300409
 21
162.8477413329838
 31
0
  0
LINE
  8
1
 62
3
 10
497.6795072300409
 20
129.8477413329838
 30
0
 11
497.6795072300409
 21
162.8477413329838
 31
0
  0
LINE
  8
1
 62
3
 10
497.6795072300409
 20
162.8477413329838
 30
0
 11
497.6795072300409
 21
195.8477413329838
 31
0
  0
LINE
  8
1
 62
3
 10
424.6795072300409
 20
202.8477413329838
 30
0
 11
490.6795072300409
 21
202.8477413329838
 31
0
  0
LINE
  8
1
 62
3
 10
417.6795072300409
 20
162.8477413329838
 30
0
 11
417.6795072300409
 21
195.8477413329838
 31
0
  0
LINE
  8
1
 62
3
 10
300.4433336913502
 20
131.5477413329836
 30
0
 11
300.4433336913502
 21
192.2477413329838
 31
0
  0
LINE
  8
1
 62
3
 10
294.0430336913499
 20
125.5977413329839
 30
0
 11
295.5430336913499
 21
125.5977413329839
 31
0
  0
LINE
  8
1
 62
3
 10
294.0430336913499
 20
133.5977413329839
 30
0
 11
295.5430336913499
 21
133.5977413329839
 31
0
  0
LINE
  8
1
 62
3
 10
294.0430336913499
 20
136.8477413329833
 30
0
 11
295.5430336913499
 21
136.8477413329833
 31
0
  0
LINE
  8
1
 62
3
 10
294.0430336913499
 20
188.8477413329839
 30
0
 11
295.5430336913499
 21
188.8477413329839
 31
0
  0
LINE
  8
1
 62
3
 10
294.0430336913499
 20
192.0977413329839
 30
0
 11
295.5430336913499
 21
192.0977413329839
 31
0
  0
LINE
  8
1
 62
3
 10
294.0430336913499
 20
200.0977413329839
 30
0
 11
295.5430336913499
 21
200.0977413329839
 31
0
  0
LINE
  8
1
 62
3
 10
294.0430336913499
 20
200.8477413329839
 30
0
 11
294.0430336913499
 21
122.8477413329837
 31
0
  0
LINE
  8
1
 62
3
 10
295.5430336913499
 20
200.8477413329839
 30
0
 11
294.0430336913499
 21
200.8477413329839
 31
0
  0
LINE
  8
1
 62
3
 10
294.0430336913499
 20
202.8477413329841
 30
0
 11
294.0430336913499
 21
200.8477413329839
 31
0
  0
LINE
  8
1
 62
3
 10
297.1430336913499
 20
123.295070388689
 30
0
 11
297.1430336913499
 21
138.0477845232442
 31
0
  0
LINE
  8
1
 62
3
 10
295.5430336913499
 20
123.295070388689
 30
0
 11
297.1430336913499
 21
123.295070388689
 31
0
  0
LINE
  8
1
 62
3
 10
167.9068513433588
 20
156.1477413329838
 30
0
 11
168.7368513433589
 21
156.1477413329838
 31
0
  0
LINE
  8
1
 62
3
 10
165.9068513433588
 20
157.1477413329838
 30
0
 11
165.0968513433588
 21
157.1477413329838
 31
0
  0
LINE
  8
1
 62
3
 10
167.9068513433588
 20
158.5355019857491
 30
0
 11
168.7168513433588
 21
158.5355019857491
 31
0
  0
LINE
  8
1
 62
3
 10
167.9068513433588
 20
157.1477413329838
 30
0
 11
167.9068513433588
 21
156.1477413329838
 31
0
  0
LINE
  8
1
 62
3
 10
165.9068513433588
 20
157.1477413329838
 30
0
 11
165.9068513433588
 21
156.1477413329838
 31
0
  0
LINE
  8
1
 62
3
 10
167.9068513433588
 20
159.5013263156534
 30
0
 11
167.9068513433588
 21
158.5355019857491
 31
0
  0
LINE
  8
1
 62
3
 10
165.9068513433588
 20
159.5013263156534
 30
0
 11
165.9068513433588
 21
158.5355019857491
 31
0
  0
LINE
  8
1
 62
3
 10
163.4068513433588
 20
159.7108639047122
 30
0
 11
163.4068513433588
 21
157.8177413329838
 31
0
  0
LINE
  8
1
 62
3
 10
164.4068513433588
 20
157.8377413329838
 30
0
 11
164.4068513433588
 21
157.8455019857491
 31
0
  0
LINE
  8
1
 62
3
 10
168.7168513433589
 20
157.1477413329838
 30
0
 11
167.9068513433588
 21
157.1477413329838
 31
0
  0
LINE
  8
1
 62
3
 10
169.4068513433588
 20
157.8455019857491
 30
0
 11
169.4068513433588
 21
157.8377413329838
 31
0
  0
LINE
  8
1
 62
3
 10
165.0968513433589
 20
158.5355019857491
 30
0
 11
165.9068513433588
 21
158.5355019857491
 31
0
  0
LINE
  8
1
 62
3
 10
170.4068513433588
 20
157.8177413329838
 30
0
 11
170.4068513433588
 21
159.7108639047121
 31
0
  0
LINE
  8
1
 62
3
 10
165.0768513433588
 20
156.1477413329838
 30
0
 11
165.9068513433588
 21
156.1477413329838
 31
0
  0
LINE
  8
1
 62
3
 10
295.5430336913499
 20
138.0477845232444
 30
0
 11
299.5430336913507
 21
138.047784523244
 31
0
  0
LINE
  8
1
 62
3
 10
295.5430336913499
 20
122.8477413329837
 30
0
 11
295.5430336913499
 21
194.1251063359097
 31
0
  0
LINE
  8
1
 62
3
 10
199.9068513433588
 20
122.8477413329838
 30
0
 11
133.9068513433588
 21
122.8477413329838
 31
0
  0
LINE
  8
1
 62
1
 10
200.1568513433588
 20
125.1575652462223
 30
0
 11
200.1568513433588
 21
134.0379174197452
 31
0
  0
LINE
  8
1
 62
1
 10
204.5970274301202
 20
129.5977413329836
 30
0
 11
195.7166752565973
 21
129.5977413329838
 31
0
  0
LINE
  8
1
 62
1
 10
129.2166752565974
 20
129.5977413329838
 30
0
 11
138.0970274301204
 21
129.5977413329838
 31
0
  0
LINE
  8
1
 62
1
 10
133.6568513433588
 20
125.1575652462223
 30
0
 11
133.6568513433588
 21
134.0379174197453
 31
0
  0
LINE
  8
1
 62
3
 10
126.9068513433588
 20
162.8477413329838
 30
0
 11
126.9068513433588
 21
129.8477413329838
 31
0
  0
LINE
  8
1
 62
3
 10
206.9068513433588
 20
162.8477413329838
 30
0
 11
206.9068513433588
 21
129.8477413329838
 31
0
  0
LINE
  8
1
 62
3
 10
133.9068513433588
 20
202.8477413329838
 30
0
 11
199.9068513433588
 21
202.8477413329838
 31
0
  0
LINE
  8
1
 62
1
 10
200.1568513433588
 20
191.6575652462222
 30
0
 11
200.1568513433588
 21
200.5379174197452
 31
0
  0
LINE
  8
1
 62
1
 10
195.7166752565973
 20
196.0977413329838
 30
0
 11
204.5970274301202
 21
196.0977413329838
 31
0
  0
LINE
  8
1
 62
1
 10
138.0970274301204
 20
196.0977413329838
 30
0
 11
129.2166752565974
 21
196.0977413329838
 31
0
  0
LINE
  8
1
 62
1
 10
133.6568513433588
 20
191.6575652462223
 30
0
 11
133.6568513433588
 21
200.5379174197453
 31
0
  0
LINE
  8
1
 62
3
 10
126.9068513433588
 20
195.8477413329838
 30
0
 11
126.9068513433588
 21
162.8477413329838
 31
0
  0
LINE
  8
1
 62
3
 10
206.9068513433588
 20
195.8477413329838
 30
0
 11
206.9068513433588
 21
162.8477413329838
 31
0
  0
LINE
  8
1
 62
1
 10
166.9068513433588
 20
162.8477413329838
 30
0
 11
166.9068513433588
 21
204.4488006738852
 31
0
  0
LINE
  8
1
 62
1
 10
200.4068513433588
 20
162.8477413329838
 30
0
 11
203.5568513433588
 21
162.8477413329838
 31
0
  0
LINE
  8
1
 62
1
 10
203.5568513433588
 20
162.8477413329838
 30
0
 11
210.877739748226
 21
162.8477413329838
 31
0
  0
LINE
  8
1
 62
1
 10
161.1068513433589
 20
162.8477413329838
 30
0
 11
177.9068513433588
 21
162.8477413329838
 31
0
  0
LINE
  8
1
 62
1
 10
166.9068513433588
 20
115.4478658015628
 30
0
 11
166.9068513433588
 21
162.8477413329838
 31
0
  0
LINE
  8
1
 62
1
 10
125.3057920024573
 20
162.8477413329838
 30
0
 11
153.256851343359
 21
162.8477413329838
 31
0
  0
LINE
  8
1
 62
1
 10
177.9068513433588
 20
162.8477413329838
 30
0
 11
200.4068513433588
 21
162.8477413329838
 31
0
  0
LINE
  8
1
 62
1
 10
153.7068513433588
 20
162.8477413329838
 30
0
 11
161.1068513433589
 21
162.8477413329838
 31
0
  0
LINE
  8
1
 62
1
 10
265.249897970515
 20
162.8477413329838
 30
0
 11
331.9430336913502
 21
162.8477413329838
 31
0
  0
LINE
  8
1
 62
3
 10
284.5430336913499
 20
196.3477413329837
 30
0
 11
284.5430336913499
 21
166.3477413329836
 31
0
  0
LINE
  8
1
 62
3
 10
284.5430336913499
 20
198.9977413329838
 30
0
 11
284.5430336913499
 21
196.3477413329837
 31
0
  0
LINE
  8
1
 62
3
 10
284.8930336913498
 20
199.3477413329837
 30
0
 11
287.5430336913499
 21
199.3477413329837
 31
0
  0
LINE
  8
1
 62
3
 10
284.5430336913499
 20
198.9977413329838
 30
0
 11
284.8930336913498
 21
199.3477413329837
 31
0
  0
LINE
  8
1
 62
3
 10
287.5430336913501
 20
202.8477413329842
 30
0
 11
287.5430336913499
 21
199.3477413329837
 31
0
  0
LINE
  8
1
 62
3
 10
284.5430336913499
 20
129.3477413329835
 30
0
 11
284.5430336913499
 21
126.6977413329836
 31
0
  0
LINE
  8
1
 62
3
 10
287.5430336913499
 20
126.3477413329836
 30
0
 11
284.8930336913498
 21
126.3477413329836
 31
0
  0
LINE
  8
1
 62
3
 10
284.5430336913499
 20
126.6977413329836
 30
0
 11
284.8930336913498
 21
126.3477413329836
 31
0
  0
LINE
  8
1
 62
3
 10
287.5430336913499
 20
126.3477413329836
 30
0
 11
287.5430336913499
 21
122.8477413329838
 31
0
  0
LINE
  8
1
 62
3
 10
287.5430336913499
 20
122.8477413329838
 30
0
 11
295.5430336913499
 21
122.8477413329837
 31
0
  0
LINE
  8
1
 62
3
 10
284.5430336913499
 20
166.3477413329836
 30
0
 11
284.5430336913499
 21
129.3477413329835
 31
0
  0
LINE
  8
1
 62
3
 10
295.5430336913499
 20
194.1251063359097
 30
0
 11
295.5430336913499
 21
200.8477413329839
 31
0
  0
LINE
  8
1
 62
3
 10
287.5430336913501
 20
202.8477413329842
 30
0
 11
294.0430336913499
 21
202.8477413329841
 31
0
  0
LINE
  8
1
 62
3
 10
180.9068513433588
 20
120.8477413329838
 30
0
 11
152.9068513433588
 21
120.8477413329838
 31
0
  0
LINE
  8
1
 62
3
 10
287.5430336913499
 20
199.3477413329837
 30
0
 11
287.5430336913499
 21
126.3477413329836
 31
0
  0
LINE
  8
1
 62
3
 10
299.5430336913507
 20
194.9608227796468
 30
0
 11
299.5430336913507
 21
138.047784523244
 31
0
  0
LINE
  8
1
 62
3
 10
303.0430413262416
 20
126.547741332984
 30
0
 11
303.0430413262416
 21
121.8477413329835
 31
0
  0
LINE
  8
1
 62
3
 10
301.8276085809763
 20
121.8477413329835
 30
0
 11
301.8276085809763
 21
126.547741332984
 31
0
  0
LINE
  8
1
 62
3
 10
303.0430413262416
 20
121.8477413329835
 30
0
 11
301.8276085809763
 21
121.8477413329835
 31
0
  0
LINE
  8
1
 62
3
 10
299.7230413262416
 20
122.9991213132887
 30
0
 11
299.7230413262416
 21
126.547741332984
 31
0
  0
LINE
  8
1
 62
3
 10
301.8276085809763
 20
126.8477413329835
 30
0
 11
300.3630413262415
 21
126.8477413329835
 31
0
  0
LINE
  8
1
 62
3
 10
300.0630413262416
 20
122.6991213132885
 30
0
 11
300.0230413262415
 21
122.6991213132885
 31
0
  0
LINE
  8
1
 62
3
 10
300.3630413262415
 20
122.9991213132885
 30
0
 11
300.3630413262415
 21
126.547741332984
 31
0
  0
LINE
  8
1
 62
3
 10
299.7230413262416
 20
126.547741332984
 30
0
 11
299.7230413262416
 21
126.8477413329835
 31
0
  0
LINE
  8
1
 62
3
 10
300.3630413262415
 20
126.547741332984
 30
0
 11
300.3630413262415
 21
126.8477413329835
 31
0
  0
LINE
  8
1
 62
3
 10
301.8276085809763
 20
126.547741332984
 30
0
 11
301.8276085809763
 21
126.8477413329835
 31
0
  0
LINE
  8
1
 62
3
 10
299.7230413262416
 20
126.8477413329835
 30
0
 11
300.3630413262415
 21
126.8477413329835
 31
0
  0
LINE
  8
1
 62
3
 10
299.7230413262416
 20
126.8477413329835
 30
0
 11
298.6680413262412
 21
126.8477413329835
 31
0
  0
LINE
  8
1
 62
3
 10
303.0430413262416
 20
131.5477413329836
 30
0
 11
303.0430413262416
 21
126.547741332984
 31
0
  0
LINE
  8
1
 62
3
 10
297.1430336913499
 20
131.5477413329836
 30
0
 11
303.0430413262416
 21
131.5477413329836
 31
0
  0
LINE
  8
1
 62
3
 10
299.5430336913507
 20
194.9608227796468
 30
0
 11
295.5430336913499
 21
194.9608227796467
 31
0
  0
LINE
  8
1
 62
3
 10
297.9554667883003
 20
128.9484636221385
 30
0
 11
297.1430336913499
 21
128.9484636221386
 31
0
  0
LINE
  8
1
 62
3
 10
297.1430336913499
 20
124.7484636221384
 30
0
 11
297.9554667883002
 21
124.7484636221385
 31
0
  0
LINE
  8
1
 62
3
 10
298.8430413262412
 20
127.2109636221383
 30
0
 11
298.6680413262412
 21
127.2109636221383
 31
0
  0
LINE
  8
1
 62
3
 10
298.6680413262412
 20
127.2109636221383
 30
0
 11
298.6680413262412
 21
126.4859636221384
 31
0
  0
LINE
  8
1
 62
3
 10
298.6680413262412
 20
126.4859636221384
 30
0
 11
298.8430413262412
 21
126.4859636221384
 31
0
  0
LINE
  8
1
 62
3
 10
190.735278468105
 20
122.8477413329838
 30
0
 11
189.9068513433588
 21
122.8477413329838
 31
0
  0
LINE
  8
1
 62
3
 10
143.9068513433588
 20
122.8477413329838
 30
0
 11
142.2499970938664
 21
122.8477413329838
 31
0
  0
LINE
  8
1
 62
3
 10
166.9068513433588
 20
122.8477413329838
 30
0
 11
143.9068513433588
 21
122.8477413329838
 31
0
  0
LINE
  8
1
 62
3
 10
189.9068513433588
 20
122.8477413329838
 30
0
 11
166.9068513433588
 21
122.8477413329838
 31
0
  0
LINE
  8
1
 62
3
 10
180.9068513433588
 20
122.8477413329838
 30
0
 11
180.9068513433588
 21
120.8477413329838
 31
0
  0
LINE
  8
1
 62
3
 10
152.9068513433588
 20
122.8477413329838
 30
0
 11
152.9068513433588
 21
120.8477413329838
 31
0
  0
LINE
  8
1
 62
3
 10
326.5430336913502
 20
190.4477413329838
 30
0
 11
326.5430336913502
 21
168.8477413329838
 31
0
  0
LINE
  8
1
 62
3
 10
326.5430336913502
 20
191.6477413329838
 30
0
 11
326.5430336913502
 21
190.4477413329838
 31
0
  0
LINE
  8
1
 62
3
 10
326.5430336913502
 20
162.8477413329838
 30
0
 11
326.5430336913502
 21
168.8477413329838
 31
0
  0
LINE
  8
1
 62
3
 10
326.5430336913502
 20
156.8477413329838
 30
0
 11
326.5430336913502
 21
135.2477413329838
 31
0
  0
LINE
  8
1
 62
3
 10
324.34303369135
 20
131.8477413329838
 30
0
 11
302.1433336913502
 21
131.847741332984
 31
0
  0
LINE
  8
1
 62
3
 10
326.5430336913502
 20
135.2477413329838
 30
0
 11
326.5430336913502
 21
134.0477413329838
 31
0
  0
LINE
  8
1
 62
3
 10
326.5430336913502
 20
156.8477413329838
 30
0
 11
326.5430336913502
 21
162.8477413329838
 31
0
  0
LINE
  8
1
 62
3
 10
326.9430336913499
 20
158.547741332984
 30
0
 11
326.9430336913499
 21
157.1477413329838
 31
0
  0
LINE
  8
1
 62
3
 10
326.64303369135
 20
168.8477413329841
 30
0
 11
326.5430336913502
 21
168.8477413329838
 31
0
  0
LINE
  8
1
 62
3
 10
326.9430336913499
 20
168.547741332984
 30
0
 11
326.9430336913499
 21
167.1477413329838
 31
0
  0
LINE
  8
1
 62
3
 10
326.9430336913499
 20
158.547741332984
 30
0
 11
326.9430336913499
 21
167.1477413329838
 31
0
  0
LINE
  8
1
 62
3
 10
326.64303369135
 20
168.8477413329841
 30
0
 11
326.9430336913499
 21
168.547741332984
 31
0
  0
LINE
  8
1
 62
3
 10
326.9430336913499
 20
157.1477413329838
 30
0
 11
326.64303369135
 21
156.8477413329838
 31
0
  0
LINE
  8
1
 62
3
 10
326.9430336913501
 20
166.6477413329839
 30
0
 11
326.9430336913499
 21
159.0477413329839
 31
0
  0
LINE
  8
1
 62
3
 10
326.5430336913502
 20
156.8477413329838
 30
0
 11
326.64303369135
 21
156.8477413329838
 31
0
  0
LINE
  8
1
 62
3
 10
299.5430336913507
 20
149.8477413329837
 30
0
 11
299.943059134984
 21
149.8477413329837
 31
0
  0
LINE
  8
1
 62
3
 10
299.943059134984
 20
133.4477413329839
 30
0
 11
300.443059134984
 21
133.4477413329839
 31
0
  0
LINE
  8
1
 62
3
 10
299.943059134984
 20
175.8477413329841
 30
0
 11
299.5430336913507
 21
175.8477413329841
 31
0
  0
LINE
  8
1
 62
3
 10
300.443059134984
 20
194.347741332984
 30
0
 11
301.6433336913502
 21
194.347741332984
 31
0
  0
LINE
  8
1
 62
3
 10
299.943059134984
 20
192.2477413329838
 30
0
 11
299.943059134984
 21
133.4448248437692
 31
0
  0
LINE
  8
1
 62
3
 10
299.943059134984
 20
133.4448248437692
 30
0
 11
299.943059134984
 21
136.7977413329841
 31
0
  0
LINE
  8
1
 62
3
 10
299.943059134984
 20
150.8477413329843
 30
0
 11
299.943059134984
 21
136.7977413329841
 31
0
  0
LINE
  8
1
 62
3
 10
302.1433336913502
 20
193.8477413329841
 30
0
 11
324.34303369135
 21
193.8477413329838
 31
0
  0
LINE
  8
1
 62
3
 10
299.943059134984
 20
192.2477413329838
 30
0
 11
300.4433336913502
 21
192.2477413329838
 31
0
  0
LINE
  8
1
 62
3
 10
300.4433336913502
 20
192.2477413329838
 30
0
 11
300.4433336913502
 21
194.347741332984
 31
0
  0
LINE
  8
1
 62
3
 10
300.443059134984
 20
194.347741332984
 30
0
 11
301.6433336913502
 21
194.347741332984
 31
0
  0
LINE
  8
1
 62
3
 10
300.4433336913502
 20
131.5477413329836
 30
0
 11
300.4433336913502
 21
192.2477413329838
 31
0
  0
LINE
  8
1
 62
3
 10
337.086455221957
 20
272.664286808439
 30
0
 11
337.086455221957
 21
281.0766307051745
 31
0
  0
LINE
  8
1
 62
3
 10
337.086455221957
 20
270.164286808439
 30
0
 11
337.086455221957
 21
281.0766307051745
 31
0
  0
LINE
  8
1
 62
3
 10
337.086455221957
 20
281.0766307051745
 30
0
 11
337.086455221957
 21
282.1917602827562
 31
0
  0
LINE
  8
1
 62
3
 10
337.086455221957
 20
281.0766307051745
 30
0
 11
337.086455221957
 21
282.1917602827562
 31
0
  0
LINE
  8
1
 62
3
 10
337.086455221957
 20
282.1917602827562
 30
0
 11
337.086455221957
 21
295.664286808439
 31
0
  0
LINE
  8
1
 62
3
 10
337.086455221957
 20
282.1917602827562
 30
0
 11
337.086455221957
 21
293.164286808439
 31
0
  0
LINE
  8
1
 62
3
 10
337.086455221957
 20
292.164286808439
 30
0
 11
337.086455221957
 21
291.164286808439
 31
0
  0
LINE
  8
1
 62
3
 10
337.086455221957
 20
297.164286808439
 30
0
 11
337.086455221957
 21
296.164286808439
 31
0
  0
LINE
  8
1
 62
3
 10
337.086455221957
 20
298.164286808439
 30
0
 11
337.086455221957
 21
290.1142868084391
 31
0
  0
LINE
  8
1
 62
3
 10
259.6721760852671
 20
283.5491572308574
 30
0
 11
259.6721760852671
 21
272.664286808439
 31
0
  0
LINE
  8
1
 62
3
 10
259.6721760852671
 20
283.5491572308574
 30
0
 11
259.6721760852671
 21
272.664286808439
 31
0
  0
LINE
  8
1
 62
3
 10
259.6721760852671
 20
284.664286808439
 30
0
 11
259.6721760852671
 21
283.5491572308574
 31
0
  0
LINE
  8
1
 62
3
 10
259.6721760852671
 20
284.664286808439
 30
0
 11
259.6721760852671
 21
283.5491572308574
 31
0
  0
LINE
  8
1
 62
3
 10
337.086455221957
 20
272.664286808439
 30
0
 11
337.086455221957
 21
295.664286808439
 31
0
  0
LINE
  8
1
 62
3
 10
337.086455221957
 20
270.164286808439
 30
0
 11
337.086455221957
 21
293.164286808439
 31
0
  0
LINE
  8
1
 62
3
 10
337.086455221957
 20
297.164286808439
 30
0
 11
337.086455221957
 21
296.164286808439
 31
0
  0
LINE
  8
1
 62
3
 10
337.086455221957
 20
298.164286808439
 30
0
 11
337.086455221957
 21
290.1142868084391
 31
0
  0
LINE
  8
1
 62
3
 10
317.086455221957
 20
283.664286808439
 30
0
 11
297.7718429352795
 21
283.6180445074209
 31
0
  0
LINE
  8
1
 62
3
 10
259.6721760852671
 20
295.664286808439
 30
0
 11
259.6721760852671
 21
284.664286808439
 31
0
  0
LINE
  8
1
 62
3
 10
317.086455221957
 20
284.664286808439
 30
0
 11
297.0688378022175
 21
284.664286808439
 31
0
  0
LINE
  8
1
 62
3
 10
259.6721760852671
 20
293.164286808439
 30
0
 11
259.6721760852671
 21
284.664286808439
 31
0
  0
LINE
  8
1
 62
3
 10
259.6721760852671
 20
291.164286808439
 30
0
 11
259.6721760852671
 21
292.164286808439
 31
0
  0
LINE
  8
1
 62
3
 10
259.6721760852671
 20
293.664286808439
 30
0
 11
259.6721760852671
 21
294.664286808439
 31
0
  0
LINE
  8
1
 62
3
 10
259.6721760852671
 20
290.1142868084391
 30
0
 11
259.6721760852671
 21
295.664286808439
 31
0
  0
LINE
  8
1
 62
3
 10
255.9250057680481
 20
293.664286808439
 30
0
 11
251.7721760852671
 21
293.664286808439
 31
0
  0
LINE
  8
1
 62
3
 10
255.9250057680481
 20
294.664286808439
 30
0
 11
255.9250057680481
 21
293.664286808439
 31
0
  0
LINE
  8
1
 62
3
 10
251.7721760852671
 20
294.664286808439
 30
0
 11
251.7721760852671
 21
293.664286808439
 31
0
  0
LINE
  8
1
 62
3
 10
251.7721760852671
 20
294.664286808439
 30
0
 11
255.9250057680481
 21
294.664286808439
 31
0
  0
LINE
  8
1
 62
3
 10
255.9250057680481
 20
291.164286808439
 30
0
 11
251.7721760852671
 21
291.164286808439
 31
0
  0
LINE
  8
1
 62
3
 10
255.9250057680481
 20
292.164286808439
 30
0
 11
255.9250057680481
 21
291.164286808439
 31
0
  0
LINE
  8
1
 62
3
 10
251.7721760852671
 20
292.164286808439
 30
0
 11
251.7721760852671
 21
291.164286808439
 31
0
  0
LINE
  8
1
 62
3
 10
251.7721760852671
 20
292.164286808439
 30
0
 11
255.9250057680481
 21
292.164286808439
 31
0
  0
LINE
  8
1
 62
3
 10
255.9250057680481
 20
288.664286808439
 30
0
 11
251.7721760852671
 21
288.664286808439
 31
0
  0
LINE
  8
1
 62
3
 10
255.9250057680481
 20
289.664286808439
 30
0
 11
255.9250057680481
 21
288.664286808439
 31
0
  0
LINE
  8
1
 62
3
 10
251.7721760852671
 20
289.664286808439
 30
0
 11
251.7721760852671
 21
288.664286808439
 31
0
  0
LINE
  8
1
 62
3
 10
251.7721760852671
 20
289.664286808439
 30
0
 11
255.9250057680481
 21
289.664286808439
 31
0
  0
LINE
  8
1
 62
3
 10
255.9250057680481
 20
286.164286808439
 30
0
 11
251.7721760852671
 21
286.164286808439
 31
0
  0
LINE
  8
1
 62
3
 10
255.9250057680481
 20
287.164286808439
 30
0
 11
255.9250057680481
 21
286.164286808439
 31
0
  0
LINE
  8
1
 62
3
 10
251.7721760852671
 20
287.164286808439
 30
0
 11
251.7721760852671
 21
286.164286808439
 31
0
  0
LINE
  8
1
 62
3
 10
251.7721760852671
 20
287.164286808439
 30
0
 11
255.9250057680481
 21
287.164286808439
 31
0
  0
LINE
  8
1
 62
3
 10
255.9250057680481
 20
283.664286808439
 30
0
 11
251.7721760852671
 21
283.664286808439
 31
0
  0
LINE
  8
1
 62
3
 10
255.9250057680481
 20
284.664286808439
 30
0
 11
255.9250057680481
 21
283.664286808439
 31
0
  0
LINE
  8
1
 62
3
 10
251.7721760852671
 20
284.664286808439
 30
0
 11
251.7721760852671
 21
283.664286808439
 31
0
  0
LINE
  8
1
 62
3
 10
251.7721760852671
 20
284.664286808439
 30
0
 11
255.9250057680481
 21
284.664286808439
 31
0
  0
LINE
  8
1
 62
3
 10
255.9250057680481
 20
281.164286808439
 30
0
 11
251.7721760852671
 21
281.164286808439
 31
0
  0
LINE
  8
1
 62
3
 10
255.9250057680481
 20
282.164286808439
 30
0
 11
255.9250057680481
 21
281.164286808439
 31
0
  0
LINE
  8
1
 62
3
 10
251.7721760852671
 20
282.164286808439
 30
0
 11
251.7721760852671
 21
281.164286808439
 31
0
  0
LINE
  8
1
 62
3
 10
251.7721760852671
 20
282.164286808439
 30
0
 11
255.9250057680481
 21
282.164286808439
 31
0
  0
LINE
  8
1
 62
3
 10
255.9250057680481
 20
278.664286808439
 30
0
 11
251.7721760852671
 21
278.664286808439
 31
0
  0
LINE
  8
1
 62
3
 10
255.9250057680481
 20
279.664286808439
 30
0
 11
255.9250057680481
 21
278.664286808439
 31
0
  0
LINE
  8
1
 62
3
 10
251.7721760852671
 20
279.664286808439
 30
0
 11
251.7721760852671
 21
278.664286808439
 31
0
  0
LINE
  8
1
 62
3
 10
251.7721760852671
 20
279.664286808439
 30
0
 11
255.9250057680481
 21
279.664286808439
 31
0
  0
LINE
  8
1
 62
3
 10
255.9250057680481
 20
276.164286808439
 30
0
 11
251.7721760852671
 21
276.164286808439
 31
0
  0
LINE
  8
1
 62
3
 10
255.9250057680481
 20
277.164286808439
 30
0
 11
255.9250057680481
 21
276.164286808439
 31
0
  0
LINE
  8
1
 62
3
 10
251.7721760852671
 20
277.164286808439
 30
0
 11
251.7721760852671
 21
276.164286808439
 31
0
  0
LINE
  8
1
 62
3
 10
251.7721760852671
 20
277.164286808439
 30
0
 11
255.9250057680481
 21
277.164286808439
 31
0
  0
LINE
  8
1
 62
3
 10
255.9250057680481
 20
273.664286808439
 30
0
 11
251.7721760852671
 21
273.664286808439
 31
0
  0
LINE
  8
1
 62
3
 10
255.9250057680481
 20
274.664286808439
 30
0
 11
255.9250057680481
 21
273.664286808439
 31
0
  0
LINE
  8
1
 62
3
 10
251.7721760852671
 20
274.664286808439
 30
0
 11
251.7721760852671
 21
273.664286808439
 31
0
  0
LINE
  8
1
 62
3
 10
251.7721760852671
 20
274.664286808439
 30
0
 11
255.9250057680481
 21
274.664286808439
 31
0
  0
LINE
  8
1
 62
3
 10
340.2417905509181
 20
292.1142868084391
 30
0
 11
339.6810723224182
 21
292.1142868084391
 31
0
  0
LINE
  8
1
 62
3
 10
340.2417905509181
 20
290.1142868084391
 30
0
 11
344.9864552219571
 21
290.1142868084391
 31
0
  0
LINE
  8
1
 62
3
 10
340.2417905509181
 20
290.1142868084391
 30
0
 11
340.2417905509181
 21
292.1142868084391
 31
0
  0
LINE
  8
1
 62
3
 10
340.2417905509181
 20
278.2142868084391
 30
0
 11
339.6810723224182
 21
278.2142868084391
 31
0
  0
LINE
  8
1
 62
3
 10
340.2417905509181
 20
276.2142868084391
 30
0
 11
344.9864552219571
 21
276.2142868084391
 31
0
  0
LINE
  8
1
 62
3
 10
340.2417905509181
 20
276.2142868084391
 30
0
 11
340.2417905509181
 21
278.2142868084391
 31
0
  0
LINE
  8
1
 62
3
 10
341.5875142993171
 20
298.164286808439
 30
0
 11
341.1389397165172
 21
298.164286808439
 31
0
  0
LINE
  8
1
 62
3
 10
341.5875142993171
 20
295.164286808439
 30
0
 11
341.1389397165172
 21
295.164286808439
 31
0
  0
LINE
  8
1
 62
3
 10
341.5875142993171
 20
295.164286808439
 30
0
 11
341.5875142993171
 21
298.164286808439
 31
0
  0
LINE
  8
1
 62
3
 10
342.85847561725
 20
295.164286808439
 30
0
 11
341.5875142993171
 21
295.164286808439
 31
0
  0
LINE
  8
1
 62
3
 10
342.85847561725
 20
298.164286808439
 30
0
 11
341.5875142993171
 21
298.164286808439
 31
0
  0
LINE
  8
1
 62
3
 10
342.85847561725
 20
298.164286808439
 30
0
 11
342.85847561725
 21
295.164286808439
 31
0
  0
LINE
  8
1
 62
3
 10
341.5875142993171
 20
273.164286808439
 30
0
 11
341.1389397165172
 21
273.164286808439
 31
0
  0
LINE
  8
1
 62
3
 10
341.5875142993171
 20
270.164286808439
 30
0
 11
342.85847561725
 21
270.164286808439
 31
0
  0
LINE
  8
1
 62
3
 10
341.5875142993171
 20
270.164286808439
 30
0
 11
341.5875142993171
 21
273.164286808439
 31
0
  0
LINE
  8
1
 62
3
 10
342.85847561725
 20
270.164286808439
 30
0
 11
343.8677684285502
 21
270.164286808439
 31
0
  0
LINE
  8
1
 62
3
 10
342.85847561725
 20
273.164286808439
 30
0
 11
341.5875142993171
 21
273.164286808439
 31
0
  0
LINE
  8
1
 62
3
 10
342.85847561725
 20
273.164286808439
 30
0
 11
342.85847561725
 21
270.164286808439
 31
0
  0
LINE
  8
1
 62
3
 10
341.1389397165172
 20
298.164286808439
 30
0
 11
337.086455221957
 21
298.164286808439
 31
0
  0
LINE
  8
1
 62
3
 10
341.1389397165172
 20
295.164286808439
 30
0
 11
341.1389397165172
 21
298.164286808439
 31
0
  0
LINE
  8
1
 62
3
 10
343.8677684285502
 20
295.164286808439
 30
0
 11
342.85847561725
 21
295.164286808439
 31
0
  0
LINE
  8
1
 62
3
 10
343.8677684285502
 20
298.164286808439
 30
0
 11
342.85847561725
 21
298.164286808439
 31
0
  0
LINE
  8
1
 62
3
 10
343.8677684285502
 20
298.164286808439
 30
0
 11
343.8677684285502
 21
295.164286808439
 31
0
  0
LINE
  8
1
 62
3
 10
341.1389397165172
 20
270.164286808439
 30
0
 11
341.5875142993171
 21
270.164286808439
 31
0
  0
LINE
  8
1
 62
3
 10
341.1389397165172
 20
273.164286808439
 30
0
 11
341.1389397165172
 21
270.164286808439
 31
0
  0
LINE
  8
1
 62
3
 10
343.8677684285502
 20
273.164286808439
 30
0
 11
342.85847561725
 21
273.164286808439
 31
0
  0
LINE
  8
1
 62
3
 10
343.8677684285502
 20
270.164286808439
 30
0
 11
344.9864552219571
 21
270.164286808439
 31
0
  0
LINE
  8
1
 62
3
 10
343.8677684285502
 20
270.164286808439
 30
0
 11
343.8677684285502
 21
273.164286808439
 31
0
  0
LINE
  8
1
 62
3
 10
344.9864552219571
 20
276.2142868084391
 30
0
 11
344.9864552219571
 21
278.2142868084391
 31
0
  0
LINE
  8
1
 62
3
 10
339.6810723224182
 20
276.2142868084391
 30
0
 11
340.2417905509181
 21
276.2142868084391
 31
0
  0
LINE
  8
1
 62
3
 10
339.6810723224182
 20
278.2142868084391
 30
0
 11
339.6810723224182
 21
276.2142868084391
 31
0
  0
LINE
  8
1
 62
3
 10
344.9864552219571
 20
278.2142868084391
 30
0
 11
340.2417905509181
 21
278.2142868084391
 31
0
  0
LINE
  8
1
 62
3
 10
344.9864552219571
 20
278.2142868084391
 30
0
 11
344.9864552219571
 21
290.1142868084391
 31
0
  0
LINE
  8
1
 62
3
 10
344.9864552219571
 20
290.1142868084391
 30
0
 11
344.9864552219571
 21
278.2142868084391
 31
0
  0
LINE
  8
1
 62
3
 10
344.9864552219571
 20
290.1142868084391
 30
0
 11
344.9864552219571
 21
292.1142868084391
 31
0
  0
LINE
  8
1
 62
3
 10
339.6810723224182
 20
290.1142868084391
 30
0
 11
340.2417905509181
 21
290.1142868084391
 31
0
  0
LINE
  8
1
 62
3
 10
339.6810723224182
 20
292.1142868084391
 30
0
 11
339.6810723224182
 21
290.1142868084391
 31
0
  0
LINE
  8
1
 62
3
 10
344.9864552219571
 20
292.1142868084391
 30
0
 11
344.9864552219571
 21
298.164286808439
 31
0
  0
LINE
  8
1
 62
3
 10
344.9864552219571
 20
292.1142868084391
 30
0
 11
340.2417905509181
 21
292.1142868084391
 31
0
  0
LINE
  8
1
 62
3
 10
344.9864552219571
 20
298.164286808439
 30
0
 11
343.8677684285502
 21
298.164286808439
 31
0
  0
LINE
  8
1
 62
3
 10
344.9864552219571
 20
270.164286808439
 30
0
 11
344.9864552219571
 21
276.2142868084391
 31
0
  0
LINE
  8
1
 62
3
 10
337.086455221957
 20
270.164286808439
 30
0
 11
341.1389397165172
 21
270.164286808439
 31
0
  0
LINE
  8
1
 62
3
 10
337.086455221957
 20
298.164286808439
 30
0
 11
337.086455221957
 21
270.164286808439
 31
0
  0
LINE
  8
1
 62
3
 10
259.6721760852671
 20
295.664286808439
 30
0
 11
251.7721760852671
 21
295.664286808439
 31
0
  0
LINE
  8
1
 62
3
 10
251.7721760852671
 20
272.664286808439
 30
0
 11
259.6721760852671
 21
272.664286808439
 31
0
  0
LINE
  8
1
 62
3
 10
251.7721760852671
 20
295.664286808439
 30
0
 11
251.7721760852671
 21
272.664286808439
 31
0
  0
LINE
  8
1
 62
3
 10
317.086455221957
 20
279.664286808439
 30
0
 11
297.9152948010373
 21
279.664286808439
 31
0
  0
LINE
  8
1
 62
3
 10
317.086455221957
 20
280.664286808439
 30
0
 11
298.4405257065801
 21
280.664286808439
 31
0
  0
LINE
  8
1
 62
3
 10
317.086455221957
 20
281.664286808439
 30
0
 11
298.6688977793482
 21
281.664286808439
 31
0
  0
LINE
  8
1
 62
3
 10
317.086455221957
 20
282.664286808439
 30
0
 11
298.3761962679927
 21
282.664286808439
 31
0
  0
LINE
  8
1
 62
3
 10
317.086455221957
 20
285.664286808439
 30
0
 11
296.6951756932953
 21
285.664286808439
 31
0
  0
LINE
  8
1
 62
3
 10
317.086455221957
 20
286.664286808439
 30
0
 11
296.8559283636932
 21
286.664286808439
 31
0
  0
LINE
  8
1
 62
3
 10
317.086455221957
 20
287.664286808439
 30
0
 11
297.4273834787728
 21
287.664286808439
 31
0
  0
LINE
  8
1
 62
3
 10
317.086455221957
 20
288.664286808439
 30
0
 11
298.2023816499173
 21
288.664286808439
 31
0
  0
LINE
  8
1
 62
3
 10
297.3411211032763
 20
288.664286808439
 30
0
 11
279.6721760852671
 21
288.664286808439
 31
0
  0
LINE
  8
1
 62
3
 10
297.0899201105063
 20
279.664286808439
 30
0
 11
279.6721760852671
 21
279.664286808439
 31
0
  0
LINE
  8
1
 62
3
 10
296.7452948460052
 20
287.664286808439
 30
0
 11
279.6721760852671
 21
287.664286808439
 31
0
  0
LINE
  8
1
 62
3
 10
296.2544650626426
 20
286.664286808439
 30
0
 11
279.6721760852671
 21
286.664286808439
 31
0
  0
LINE
  8
1
 62
3
 10
295.9858021409348
 20
285.664286808439
 30
0
 11
279.6721760852671
 21
285.664286808439
 31
0
  0
LINE
  8
1
 62
3
 10
296.0851161394243
 20
284.664286808439
 30
0
 11
275.9986230288382
 21
284.664286808439
 31
0
  0
LINE
  8
1
 62
3
 10
296.6821535368541
 20
283.6154356150221
 30
0
 11
274.9765027775673
 21
283.5634687817609
 31
0
  0
LINE
  8
1
 62
3
 10
297.3506003695158
 20
282.664286808439
 30
0
 11
279.6721760852671
 21
282.664286808439
 31
0
  0
LINE
  8
1
 62
3
 10
297.7358655204873
 20
281.664286808439
 30
0
 11
279.6721760852671
 21
281.664286808439
 31
0
  0
LINE
  8
1
 62
3
 10
297.5627565378822
 20
280.664286808439
 30
0
 11
279.6721760852671
 21
280.664286808439
 31
0
  0
LINE
  8
1
 62
3
 10
300.4433336913502
 20
11.25073623641251
 30
0
 11
300.4433336913502
 21
28.75073623641271
 31
0
  0
LINE
  8
1
 62
3
 10
294.0430336913499
 20
5.500736236412848
 30
0
 11
295.5430336913499
 21
5.500736236412848
 31
0
  0
LINE
  8
1
 62
3
 10
294.0430336913499
 20
13.50073623641285
 30
0
 11
295.5430336913499
 21
13.50073623641285
 31
0
  0
LINE
  8
1
 62
3
 10
294.0430336913499
 20
16.75073623641225
 30
0
 11
295.5430336913499
 21
16.75073623641225
 31
0
  0
LINE
  8
1
 62
3
 10
294.0430336913499
 20
68.75073623641282
 30
0
 11
295.5430336913499
 21
68.75073623641282
 31
0
  0
LINE
  8
1
 62
3
 10
294.0430336913499
 20
72.00073623641282
 30
0
 11
295.5430336913499
 21
72.00073623641282
 31
0
  0
LINE
  8
1
 62
3
 10
294.0430336913499
 20
80.00073623641282
 30
0
 11
295.5430336913499
 21
80.00073623641282
 31
0
  0
LINE
  8
1
 62
3
 10
294.0430336913499
 20
80.75073623641282
 30
0
 11
294.0430336913499
 21
2.750736236412649
 31
0
  0
LINE
  8
1
 62
3
 10
295.5430336913499
 20
80.75073623641282
 30
0
 11
294.0430336913499
 21
80.75073623641282
 31
0
  0
LINE
  8
1
 62
3
 10
294.0430336913499
 20
82.75073623641305
 30
0
 11
294.0430336913499
 21
80.75073623641282
 31
0
  0
LINE
  8
1
 62
1
 10
265.249897970515
 20
42.75073623641271
 30
0
 11
331.9430336913502
 21
42.75073623641271
 31
0
  0
LINE
  8
1
 62
3
 10
284.5430336913499
 20
76.25073623641265
 30
0
 11
284.5430336913499
 21
46.25073623641254
 31
0
  0
LINE
  8
1
 62
3
 10
284.5430336913499
 20
78.90073623641274
 30
0
 11
284.5430336913499
 21
76.25073623641265
 31
0
  0
LINE
  8
1
 62
3
 10
284.8930336913498
 20
79.25073623641265
 30
0
 11
287.5430336913499
 21
79.25073623641265
 31
0
  0
LINE
  8
1
 62
3
 10
284.5430336913499
 20
78.90073623641274
 30
0
 11
284.8930336913498
 21
79.25073623641265
 31
0
  0
LINE
  8
1
 62
3
 10
287.5430336913502
 20
82.75073623641316
 30
0
 11
287.5430336913499
 21
79.25073623641265
 31
0
  0
LINE
  8
1
 62
3
 10
284.5430336913499
 20
9.25073623641245
 30
0
 11
284.5430336913499
 21
6.60073623641253
 31
0
  0
LINE
  8
1
 62
3
 10
287.5430336913499
 20
6.250736236412536
 30
0
 11
284.8930336913498
 21
6.250736236412536
 31
0
  0
LINE
  8
1
 62
3
 10
284.5430336913499
 20
6.60073623641253
 30
0
 11
284.8930336913498
 21
6.250736236412536
 31
0
  0
LINE
  8
1
 62
3
 10
287.5430336913499
 20
6.250736236412536
 30
0
 11
287.5430336913499
 21
2.750736236412735
 31
0
  0
LINE
  8
1
 62
3
 10
287.5430336913499
 20
2.750736236412735
 30
0
 11
294.0430336913499
 21
2.750736236412649
 31
0
  0
LINE
  8
1
 62
3
 10
284.5430336913499
 20
46.25073623641254
 30
0
 11
284.5430336913499
 21
9.25073623641245
 31
0
  0
LINE
  8
1
 62
3
 10
295.5430336913499
 20
74.02810123933864
 30
0
 11
295.5430336913499
 21
80.75073623641282
 31
0
  0
LINE
  8
1
 62
3
 10
287.5430336913502
 20
82.75073623641316
 30
0
 11
294.0430336913499
 21
82.75073623641305
 31
0
  0
LINE
  8
1
 62
3
 10
287.5430336913499
 20
79.25073623641265
 30
0
 11
287.5430336913499
 21
6.250736236412536
 31
0
  0
LINE
  8
1
 62
3
 10
299.5430336913508
 20
75.25073623641271
 30
0
 11
299.5430336913508
 21
56.75073623641271
 31
0
  0
LINE
  8
1
 62
3
 10
299.5430336913508
 20
75.25073623641271
 30
0
 11
295.5430336913499
 21
75.25073623641259
 31
0
  0
LINE
  8
1
 62
3
 10
297.9554667883004
 20
27.25073623641271
 30
0
 11
297.1430336913499
 21
27.25073623641282
 31
0
  0
LINE
  8
1
 62
3
 10
297.1430336913499
 20
23.0507362364126
 30
0
 11
297.9554667883004
 21
23.05073623641272
 31
0
  0
LINE
  8
1
 62
3
 10
298.8430413262412
 20
25.51323623641252
 30
0
 11
298.6680413262414
 21
25.51323623641252
 31
0
  0
LINE
  8
1
 62
3
 10
298.6680413262414
 20
25.51323623641252
 30
0
 11
298.6680413262414
 21
24.78823623641262
 31
0
  0
LINE
  8
1
 62
3
 10
298.6680413262414
 20
24.78823623641262
 30
0
 11
298.8430413262412
 21
24.78823623641262
 31
0
  0
LINE
  8
1
 62
3
 10
326.5430336913503
 20
70.35073623641273
 30
0
 11
326.5430336913503
 21
48.75073623641271
 31
0
  0
LINE
  8
1
 62
3
 10
326.5430336913503
 20
71.55073623641272
 30
0
 11
326.5430336913503
 21
70.35073623641273
 31
0
  0
LINE
  8
1
 62
3
 10
326.5430336913503
 20
42.75073623641271
 30
0
 11
326.5430336913503
 21
48.75073623641271
 31
0
  0
LINE
  8
1
 62
3
 10
326.5430336913503
 20
36.75073623641271
 30
0
 11
326.5430336913503
 21
15.15073623641274
 31
0
  0
LINE
  8
1
 62
3
 10
324.3430336913501
 20
11.75073623641271
 30
0
 11
302.1433336913504
 21
11.75073623641293
 31
0
  0
LINE
  8
1
 62
3
 10
326.5430336913503
 20
15.15073623641274
 30
0
 11
326.5430336913503
 21
13.95073623641275
 31
0
  0
LINE
  8
1
 62
3
 10
326.5430336913503
 20
36.75073623641271
 30
0
 11
326.5430336913503
 21
42.75073623641271
 31
0
  0
LINE
  8
1
 62
3
 10
326.94303369135
 20
38.45073623641292
 30
0
 11
326.94303369135
 21
37.05073623641272
 31
0
  0
LINE
  8
1
 62
3
 10
326.6430336913501
 20
48.75073623641302
 30
0
 11
326.5430336913503
 21
48.75073623641271
 31
0
  0
LINE
  8
1
 62
3
 10
326.94303369135
 20
48.45073623641292
 30
0
 11
326.94303369135
 21
47.05073623641272
 31
0
  0
LINE
  8
1
 62
3
 10
326.94303369135
 20
38.45073623641292
 30
0
 11
326.94303369135
 21
47.05073623641272
 31
0
  0
LINE
  8
1
 62
3
 10
326.6430336913501
 20
48.75073623641302
 30
0
 11
326.94303369135
 21
48.45073623641292
 31
0
  0
LINE
  8
1
 62
3
 10
326.94303369135
 20
37.05073623641272
 30
0
 11
326.6430336913501
 21
36.75073623641271
 31
0
  0
LINE
  8
1
 62
3
 10
326.9430336913502
 20
46.55073623641286
 30
0
 11
326.94303369135
 21
38.95073623641281
 31
0
  0
LINE
  8
1
 62
3
 10
326.5430336913503
 20
36.75073623641271
 30
0
 11
326.6430336913501
 21
36.75073623641271
 31
0
  0
LINE
  8
1
 62
3
 10
299.9430591349841
 20
13.35073623641284
 30
0
 11
300.4430591349841
 21
13.35073623641284
 31
0
  0
LINE
  8
1
 62
3
 10
300.4430591349841
 20
74.25073623641293
 30
0
 11
301.6433336913504
 21
74.25073623641293
 31
0
  0
LINE
  8
1
 62
3
 10
299.9430591349841
 20
72.15073623641274
 30
0
 11
299.9430591349841
 21
56.75073623641271
 31
0
  0
LINE
  8
1
 62
3
 10
302.1433336913504
 20
73.75073623641305
 30
0
 11
324.3430336913501
 21
73.75073623641271
 31
0
  0
LINE
  8
1
 62
3
 10
299.9430591349841
 20
72.15073623641274
 30
0
 11
300.4433336913502
 21
72.15073623641274
 31
0
  0
LINE
  8
1
 62
3
 10
300.4433336913502
 20
72.15073623641274
 30
0
 11
300.4433336913502
 21
74.25073623641293
 31
0
  0
LINE
  8
1
 62
3
 10
299.9430591349841
 20
28.75073623641271
 30
0
 11
299.9430591349841
 21
16.70073623641301
 31
0
  0
LINE
  8
1
 62
3
 10
299.5430336913508
 20
28.75073623641271
 30
0
 11
299.5430336913508
 21
10.25073623641271
 31
0
  0
LINE
  8
1
 62
3
 10
300.4433336913502
 20
56.75073623641271
 30
0
 11
300.4433336913502
 21
72.15073623641274
 31
0
  0
LINE
  8
1
 62
3
 10
301.9276009460845
 20
35.05936563940094
 30
0
 11
302.6430336913499
 21
35.25073623641271
 31
0
  0
LINE
  8
1
 62
3
 10
302.6430336913499
 20
32.25073623641271
 30
0
 11
301.9276009460845
 21
32.4421068334247
 31
0
  0
LINE
  8
1
 62
3
 10
302.6430336913499
 20
35.25073623641271
 30
0
 11
302.6430336913499
 21
32.25073623641271
 31
0
  0
LINE
  8
1
 62
3
 10
301.9276009460845
 20
56.75073623641271
 30
0
 11
300.94303369135
 21
56.75073623641271
 31
0
  0
LINE
  8
1
 62
3
 10
301.9276009460845
 20
28.75073623641271
 30
0
 11
303.1430336913499
 21
28.75073623641271
 31
0
  0
LINE
  8
1
 62
3
 10
297.1430336913499
 20
56.75073623641271
 30
0
 11
297.1430336913499
 21
28.75073623641271
 31
0
  0
LINE
  8
1
 62
3
 10
303.1430336913499
 20
56.75073623641271
 30
0
 11
301.9276009460845
 21
56.75073623641271
 31
0
  0
LINE
  8
1
 62
3
 10
303.1430336913499
 20
28.75073623641271
 30
0
 11
303.1430336913499
 21
56.75073623641271
 31
0
  0
LINE
  8
1
 62
3
 10
297.1430336913499
 20
28.75073623641271
 30
0
 11
301.9276009460845
 21
28.75073623641271
 31
0
  0
LINE
  8
1
 62
3
 10
301.9276009460845
 20
32.4421068334247
 30
0
 11
301.9276009460845
 21
28.75073623641271
 31
0
  0
LINE
  8
1
 62
3
 10
300.94303369135
 20
28.75073623641271
 30
0
 11
301.9276009460845
 21
28.75073623641271
 31
0
  0
LINE
  8
1
 62
3
 10
301.9276009460845
 20
35.05936563940094
 30
0
 11
301.9276009460845
 21
50.4421068334247
 31
0
  0
LINE
  8
1
 62
3
 10
301.9276009460845
 20
56.75073623641271
 30
0
 11
297.1430336913499
 21
56.75073623641271
 31
0
  0
LINE
  8
1
 62
3
 10
301.9276009460845
 20
53.05936563940082
 30
0
 11
302.6430336913499
 21
53.25073623641271
 31
0
  0
LINE
  8
1
 62
3
 10
302.6430336913499
 20
50.25073623641271
 30
0
 11
301.9276009460845
 21
50.4421068334247
 31
0
  0
LINE
  8
1
 62
3
 10
302.6430336913499
 20
53.25073623641271
 30
0
 11
302.6430336913499
 21
50.25073623641271
 31
0
  0
LINE
  8
1
 62
3
 10
301.9276009460845
 20
53.05936563940082
 30
0
 11
301.9276009460845
 21
56.75073623641271
 31
0
  0
LINE
  8
1
 62
3
 10
301.6433336913504
 20
11.25073623641251
 30
0
 11
300.4430591349841
 21
11.25073623641251
 31
0
  0
LINE
  8
1
 62
3
 10
297.1430336913499
 20
58.25073623641259
 30
0
 11
297.9554667883004
 21
58.25073623641271
 31
0
  0
LINE
  8
1
 62
3
 10
297.9554667883004
 20
62.4507362364127
 30
0
 11
297.1430336913499
 21
62.45073623641281
 31
0
  0
LINE
  8
1
 62
3
 10
298.6680413262414
 20
59.98823623641292
 30
0
 11
298.8430413262412
 21
59.98823623641292
 31
0
  0
LINE
  8
1
 62
3
 10
298.6680413262414
 20
60.7132362364128
 30
0
 11
298.6680413262414
 21
59.98823623641292
 31
0
  0
LINE
  8
1
 62
3
 10
298.8430413262412
 20
60.7132362364128
 30
0
 11
298.6680413262414
 21
60.7132362364128
 31
0
  0
LINE
  8
1
 62
3
 10
295.5430336913499
 20
23.25073623641271
 30
0
 11
297.1430336913499
 21
23.25073623641271
 31
0
  0
LINE
  8
1
 62
3
 10
297.1430336913499
 20
23.25073623641271
 30
0
 11
297.1430336913499
 21
62.25073623641271
 31
0
  0
LINE
  8
1
 62
3
 10
297.1430336913499
 20
62.25073623641271
 30
0
 11
295.5430336913499
 21
62.25073623641271
 31
0
  0
LINE
  8
1
 62
3
 10
297.1430336913499
 20
62.45073623641281
 30
0
 11
297.1430336913499
 21
62.25073623641271
 31
0
  0
LINE
  8
1
 62
3
 10
297.1430336913499
 20
23.25073623641271
 30
0
 11
297.1430336913499
 21
23.0507362364126
 31
0
  0
LINE
  8
1
 62
3
 10
295.5430336913499
 20
63.05073623641272
 30
0
 11
299.5430336913508
 21
63.05073623641272
 31
0
  0
LINE
  8
1
 62
3
 10
295.5430336913499
 20
22.45073623641271
 30
0
 11
299.5430336913508
 21
22.45073623641271
 31
0
  0
LINE
  8
1
 62
3
 10
294.0430336913499
 20
4.750736236412593
 30
0
 11
295.5430336913499
 21
4.750736236412593
 31
0
  0
LINE
  8
1
 62
3
 10
295.5430336913499
 20
4.750736236412593
 30
0
 11
295.5430336913499
 21
74.02810123933864
 31
0
  0
LINE
  8
1
 62
3
 10
295.5430336913499
 20
10.25073623641285
 30
0
 11
299.5430336913508
 21
10.25073623641271
 31
0
  0
LINE
  8
1
 62
3
 10
299.9430591349841
 20
13.35073623641284
 30
0
 11
299.9430591349841
 21
16.70073623641301
 31
0
  0
LINE
  8
1
 62
3
 10
471.3671762403158
 20
175.6204673326569
 30
0
 11
471.3671762403158
 21
185.6204673326569
 31
0
  0
LINE
  8
1
 62
3
 10
470.3671762403158
 20
186.6204673326569
 30
0
 11
444.3671762403159
 21
186.6204673326569
 31
0
  0
LINE
  8
1
 62
3
 10
443.3671762403159
 20
185.6204673326569
 30
0
 11
443.3671762403159
 21
175.6204673326569
 31
0
  0
LINE
  8
1
 62
3
 10
444.3671762403159
 20
174.6204673326569
 30
0
 11
470.3671762403158
 21
174.6204673326569
 31
0
  0
LINE
  8
1
 62
1
 10
498.7294538880157
 20
162.8477413329838
 30
0
 11
415.4487046664322
 21
162.8477413329838
 31
0
  0
LINE
  8
1
 62
3
 10
438.5174556295399
 20
123.0977413329833
 30
0
 11
436.6788934573071
 21
123.0977413329833
 31
0
  0
LINE
  8
1
 62
1
 10
457.6795072300409
 20
119.3613839464496
 30
0
 11
457.6795072300409
 21
207.3772086977466
 31
0
  0
LINE
  8
1
 62
3
 10
439.1767406155397
 20
127.3738715185585
 30
0
 11
439.6166889627695
 21
126.9339231713287
 31
0
  0
LINE
  8
1
 62
3
 10
439.1767406155397
 20
126.3230557257181
 30
0
 11
439.6166889627695
 21
126.763004072948
 31
0
  0
LINE
  8
1
 62
3
 10
440.6043029013964
 20
127.7506180115748
 30
0
 11
440.1643545541663
 21
127.3106696643449
 31
0
  0
LINE
  8
1
 62
3
 10
439.9890182919156
 20
127.3150868282152
 30
0
 11
439.5534871085559
 21
127.7506180115748
 31
0
  0
LINE
  8
1
 62
3
 10
439.9934354557858
 20
127.3106696643449
 30
0
 11
439.9890182919156
 21
127.3150868282152
 31
0
  0
LINE
  8
1
 62
3
 10
440.9810493944124
 20
126.3230557257181
 30
0
 11
440.5411010471825
 21
126.763004072948
 31
0
  0
LINE
  8
1
 62
3
 10
440.9810493944124
 20
127.3738715185585
 30
0
 11
440.5411010471825
 21
126.9339231713287
 31
0
  0
LINE
  8
1
 62
3
 10
439.5534871085559
 20
125.9463092327019
 30
0
 11
439.9934354557858
 21
126.3862575799319
 31
0
  0
LINE
  8
1
 62
3
 10
440.6043029013964
 20
125.9463092327019
 30
0
 11
440.1643545541663
 21
126.3862575799319
 31
0
  0
LINE
  8
1
 62
3
 10
474.3767375202023
 20
127.3738715185585
 30
0
 11
474.816685867432
 21
126.9339231713287
 31
0
  0
LINE
  8
1
 62
3
 10
474.3767375202023
 20
126.3230557257181
 30
0
 11
474.816685867432
 21
126.763004072948
 31
0
  0
LINE
  8
1
 62
3
 10
475.8042998060587
 20
127.7506180115748
 30
0
 11
475.3643514588287
 21
127.3106696643449
 31
0
  0
LINE
  8
1
 62
3
 10
475.1890151965782
 20
127.3150868282152
 30
0
 11
474.7534840132183
 21
127.7506180115748
 31
0
  0
LINE
  8
1
 62
3
 10
475.1934323604484
 20
127.3106696643449
 30
0
 11
475.1890151965782
 21
127.3150868282152
 31
0
  0
LINE
  8
1
 62
3
 10
476.181046299075
 20
126.3230557257181
 30
0
 11
475.741097951845
 21
126.763004072948
 31
0
  0
LINE
  8
1
 62
3
 10
476.181046299075
 20
127.3738715185585
 30
0
 11
475.741097951845
 21
126.9339231713287
 31
0
  0
LINE
  8
1
 62
3
 10
474.7534840132183
 20
125.9463092327019
 30
0
 11
475.1934323604484
 21
126.3862575799319
 31
0
  0
LINE
  8
1
 62
3
 10
475.8042998060587
 20
125.9463092327019
 30
0
 11
475.3643514588289
 21
126.3862575799319
 31
0
  0
LINE
  8
1
 62
3
 10
472.0788934573073
 20
122.8477413329828
 30
0
 11
476.1788934573073
 21
122.8477413329828
 31
0
  0
LINE
  8
1
 62
3
 10
444.0788934573073
 20
122.8477413329828
 30
0
 11
439.1788934573082
 21
122.8477413329828
 31
0
  0
LINE
  8
1
 62
3
 10
444.0788934573073
 20
121.8477413329839
 30
0
 11
444.0788934573073
 21
131.5477413329837
 31
0
  0
LINE
  8
1
 62
3
 10
444.0788934573073
 20
131.5477413329837
 30
0
 11
447.0788934573073
 21
131.5477413329837
 31
0
  0
LINE
  8
1
 62
3
 10
472.0788934573073
 20
131.5477413329837
 30
0
 11
472.0788934573073
 21
121.8477413329839
 31
0
  0
LINE
  8
1
 62
3
 10
472.0788934573073
 20
121.8477413329839
 30
0
 11
444.0788934573073
 21
121.8477413329839
 31
0
  0
LINE
  8
1
 62
3
 10
447.0788934573073
 20
131.5477413329837
 30
0
 11
447.0788934573073
 21
129.5477413329837
 31
0
  0
LINE
  8
1
 62
3
 10
447.0788934573073
 20
129.5477413329837
 30
0
 11
469.0788934573073
 21
129.5477413329837
 31
0
  0
LINE
  8
1
 62
3
 10
469.0788934573073
 20
129.5477413329837
 30
0
 11
469.0788934573073
 21
131.5477413329837
 31
0
  0
LINE
  8
1
 62
3
 10
469.0788934573073
 20
131.5477413329837
 30
0
 11
472.0788934573073
 21
131.5477413329837
 31
0
  0
LINE
  8
1
 62
3
 10
452.7888934573073
 20
194.8477413329839
 30
0
 11
462.5688934573073
 21
194.8477413329839
 31
0
  0
LINE
  8
1
 62
3
 10
452.7788934573073
 20
194.8377413329839
 30
0
 11
452.7788934573073
 21
193.4579354625627
 31
0
  0
LINE
  8
1
 62
3
 10
462.5788934573073
 20
194.8377413329839
 30
0
 11
462.5788934573073
 21
193.4579354625627
 31
0
  0
LINE
  8
1
 62
3
 10
438.1788934573073
 20
123.8477413329839
 30
0
 11
438.1788934573073
 21
126.2477413329829
 31
0
  0
LINE
  8
1
 62
3
 10
477.1788934573073
 20
123.8477413329839
 30
0
 11
477.1788934573073
 21
126.2477413329829
 31
0
  0
LINE
  8
1
 62
3
 10
438.1788934573073
 20
127.4477413329829
 30
0
 11
438.1788934573073
 21
138.7494828380909
 31
0
  0
LINE
  8
1
 62
3
 10
477.1788934573073
 20
127.4477413329829
 30
0
 11
477.1788934573073
 21
138.7484895446004
 31
0
  0
LINE
  8
1
 62
3
 10
494.1788934573073
 20
188.8477413329839
 30
0
 11
486.6788934573073
 21
188.8477413329839
 31
0
  0
LINE
  8
1
 62
3
 10
495.6788934573073
 20
138.3477413329835
 30
0
 11
495.6788934573073
 21
187.3477413329839
 31
0
  0
LINE
  8
1
 62
3
 10
421.1788934573071
 20
136.8477413329835
 30
0
 11
428.6788934573071
 21
136.8477413329835
 31
0
  0
LINE
  8
1
 62
3
 10
419.6788934573071
 20
138.3477413329835
 30
0
 11
419.6788934573071
 21
187.3477413329839
 31
0
  0
LINE
  8
1
 62
3
 10
483.6788934573073
 20
199.3477413329839
 30
0
 11
483.6788934573073
 21
191.8477413329839
 31
0
  0
LINE
  8
1
 62
3
 10
482.1788934573073
 20
200.8477413329839
 30
0
 11
433.1788934573071
 21
200.8477413329839
 31
0
  0
LINE
  8
1
 62
3
 10
486.6788934573073
 20
136.8477413329835
 30
0
 11
494.1788934573073
 21
136.8477413329835
 31
0
  0
LINE
  8
1
 62
3
 10
483.6788934573073
 20
133.8477413329835
 30
0
 11
483.6788934573073
 21
124.5977413329833
 31
0
  0
LINE
  8
1
 62
3
 10
431.6788934573071
 20
191.8477413329839
 30
0
 11
431.6788934573071
 21
199.3477413329839
 31
0
  0
LINE
  8
1
 62
3
 10
428.6788934573071
 20
188.8477413329839
 30
0
 11
421.1788934573071
 21
188.8477413329839
 31
0
  0
LINE
  8
1
 62
3
 10
431.6788934573071
 20
124.5977413329833
 30
0
 11
431.6788934573071
 21
133.8477413329835
 31
0
  0
LINE
  8
1
 62
3
 10
478.6788934573073
 20
123.0977413329833
 30
0
 11
480.6788934573073
 21
123.0977413329833
 31
0
  0
LINE
  8
1
 62
3
 10
436.6788934573071
 20
123.0977413329833
 30
0
 11
434.6788934573071
 21
123.0977413329833
 31
0
  0
LINE
  8
1
 62
3
 10
481.0073205820535
 20
123.0977413329833
 30
0
 11
482.1788934573073
 21
123.0977413329833
 31
0
  0
LINE
  8
1
 62
1
 10
457.6788934573072
 20
121.3831980412111
 30
0
 11
457.6788934573072
 21
141.8178389548916
 31
0
  0
LINE
  8
1
 62
1
 10
428.8690695440684
 20
196.0977413329839
 30
0
 11
419.9887173705457
 21
196.0977413329839
 31
0
  0
LINE
  8
1
 62
1
 10
424.4288934573071
 20
191.6575652462224
 30
0
 11
424.4288934573071
 21
200.5379174197452
 31
0
  0
LINE
  8
1
 62
1
 10
424.4288934573071
 20
134.0379174197452
 30
0
 11
424.4288934573071
 21
125.1575652462224
 31
0
  0
LINE
  8
1
 62
1
 10
428.8690695440684
 20
129.5977413329839
 30
0
 11
419.9887173705457
 21
129.5977413329839
 31
0
  0
LINE
  8
1
 62
3
 10
433.1788934573071
 20
123.0977413329833
 30
0
 11
434.350466332561
 21
123.0977413329833
 31
0
  0
LINE
  8
1
 62
1
 10
490.9288934573073
 20
125.1575652462224
 30
0
 11
490.9288934573073
 21
134.0379174197452
 31
0
  0
LINE
  8
1
 62
1
 10
495.3690695440687
 20
129.5977413329839
 30
0
 11
486.4887173705457
 21
129.5977413329839
 31
0
  0
LINE
  8
1
 62
1
 10
495.3690695440687
 20
196.0977413329839
 30
0
 11
486.4887173705457
 21
196.0977413329839
 31
0
  0
LINE
  8
1
 62
1
 10
490.9288934573073
 20
200.5379174197452
 30
0
 11
490.9288934573073
 21
191.6575652462224
 31
0
  0
LINE
  8
1
 62
3
 10
434.6788934573071
 20
123.0977413329833
 30
0
 11
434.350466332561
 21
123.0977413329833
 31
0
  0
LINE
  8
1
 62
3
 10
480.6788934573073
 20
123.0977413329833
 30
0
 11
481.0073205820535
 21
123.0977413329833
 31
0
  0
LINE
  8
1
 62
3
 10
478.6788934573073
 20
123.0977413329833
 30
0
 11
476.8403312850731
 21
123.0977413329833
 31
0
  0
LINE
  8
1
 62
3
 10
437.3788934573072
 20
139.1901844007898
 30
0
 11
437.3788934573072
 21
139.4194447570417
 31
0
  0
LINE
  8
1
 62
3
 10
477.9788934573072
 20
131.347754898432
 30
0
 11
477.9788934573072
 21
139.2106930745501
 31
0
  0
LINE
  8
1
 62
3
 10
451.9788934573072
 20
193.4653833061992
 30
0
 11
451.9788934573072
 21
193.8741816702187
 31
0
  0
LINE
  8
1
 62
3
 10
463.3788934573072
 20
193.4653833061992
 30
0
 11
463.3788934573072
 21
193.8741816702187
 31
0
  0
LINE
  8
1
 62
3
 10
479.9866341388075
 20
139.2127100089737
 30
0
 11
479.3098079350751
 21
138.6122535894756
 31
0
  0
LINE
  8
1
 62
3
 10
477.9788934573072
 20
139.2106930745501
 30
0
 11
477.9788934573072
 21
139.4183811454697
 31
0
  0
LINE
  8
1
 62
3
 10
437.3788934573072
 20
131.3477548984324
 30
0
 11
437.3788934573072
 21
139.1528147286967
 31
0
  0
LINE
  8
1
 62
2
 10
283.1844855756773
 20
159.3477413329838
 30
0
 11
279.1430336913499
 21
166.3477413329838
 31
0
  0
LINE
  8
1
 62
2
 10
282.1844855756773
 20
159.3477413329838
 30
0
 11
278.1430336913499
 21
166.3477413329838
 31
0
  0
LINE
  8
1
 62
2
 10
281.1844855756773
 20
159.3477413329838
 30
0
 11
277.1430336913499
 21
166.3477413329838
 31
0
  0
LINE
  8
2
 62
1
  6
CENTER
 10
273.9066336913499
 20
159.9477413329838
 30
0
 11
284.5430336913499
 21
159.9477413329838
 31
0
  0
LINE
  8
2
 62
1
  6
CENTER
 10
273.9975336913498
 20
165.7477413329838
 30
0
 11
284.4975336913498
 21
165.7477413329838
 31
0
  0
LINE
  8
1
 62
3
 10
275.5430336913499
 20
159.3477413329838
 30
0
 11
284.5430336913499
 21
159.3477413329838
 31
0
  0
LINE
  8
1
 62
3
 10
275.5430336913499
 20
166.3477413329838
 30
0
 11
284.5430336913499
 21
166.3477413329836
 31
0
  0
LINE
  8
1
 62
3
 10
275.5430336913499
 20
159.3477413329838
 30
0
 11
275.5430336913499
 21
166.3477413329838
 31
0
  0
LINE
  8
1
 62
2
 10
283.1844855756773
 20
39.25073623641271
 30
0
 11
279.1430336913499
 21
46.25073623641271
 31
0
  0
LINE
  8
1
 62
2
 10
282.1844855756773
 20
39.25073623641271
 30
0
 11
278.1430336913499
 21
46.25073623641271
 31
0
  0
LINE
  8
1
 62
2
 10
281.1844855756773
 20
39.25073623641271
 30
0
 11
277.1430336913499
 21
46.25073623641271
 31
0
  0
LINE
  8
2
 62
1
  6
CENTER
 10
273.9066336913499
 20
39.85073623641267
 30
0
 11
284.5430336913499
 21
39.85073623641267
 31
0
  0
LINE
  8
2
 62
1
  6
CENTER
 10
273.9975336913498
 20
45.65073623641268
 30
0
 11
284.4975336913498
 21
45.65073623641268
 31
0
  0
LINE
  8
1
 62
3
 10
275.5430336913499
 20
39.25073623641271
 30
0
 11
284.5430336913499
 21
39.25073623641271
 31
0
  0
LINE
  8
1
 62
3
 10
275.5430336913499
 20
46.25073623641271
 30
0
 11
284.5430336913499
 21
46.25073623641254
 31
0
  0
LINE
  8
1
 62
3
 10
275.5430336913499
 20
39.25073623641271
 30
0
 11
275.5430336913499
 21
46.25073623641271
 31
0
  0
ARC
  8
1
 62
3
 10
166.9068513433588
 20
162.8477413329838
 30
0
 40
4.700000000000033
 50
318.1316937737067
 51
0
  0
ARC
  8
1
 62
3
 10
166.9068513433588
 20
162.8477413329838
 30
0
 40
4.699999999999903
 50
180
 51
221.8683062262925
  0
ARC
  8
1
 62
3
 10
166.8254823497052
 20
163.3416216593664
 30
0
 40
4.806808424543241
 50
354.1026806983087
 51
89.03005857679203
  0
ARC
  8
1
 62
3
 10
166.9882203370125
 20
163.3416216593664
 30
0
 40
4.806808424543289
 50
90.96994142320934
 51
185.8973193016913
  0
ARC
  8
1
 62
3
 10
294.0567490503769
 20
126.8484636221384
 30
0
 40
4.799999999999949
 50
342.4172239915731
 51
355.6688512692111
  0
ARC
  8
1
 62
3
 10
296.253833616913
 20
126.4984636221385
 30
0
 40
2.982960852905301
 50
37.1157559778604
 51
55.21831468208897
  0
ARC
  8
1
 62
3
 10
294.0567490503769
 20
126.8484636221384
 30
0
 40
4.79999999999981
 50
4.331148730787718
 51
17.58277600842575
  0
ARC
  8
1
 62
3
 10
296.2538336169132
 20
127.1984636221385
 30
0
 40
2.982960852905155
 50
304.7816853179064
 51
322.8842440221329
  0
ARC
  8
1
 62
3
 10
294.0567490503769
 20
25.15073623641263
 30
0
 40
4.799999999999951
 50
342.4172239915731
 51
355.668851269211
  0
ARC
  8
1
 62
3
 10
296.2538336169131
 20
24.80073623641272
 30
0
 40
2.982960852905256
 50
37.11575597786106
 51
55.21831468208897
  0
ARC
  8
1
 62
3
 10
294.0567490503769
 20
25.15073623641263
 30
0
 40
4.799999999999809
 50
4.331148730787634
 51
17.58277600842559
  0
ARC
  8
1
 62
3
 10
296.2538336169133
 20
25.50073623641271
 30
0
 40
2.982960852905175
 50
304.7816853179075
 51
322.8842440221318
  0
ARC
  8
1
 62
3
 10
294.0567490503769
 20
60.35073623641281
 30
0
 40
4.799999999999816
 50
4.331148730788819
 51
17.58277600842697
  0
ARC
  8
1
 62
3
 10
296.2538336169131
 20
60.7007362364127
 30
0
 40
2.982960852905305
 50
304.781685317911
 51
322.8842440221388
  0
ARC
  8
1
 62
3
 10
294.0567490503769
 20
60.35073623641281
 30
0
 40
4.799999999999922
 50
342.4172239915741
 51
355.6688512692124
  0
ARC
  8
1
 62
3
 10
296.2538336169133
 20
60.00073623641271
 30
0
 40
2.982960852905259
 50
37.11575597786838
 51
55.21831468209255
  0
ARC
  8
1
 62
3
 10
440.0788950049759
 20
126.8484636221384
 30
0
 40
0.4571999999999119
 50
172.5415509436758
 51
187.4584490563224
  0
ARC
  8
1
 62
3
 10
440.0788950049759
 20
126.8484636221384
 30
0
 40
1.043999999999937
 50
120.2161982852417
 51
149.7838017147477
  0
ARC
  8
1
 62
3
 10
440.0788950049759
 20
126.8484636221384
 30
0
 40
0.4571999999999414
 50
82.54155094364758
 51
97.45844905627472
  0
ARC
  8
1
 62
3
 10
440.0788950049759
 20
126.8484636221384
 30
0
 40
1.044000000000097
 50
30.21619828524286
 51
59.78380171473408
  0
ARC
  8
1
 62
3
 10
440.0788950049759
 20
126.8484636221384
 30
0
 40
0.4572000000001919
 50
352.5415509436822
 51
7.458449056319535
  0
ARC
  8
1
 62
3
 10
440.0788950049759
 20
126.8484636221384
 30
0
 40
1.044000000000268
 50
300.2161982852635
 51
329.7838017147484
  0
ARC
  8
1
 62
3
 10
440.0788950049759
 20
126.8484636221384
 30
0
 40
0.4571999999998603
 50
262.5415509437253
 51
277.4584490563524
  0
ARC
  8
1
 62
3
 10
440.0788950049759
 20
126.8484636221384
 30
0
 40
1.043999999999895
 50
210.216198285261
 51
239.7838017147607
  0
ARC
  8
1
 62
3
 10
475.2788919096384
 20
126.8484636221384
 30
0
 40
0.4571999999999119
 50
172.5415509436758
 51
187.4584490563224
  0
ARC
  8
1
 62
3
 10
475.2788919096384
 20
126.8484636221384
 30
0
 40
1.043999999999965
 50
120.2161982852444
 51
149.7838017147446
  0
ARC
  8
1
 62
3
 10
475.2788919096384
 20
126.8484636221384
 30
0
 40
0.4571999999999266
 50
82.54155094366172
 51
97.45844905628178
  0
ARC
  8
1
 62
3
 10
475.2788919096384
 20
126.8484636221384
 30
0
 40
1.044000000000146
 50
30.21619828524129
 51
59.78380171474485
  0
ARC
  8
1
 62
3
 10
475.2788919096384
 20
126.8484636221384
 30
0
 40
0.4572000000001919
 50
352.5415509436822
 51
7.458449056319535
  0
ARC
  8
1
 62
3
 10
475.2788919096384
 20
126.8484636221384
 30
0
 40
1.044000000000153
 50
300.2161982852528
 51
329.78380171475
  0
ARC
  8
1
 62
3
 10
475.2788919096384
 20
126.8484636221384
 30
0
 40
0.4571999999998676
 50
262.5415509437182
 51
277.4584490563382
  0
ARC
  8
1
 62
3
 10
475.2788919096384
 20
126.8484636221384
 30
0
 40
1.043999999999797
 50
210.2161982852642
 51
239.783801714758
  0
ARC
  8
1
 62
3
 10
457.6788934573072
 20
162.8477413329839
 30
0
 40
32.50000000000031
 50
210.0576211967898
 51
210.5882742142301
  0
ARC
  8
1
 62
4
 10
457.6788934573072
 20
162.8477413329839
 30
0
 40
32.50000000000031
 50
210.0576211967898
 51
210.5882742142301
  0
ARC
  8
1
 62
3
 10
457.6788934573072
 20
162.8477413329839
 30
0
 40
32.49999999999994
 50
101.832269048497
 51
180
  0
ARC
  8
1
 62
3
 10
457.6788934573072
 20
162.8477413329839
 30
0
 40
32.5
 50
180
 51
228.2704652751676
  0
ARC
  8
1
 62
3
 10
457.6788934573072
 20
162.8477413329839
 30
0
 40
32.50000000000013
 50
313.3451802810879
 51
78.16773095150305
  0
ARC
  8
1
 62
3
 10
457.6788934573072
 20
162.8477413329839
 30
0
 40
32.5
 50
180
 51
228.2704652751676
  0
CIRCLE
  8
1
 62
3
 10
200.1568513433588
 20
129.5977413329838
 30
0
 40
2.749999999999922
  0
CIRCLE
  8
1
 62
3
 10
133.6568513433588
 20
129.5977413329838
 30
0
 40
2.749999999999998
  0
CIRCLE
  8
1
 62
3
 10
200.1568513433588
 20
196.0977413329838
 30
0
 40
2.750000000000086
  0
CIRCLE
  8
1
 62
3
 10
133.6568513433588
 20
196.0977413329838
 30
0
 40
2.750000000000069
  0
CIRCLE
  8
1
 62
3
 10
166.9068513433588
 20
162.8477413329838
 30
0
 40
11
  0
CIRCLE
  8
1
 62
3
 10
166.9068513433588
 20
162.8477413329838
 30
0
 40
33.5
  0
CIRCLE
  8
1
 62
3
 10
166.9068513433588
 20
162.8477413329838
 30
0
 40
36.65000000000001
  0
CIRCLE
  8
1
 62
3
 10
166.9068513433588
 20
162.8477413329838
 30
0
 40
11.84999999999999
  0
CIRCLE
  8
1
 62
3
 10
300.1684567193013
 20
52.75073623641271
 30
0
 40
0.3499999999998025
  0
CIRCLE
  8
1
 62
3
 10
300.1684567193013
 20
50.25073623641271
 30
0
 40
0.3499999999996959
  0
CIRCLE
  8
1
 62
3
 10
300.1684567193013
 20
47.75073623641271
 30
0
 40
0.3499999999996959
  0
CIRCLE
  8
1
 62
3
 10
300.1684567193013
 20
45.25073623641271
 30
0
 40
0.3499999999996959
  0
CIRCLE
  8
1
 62
3
 10
300.1684567193013
 20
32.75073623641271
 30
0
 40
0.3499999999996959
  0
CIRCLE
  8
1
 62
3
 10
300.1684567193013
 20
35.25073623641271
 30
0
 40
0.3499999999996959
  0
CIRCLE
  8
1
 62
3
 10
300.1684567193013
 20
37.75073623641271
 30
0
 40
0.3499999999996959
  0
CIRCLE
  8
1
 62
3
 10
300.1684567193013
 20
40.25073623641271
 30
0
 40
0.3499999999996959
  0
CIRCLE
  8
1
 62
3
 10
300.1684567193013
 20
42.75073623641271
 30
0
 40
0.3499999999996959
  0
CIRCLE
  8
1
 62
3
 10
300.1684567193013
 20
30.25073623641271
 30
0
 40
0.3499999999996604
  0
CIRCLE
  8
1
 62
3
 10
300.1684567193013
 20
55.25073623641271
 30
0
 40
0.3499999999998025
  0
CIRCLE
  8
1
 62
3
 10
457.6795072300409
 20
162.8477413329838
 30
0
 40
31
  0
CIRCLE
  8
1
 62
3
 10
440.0788950049759
 20
126.8484636221384
 30
0
 40
2.015999999999679
  0
CIRCLE
  8
1
 62
3
 10
475.2788919096384
 20
126.8484636221384
 30
0
 40
2.015999999999565
  0
CIRCLE
  8
1
 62
3
 10
424.4288934573071
 20
196.0977413329839
 30
0
 40
4
  0
CIRCLE
  8
1
 62
3
 10
424.4288934573071
 20
129.5977413329839
 30
0
 40
4
  0
CIRCLE
  8
1
 62
3
 10
490.9288934573073
 20
129.5977413329839
 30
0
 40
4.000000000000284
  0
CIRCLE
  8
1
 62
3
 10
490.9288934573073
 20
196.0977413329839
 30
0
 40
4.000000000000284
  0
CIRCLE
  8
1
 62
3
 10
490.9288934573073
 20
196.0977413329839
 30
0
 40
2.599999999999649
  0
CIRCLE
  8
1
 62
3
 10
490.9288934573073
 20
129.5977413329839
 30
0
 40
2.600000000000051
  0
CIRCLE
  8
1
 62
3
 10
424.4288934573071
 20
196.0977413329839
 30
0
 40
2.599999999999896
  0
CIRCLE
  8
1
 62
3
 10
424.4288934573071
 20
129.5977413329839
 30
0
 40
2.599999999999938
  0
CIRCLE
  8
1
 62
3
 10
457.6795072300409
 20
162.8477413329838
 30
0
 40
4
  0
CIRCLE
  8
1
 62
3
 10
457.6795072300409
 20
162.8477413329838
 30
0
 40
6
  0
CIRCLE
  8
1
 62
3
 10
166.9068513433588
 20
162.8477413329838
 30
0
 40
3.499999999999915
  0
CIRCLE
  8
1
 62
1
  6
DASHDOT
 10
166.9068513433588
 20
162.8477413329838
 30
0
 40
2.900000000000006
  0
POLYLINE
  8
1
 62
3
 66
1
  0
VERTEX
  8
1
 10
321.7821285296569
 20
283.5634687817609
 30
0
 42
-0.00115442049058275
  0
VERTEX
  8
1
 10
322.5137201805127
 20
283.4848537571169
 30
0
 42
-0.003468734099835586
  0
VERTEX
  8
1
 10
323.2439772484674
 20
283.3995476100936
 30
0
 42
-0.005796547176546158
  0
VERTEX
  8
1
 10
323.9715651506201
 20
283.3008592183115
 30
0
 42
-0.008136977558751823
  0
VERTEX
  8
1
 10
324.6951493040696
 20
283.1820974593916
 30
0
 42
-0.01756846700865371
  0
VERTEX
  8
1
 10
325.8913024915458
 20
282.922075684698
 30
0
 42
-0.003142605947027593
  0
VERTEX
  8
1
 10
326.3674135443534
 20
282.7985210019749
 30
0
 42
-5.55977317682186e-005
  0
VERTEX
  8
1
 10
326.8429282833729
 20
282.6718704446514
 30
0
 42
0.00303068383943781
  0
VERTEX
  8
1
 10
327.3190467076394
 20
282.5480872945942
 30
0
 42
0.006125008534410106
  0
VERTEX
  8
1
 10
327.7969688161881
 20
282.4331348336701
 30
0
 42
0.009595418813326855
  0
VERTEX
  8
1
 10
328.4452869327884
 20
282.298605365885
 30
0
 42
0.003443420274583543
  0
VERTEX
  8
1
 10
329.0971815784809
 20
282.1809737648191
 30
0
 42
0.001921277061856348
  0
VERTEX
  8
1
 10
329.7507728096069
 20
282.0702632599174
 30
0
 42
-0.003059807641614349
  0
VERTEX
  8
1
 10
330.4041806825073
 20
281.9564970806244
 30
0
 42
-0.006880434131636597
  0
VERTEX
  8
1
 10
331.0555252535231
 20
281.8296984563851
 30
0
 42
-0.005683946695323012
  0
VERTEX
  8
1
 10
331.6410490331415
 20
281.6986618080513
 30
0
 42
-0.001199148558177113
  0
VERTEX
  8
1
 10
332.2249163828931
 20
281.5595328710907
 30
0
 42
0.003285732452816109
  0
VERTEX
  8
1
 10
332.8086884858184
 20
281.4229944364304
 30
0
 42
0.007799462787539156
  0
VERTEX
  8
1
 10
333.3939265249575
 20
281.2997292949971
 30
0
 42
0.01237618344522695
  0
VERTEX
  8
1
 10
333.982191683351
 20
281.2004202377178
 30
0
 42
0.01495152526731505
  0
VERTEX
  8
1
 10
334.5971142337428
 20
281.1308932715978
 30
0
 42
0.00932884967658886
  0
VERTEX
  8
1
 10
335.2159902223543
 20
281.0912123452187
 30
0
 42
0.008782865382874112
  0
VERTEX
  8
1
 10
335.8378312896303
 20
281.0739159486452
 30
0
 42
0.00321890557487051
  0
VERTEX
  8
1
 10
336.4616490760162
 20
281.0715425719423
 30
0
 42
0.002755082482749506
  0
VERTEX
  8
1
 10
337.086455221957
 20
281.0766307051745
 30
0
  0
SEQEND
  8
1
  0
POLYLINE
  8
1
 62
3
 66
1
  0
VERTEX
  8
1
 10
320.760008278386
 20
284.664286808439
 30
0
 42
-7.052380750284413e-005
  0
VERTEX
  8
1
 10
321.0505086408477
 20
284.6409115301927
 30
0
 42
-0.0002115044987033441
  0
VERTEX
  8
1
 10
321.3410417255263
 20
284.6173686602127
 30
0
 42
-0.0003522839052945569
  0
VERTEX
  8
1
 10
321.6316402546389
 20
284.5934906067654
 30
0
 42
-0.0004927261343831982
  0
VERTEX
  8
1
 10
321.9223369504027
 20
284.569109778117
 30
0
 42
-0.0006326927683511623
  0
VERTEX
  8
1
 10
322.2131645350345
 20
284.5440585825339
 30
0
 42
-0.002829224898317548
  0
VERTEX
  8
1
 10
322.8827744445107
 20
284.4822204862171
 30
0
 42
-0.005262177555061993
  0
VERTEX
  8
1
 10
323.551461033532
 20
284.4095406130882
 30
0
 42
-0.007717915863716955
  0
VERTEX
  8
1
 10
324.2174344544487
 20
284.319615235098
 30
0
 42
-0.01019790816411597
  0
VERTEX
  8
1
 10
324.8789048596119
 20
284.2060406241975
 30
0
 42
-0.02165487244670664
  0
VERTEX
  8
1
 10
325.9997846160219
 20
283.9390651959595
 30
0
 42
-0.003174607387859642
  0
VERTEX
  8
1
 10
326.4631415852228
 20
283.8054867641026
 30
0
 42
0.001341736710659295
  0
VERTEX
  8
1
 10
326.9259704523531
 20
283.6702214408199
 30
0
 42
0.005867617843880861
  0
VERTEX
  8
1
 10
327.3900883607914
 20
283.5418129101644
 30
0
 42
0.01043616403243677
  0
VERTEX
  8
1
 10
327.8573124539161
 20
283.4288048561892
 30
0
 42
0.01572676402658831
  0
VERTEX
  8
1
 10
328.4984506045356
 20
283.3088283270287
 30
0
 42
0.004938296709366478
  0
VERTEX
  8
1
 10
329.1452595571228
 20
283.215260838495
 30
0
 42
0.001884020282910578
  0
VERTEX
  8
1
 10
329.7943378962474
 20
283.1303895224724
 30
0
 42
-0.006909369922326669
  0
VERTEX
  8
1
 10
330.4422842064789
 20
283.0365015108451
 30
0
 42
-0.01379629701638787
  0
VERTEX
  8
1
 10
331.0856970723871
 20
282.9158839354972
 30
0
 42
-0.01224550147373669
  0
VERTEX
  8
1
 10
331.6856342768019
 20
282.7675847685009
 30
0
 42
-0.004376625229185839
  0
VERTEX
  8
1
 10
332.2814161263956
 20
282.5991381957537
 30
0
 42
0.003443735131288281
  0
VERTEX
  8
1
 10
332.8759303805376
 20
282.4298446570921
 30
0
 42
0.01135075693028268
  0
VERTEX
  8
1
 10
333.4720647985974
 20
282.279004592353
 30
0
 42
0.01951810480745548
  0
VERTEX
  8
1
 10
334.0727071399442
 20
282.1659184413728
 30
0
 42
0.02289053426963728
  0
VERTEX
  8
1
 10
334.6669574638669
 20
282.1055186043899
 30
0
 42
0.01385585263738117
  0
VERTEX
  8
1
 10
335.2668739827762
 20
282.0888309042468
 30
0
 42
0.01336861782350838
  0
VERTEX
  8
1
 10
335.8710401479254
 20
282.1049273067334
 30
0
 42
0.004535915093868668
  0
VERTEX
  8
1
 10
336.4780394105679
 20
282.1428797776398
 30
0
 42
0.004326632835776621
  0
VERTEX
  8
1
 10
337.086455221957
 20
282.1917602827562
 30
0
  0
SEQEND
  8
1
  0
POLYLINE
  8
1
 62
3
 66
1
  0
VERTEX
  8
1
 10
337.086455221957
 20
271.164286808439
 30
0
 42
-0.001607743817768283
  0
VERTEX
  8
1
 10
336.1783263030218
 20
271.1679522212868
 30
0
 42
-0.004839459238605165
  0
VERTEX
  8
1
 10
335.2718434907089
 20
271.1832914890384
 30
0
 42
-0.008112118624388485
  0
VERTEX
  8
1
 10
334.3686528916403
 20
271.2219784665973
 30
0
 42
-0.01142630948592791
  0
VERTEX
  8
1
 10
333.4704006124384
 20
271.2956870088673
 30
0
 42
-0.01474034783441432
  0
VERTEX
  8
1
 10
332.5787327597253
 20
271.4160909707521
 30
0
 42
-0.01091907975244423
  0
VERTEX
  8
1
 10
331.9645976941214
 20
271.5322449114158
 30
0
 42
-0.01003733773352953
  0
VERTEX
  8
1
 10
331.354738276441
 20
271.6742914042231
 30
0
 42
-0.009167219348300764
  0
VERTEX
  8
1
 10
330.7494658118972
 20
271.8400086854119
 30
0
 42
-0.008316733795375857
  0
VERTEX
  8
1
 10
330.1490916057029
 20
272.02717499122
 30
0
 42
-0.02049271564580057
  0
VERTEX
  8
1
 10
328.535342409058
 20
272.634248203534
 30
0
 42
-0.01613454575087783
  0
VERTEX
  8
1
 10
327.5429991783283
 20
273.0942889511338
 30
0
 42
-0.01882779289650574
  0
VERTEX
  8
1
 10
326.5865003607811
 20
273.621802463283
 30
0
 42
-0.02154182287542694
  0
VERTEX
  8
1
 10
325.675449046315
 20
274.22490040258
 30
0
 42
-0.02412403713688817
  0
VERTEX
  8
1
 10
324.819448324829
 20
274.911694431623
 30
0
 42
-0.01837071847588708
  0
VERTEX
  8
1
 10
324.001863299515
 20
275.6996470902391
 30
0
 42
-0.003824838419133709
  0
VERTEX
  8
1
 10
323.2165753022538
 20
276.5264332930585
 30
0
 42
0.01068385427287591
  0
VERTEX
  8
1
 10
322.4280048250619
 20
277.3345024042515
 30
0
 42
0.02605597401766664
  0
VERTEX
  8
1
 10
321.6005723599558
 20
278.0663037879882
 30
0
 42
0.04330280254875567
  0
VERTEX
  8
1
 10
320.6986983989521
 20
278.664286808439
 30
0
 42
0.03453843384925442
  0
VERTEX
  8
1
 10
320.03595931761
 20
278.9681447736859
 30
0
 42
0.01926728948000604
  0
VERTEX
  8
1
 10
319.3334138668965
 20
279.2027640954349
 30
0
 42
0.01966704674607254
  0
VERTEX
  8
1
 10
318.6010136391548
 20
279.3854544345604
 30
0
 42
0.00539187721671277
  0
VERTEX
  8
1
 10
317.8487102267272
 20
279.533525451937
 30
0
 42
0.006832092944590897
  0
VERTEX
  8
1
 10
317.086455221957
 20
279.664286808439
 30
0
  0
SEQEND
  8
1
  0
POLYLINE
  8
1
 62
3
 66
1
  0
VERTEX
  8
1
 10
337.086455221957
 20
272.164286808439
 30
0
 42
-0.0016077438178309
  0
VERTEX
  8
1
 10
336.1783263030218
 20
272.1679522212869
 30
0
 42
-0.004839459238667839
  0
VERTEX
  8
1
 10
335.2718434907089
 20
272.1832914890384
 30
0
 42
-0.008112118624388485
  0
VERTEX
  8
1
 10
334.3686528916403
 20
272.2219784665973
 30
0
 42
-0.01142630948592791
  0
VERTEX
  8
1
 10
333.4704006124384
 20
272.2956870088673
 30
0
 42
-0.01474034783441432
  0
VERTEX
  8
1
 10
332.5787327597253
 20
272.4160909707521
 30
0
 42
-0.01091907975235546
  0
VERTEX
  8
1
 10
331.9645976941214
 20
272.5322449114157
 30
0
 42
-0.01003733773335187
  0
VERTEX
  8
1
 10
331.354738276441
 20
272.674291404223
 30
0
 42
-0.009167219348212716
  0
VERTEX
  8
1
 10
330.7494658118972
 20
272.8400086854119
 30
0
 42
-0.008316733795634945
  0
VERTEX
  8
1
 10
330.1490916057029
 20
273.0271749912201
 30
0
 42
-0.02049271564588482
  0
VERTEX
  8
1
 10
328.535342409058
 20
273.634248203534
 30
0
 42
-0.01613454575078355
  0
VERTEX
  8
1
 10
327.5429991783283
 20
274.0942889511338
 30
0
 42
-0.01882779289650574
  0
VERTEX
  8
1
 10
326.5865003607811
 20
274.621802463283
 30
0
 42
-0.02154182287542694
  0
VERTEX
  8
1
 10
325.675449046315
 20
275.22490040258
 30
0
 42
-0.02412403713680733
  0
VERTEX
  8
1
 10
324.819448324829
 20
275.911694431623
 30
0
 42
-0.0183707184759591
  0
VERTEX
  8
1
 10
324.001863299515
 20
276.6996470902391
 30
0
 42
-0.003824838419133709
  0
VERTEX
  8
1
 10
323.2165753022538
 20
277.5264332930585
 30
0
 42
0.01068385427287591
  0
VERTEX
  8
1
 10
322.4280048250619
 20
278.3345024042515
 30
0
 42
0.02605597401766664
  0
VERTEX
  8
1
 10
321.6005723599558
 20
279.0663037879882
 30
0
 42
0.04330280254875567
  0
VERTEX
  8
1
 10
320.6986983989521
 20
279.664286808439
 30
0
 42
0.03453843384925442
  0
VERTEX
  8
1
 10
320.03595931761
 20
279.9681447736859
 30
0
 42
0.01926728948000604
  0
VERTEX
  8
1
 10
319.3334138668965
 20
280.2027640954349
 30
0
 42
0.01966704674607254
  0
VERTEX
  8
1
 10
318.6010136391548
 20
280.3854544345604
 30
0
 42
0.005391877216749186
  0
VERTEX
  8
1
 10
317.8487102267272
 20
280.5335254519369
 30
0
 42
0.006832092944482089
  0
VERTEX
  8
1
 10
317.086455221957
 20
280.664286808439
 30
0
  0
SEQEND
  8
1
  0
POLYLINE
  8
1
 62
3
 66
1
  0
VERTEX
  8
1
 10
337.086455221957
 20
273.664286808439
 30
0
 42
-0.00190278926441055
  0
VERTEX
  8
1
 10
336.3443893862794
 20
273.618492448074
 30
0
 42
-0.005745277525817156
  0
VERTEX
  8
1
 10
335.6040997633201
 20
273.5841466778002
 30
0
 42
-0.009686512557303599
  0
VERTEX
  8
1
 10
334.8673625657972
 20
273.5726980877089
 30
0
 42
-0.01374928444269461
  0
VERTEX
  8
1
 10
334.1359540064292
 20
273.5955952678914
 30
0
 42
-0.0178829513067107
  0
VERTEX
  8
1
 10
333.4116502979342
 20
273.664286808439
 30
0
 42
-0.01866086244717616
  0
VERTEX
  8
1
 10
332.651693777666
 20
273.7952935904079
 30
0
 42
-0.01353317069726973
  0
VERTEX
  8
1
 10
331.8982265157595
 20
273.9757924410359
 30
0
 42
-0.008418840653988905
  0
VERTEX
  8
1
 10
331.1477327335344
 20
274.1907879006795
 30
0
 42
-0.003422876774881972
  0
VERTEX
  8
1
 10
330.3966966523107
 20
274.4252845096951
 30
0
 42
0.001454396476857278
  0
VERTEX
  8
1
 10
329.641602493408
 20
274.664286808439
 30
0
 42
0.002341100075038196
  0
VERTEX
  8
1
 10
328.7982243304019
 20
274.9242060370283
 30
0
 42
-0.008094591874808982
  0
VERTEX
  8
1
 10
327.9615665228992
 20
275.1965944052564
 30
0
 42
-0.01670365432658783
  0
VERTEX
  8
1
 10
327.1476741338624
 20
275.5068357465635
 30
0
 42
-0.02578314228300824
  0
VERTEX
  8
1
 10
326.3725922262545
 20
275.8803138943902
 30
0
 42
-0.07276438933758735
  0
VERTEX
  8
1
 10
324.9380617654598
 20
276.9627468330648
 30
0
 42
-0.01438878185770684
  0
VERTEX
  8
1
 10
324.2736525758094
 20
277.6591623871922
 30
0
 42
0.002813176268202164
  0
VERTEX
  8
1
 10
323.6244608666306
 20
278.3717528498172
 30
0
 42
0.02037324986591961
  0
VERTEX
  8
1
 10
322.9558092104676
 20
279.0406117261981
 30
0
 42
0.04059420823350683
  0
VERTEX
  8
1
 10
322.233020179864
 20
279.6058325215931
 30
0
 42
0.05710425916600213
  0
VERTEX
  8
1
 10
321.3354036696847
 20
280.0600307619185
 30
0
 42
0.03290429397091364
  0
VERTEX
  8
1
 10
320.3499895052373
 20
280.3525574136065
 30
0
 42
0.03065123788447739
  0
VERTEX
  8
1
 10
319.2987271000889
 20
280.5238303738163
 30
0
 42
0.008913767507464657
  0
VERTEX
  8
1
 10
318.2035658678065
 20
280.6142675397073
 30
0
 42
0.009909907619795683
  0
VERTEX
  8
1
 10
317.086455221957
 20
280.664286808439
 30
0
  0
SEQEND
  8
1
  0
POLYLINE
  8
1
 62
3
 66
1
  0
VERTEX
  8
1
 10
337.086455221957
 20
274.664286808439
 30
0
 42
-0.001829921716712605
  0
VERTEX
  8
1
 10
336.3452401756298
 20
274.6203600433258
 30
0
 42
-0.005521412245445131
  0
VERTEX
  8
1
 10
335.6055886446833
 20
274.5874149694909
 30
0
 42
-0.009297014988721059
  0
VERTEX
  8
1
 10
334.8690641444981
 20
274.5764332782126
 30
0
 42
-0.01317426561356535
  0
VERTEX
  8
1
 10
334.1372301904548
 20
274.5983966607692
 30
0
 42
-0.01710602726125005
  0
VERTEX
  8
1
 10
333.4116502979342
 20
274.664286808439
 30
0
 42
-0.01816776250885657
  0
VERTEX
  8
1
 10
332.6494084993196
 20
274.7902771019121
 30
0
 42
-0.01395037294202314
  0
VERTEX
  8
1
 10
331.8936282387073
 20
274.9656986141858
 30
0
 42
-0.009739958315238235
  0
VERTEX
  8
1
 10
331.1419640969498
 20
275.1781249797232
 30
0
 42
-0.005623898474935251
  0
VERTEX
  8
1
 10
330.3920706548992
 20
275.4151298329867
 30
0
 42
-0.00160791771388136
  0
VERTEX
  8
1
 10
329.641602493408
 20
275.664286808439
 30
0
 42
-0.003035046830069249
  0
VERTEX
  8
1
 10
328.7943234181413
 20
275.9509166075544
 30
0
 42
-0.01003263971666878
  0
VERTEX
  8
1
 10
327.9575442646872
 20
276.2585270496737
 30
0
 42
-0.01731546574565125
  0
VERTEX
  8
1
 10
327.1454809858294
 20
276.608447766983
 30
0
 42
-0.02487359489834299
  0
VERTEX
  8
1
 10
326.3723495343518
 20
277.022008391668
 30
0
 42
-0.03223808317315543
  0
VERTEX
  8
1
 10
325.6523658630381
 20
277.5205385559144
 30
0
 42
-0.02888700042251268
  0
VERTEX
  8
1
 10
324.9464105568769
 20
278.1604110144259
 30
0
 42
-0.0114241643768231
  0
VERTEX
  8
1
 10
324.2847841406266
 20
278.8644468842098
 30
0
 42
0.005159818166402283
  0
VERTEX
  8
1
 10
323.6342008091395
 20
279.5743345081429
 30
0
 42
0.02241317470656822
  0
VERTEX
  8
1
 10
322.961374757268
 20
280.231762229102
 30
0
 42
0.04260597243968376
  0
VERTEX
  8
1
 10
322.233020179864
 20
280.7784183899635
 30
0
 42
0.05849288245841246
  0
VERTEX
  8
1
 10
321.3340129493205
 20
281.2036659726564
 30
0
 42
0.03363910028939868
  0
VERTEX
  8
1
 10
320.3481352114185
 20
281.4635309560174
 30
0
 42
0.03098575730232057
  0
VERTEX
  8
1
 10
319.2971045929974
 20
281.5993589898795
 30
0
 42
0.009028684575107717
  0
VERTEX
  8
1
 10
318.202638720897
 20
281.6524957240757
 30
0
 42
0.009946353456029419
  0
VERTEX
  8
1
 10
317.086455221957
 20
281.664286808439
 30
0
  0
SEQEND
  8
1
  0
POLYLINE
  8
1
 62
3
 66
1
  0
VERTEX
  8
1
 10
337.086455221957
 20
276.164286808439
 30
0
 42
-0.001399310508315197
  0
VERTEX
  8
1
 10
336.4542757322517
 20
276.144137921393
 30
0
 42
-0.004208486187181625
  0
VERTEX
  8
1
 10
335.8227035278729
 20
276.1310925017934
 30
0
 42
-0.007044180568746897
  0
VERTEX
  8
1
 10
335.1923458941473
 20
276.1322540170867
 30
0
 42
-0.009906475772435376
  0
VERTEX
  8
1
 10
334.5638101164012
 20
276.1547259347192
 30
0
 42
-0.01276798874510874
  0
VERTEX
  8
1
 10
333.9377034799612
 20
276.2056117221374
 30
0
 42
-0.01604707638830067
  0
VERTEX
  8
1
 10
333.1872172513157
 20
276.3116573202669
 30
0
 42
-0.01397860901106566
  0
VERTEX
  8
1
 10
332.4424393687476
 20
276.4629480035916
 30
0
 42
-0.0119775244728392
  0
VERTEX
  8
1
 10
331.7046673730836
 20
276.6531352979955
 30
0
 42
-0.01006527445197542
  0
VERTEX
  8
1
 10
330.9751988051499
 20
276.8758707293623
 30
0
 42
-0.008241774927183164
  0
VERTEX
  8
1
 10
330.2553312057731
 20
277.124805823576
 30
0
 42
-0.003838553974152755
  0
VERTEX
  8
1
 10
329.7891857620174
 20
277.2987566805753
 30
0
 42
-0.001856704054723794
  0
VERTEX
  8
1
 10
329.3257451635739
 20
277.4777415951794
 30
0
 42
0.0001371936479245287
  0
VERTEX
  8
1
 10
328.8630371316129
 20
277.6582754348194
 30
0
 42
0.002130188905958674
  0
VERTEX
  8
1
 10
328.3990893873051
 20
277.8368730669258
 30
0
 42
0.00410546346793676
  0
VERTEX
  8
1
 10
327.931929651821
 20
278.0100493589295
 30
0
 42
0.004136423690077477
  0
VERTEX
  8
1
 10
327.3531647391385
 20
278.2138114896376
 30
0
 42
-0.004610467601081016
  0
VERTEX
  8
1
 10
326.7749041112702
 20
278.4200049425373
 30
0
 42
-0.01190343574353055
  0
VERTEX
  8
1
 10
326.2054642426622
 20
278.6444822260987
 30
0
 42
-0.01931776423056749
  0
VERTEX
  8
1
 10
325.6531616077605
 20
278.9030958487919
 30
0
 42
-0.02658956512605482
  0
VERTEX
  8
1
 10
325.1263126810111
 20
279.2116983190866
 30
0
 42
-0.02465029267642052
  0
VERTEX
  8
1
 10
324.5679915005893
 20
279.6280393110819
 30
0
 42
-0.007303506873370987
  0
VERTEX
  8
1
 10
324.0318177499369
 20
280.0835694768679
 30
0
 42
0.009583372171514457
  0
VERTEX
  8
1
 10
323.4970434633115
 20
280.5338453062402
 30
0
 42
0.02737041927770684
  0
VERTEX
  8
1
 10
322.942920674971
 20
280.9344232889942
 30
0
 42
0.0475761820620082
  0
VERTEX
  8
1
 10
322.3487014191731
 20
281.2408599149254
 30
0
 42
0.03703160076179927
  0
VERTEX
  8
1
 10
321.9345951114331
 20
281.3721481597742
 30
0
 42
0.01980714861996969
  0
VERTEX
  8
1
 10
321.5009400821799
 20
281.457068261833
 30
0
 42
0.0208625784400541
  0
VERTEX
  8
1
 10
321.0537126896981
 20
281.5073903434508
 30
0
 42
0.004976522058979888
  0
VERTEX
  8
1
 10
320.5988892922718
 20
281.5348845269764
 30
0
 42
0.007214920840687845
  0
VERTEX
  8
1
 10
320.1424462481853
 20
281.5513209347587
 30
0
 42
-0.0005860077343982494
  0
VERTEX
  8
1
 10
319.5213986372751
 20
281.5723036768343
 30
0
 42
-0.000465506874560137
  0
VERTEX
  8
1
 10
318.9069172968079
 20
281.5943600406836
 30
0
 42
-0.0003378585557129538
  0
VERTEX
  8
1
 10
318.297360659173
 20
281.6172216208631
 30
0
 42
-0.000204899279819142
  0
VERTEX
  8
1
 10
317.6910871567596
 20
281.6406200119293
 30
0
 42
-6.866814283986196e-005
  0
VERTEX
  8
1
 10
317.086455221957
 20
281.664286808439
 30
0
  0
SEQEND
  8
1
  0
POLYLINE
  8
1
 62
3
 66
1
  0
VERTEX
  8
1
 10
337.086455221957
 20
277.164286808439
 30
0
 42
-0.001437466414931773
  0
VERTEX
  8
1
 10
336.4538706922302
 20
277.1433277375263
 30
0
 42
-0.004324802430528256
  0
VERTEX
  8
1
 10
335.8219947078352
 20
277.1296746800267
 30
0
 42
-0.007243808653218113
  0
VERTEX
  8
1
 10
335.1915358141042
 20
277.1306336493533
 30
0
 42
-0.01019656978461288
  0
VERTEX
  8
1
 10
334.5632025563688
 20
277.1535106589192
 30
0
 42
-0.01315520811104027
  0
VERTEX
  8
1
 10
333.9377034799612
 20
277.2056117221374
 30
0
 42
-0.01633930251805019
  0
VERTEX
  8
1
 10
333.1884877878975
 20
277.3141987191063
 30
0
 42
-0.0137816654067753
  0
VERTEX
  8
1
 10
332.4450305411393
 20
277.4681310125682
 30
0
 42
-0.0112793159796438
  0
VERTEX
  8
1
 10
331.7079439129941
 20
277.6596892176895
 30
0
 42
-0.008860671032291642
  0
VERTEX
  8
1
 10
330.9778400767696
 20
277.8811539496365
 30
0
 42
-0.006521860467605713
  0
VERTEX
  8
1
 10
330.2553312057731
 20
278.124805823576
 30
0
 42
-0.00326399887959733
  0
VERTEX
  8
1
 10
329.7862882241392
 20
278.2929608620951
 30
0
 42
-0.002743206220311911
  0
VERTEX
  8
1
 10
329.3200969678263
 20
278.4664437558868
 30
0
 42
-0.00221434659697853
  0
VERTEX
  8
1
 10
328.8560870469353
 20
278.6443734839542
 30
0
 42
-0.001680038634000769
  0
VERTEX
  8
1
 10
328.3935880715666
 20
278.8258690253007
 30
0
 42
-0.001142648290231545
  0
VERTEX
  8
1
 10
327.931929651821
 20
279.0100493589295
 30
0
 42
-0.003025283605900092
  0
VERTEX
  8
1
 10
327.3525197246064
 20
279.245835448549
 30
0
 42
-0.006884513992144574
  0
VERTEX
  8
1
 10
326.7778159708681
 20
279.4930898952713
 30
0
 42
-0.0107536676207527
  0
VERTEX
  8
1
 10
326.212255483656
 20
279.7604287805733
 30
0
 42
-0.01459082984948911
  0
VERTEX
  8
1
 10
325.6602753560203
 20
280.056468185932
 30
0
 42
-0.01827915716367122
  0
VERTEX
  8
1
 10
325.1263126810111
 20
280.3898241928243
 30
0
 42
-0.01457721295475968
  0
VERTEX
  8
1
 10
324.5778238252725
 20
280.7892934243574
 30
0
 42
-0.001460479569322661
  0
VERTEX
  8
1
 10
324.0403730183895
 20
281.2076232546212
 30
0
 42
0.0117048116222753
  0
VERTEX
  8
1
 10
323.4994055131921
 20
281.6113220413287
 30
0
 42
0.02559818686925397
  0
VERTEX
  8
1
 10
322.94036656251
 20
281.9668981421925
 30
0
 42
0.04086222631797129
  0
VERTEX
  8
1
 10
322.3487014191731
 20
282.2408599149254
 30
0
 42
0.03180568557290712
  0
VERTEX
  8
1
 10
321.9299494951974
 20
282.3650787676895
 30
0
 42
0.0180498585784258
  0
VERTEX
  8
1
 10
321.4950623318656
 20
282.4481238894525
 30
0
 42
0.01830108516230752
  0
VERTEX
  8
1
 10
321.0489256134227
 20
282.5001056868168
 30
0
 42
0.005464783303982347
  0
VERTEX
  8
1
 10
320.5964250241142
 20
282.5311345663848
 30
0
 42
0.006549699693053092
  0
VERTEX
  8
1
 10
320.1424462481853
 20
282.5513209347587
 30
0
 42
0.0004093587786512265
  0
VERTEX
  8
1
 10
319.5235445662573
 20
282.5755692098857
 30
0
 42
0.000324517212289889
  0
VERTEX
  8
1
 10
318.9097785354509
 20
282.598714084752
 30
0
 42
0.0002340549039541777
  0
VERTEX
  8
1
 10
318.2998642429856
 20
282.6210314094229
 30
0
 42
0.0001422883526371002
  0
VERTEX
  8
1
 10
317.6925177760811
 20
282.6427970339636
 30
0
 42
4.708687557657963e-005
  0
VERTEX
  8
1
 10
317.086455221957
 20
282.664286808439
 30
0
  0
SEQEND
  8
1
  0
POLYLINE
  8
1
 62
3
 66
1
  0
VERTEX
  8
1
 10
337.086455221957
 20
278.664286808439
 30
0
 42
-0.001358152088050598
  0
VERTEX
  8
1
 10
336.4545389782896
 20
278.6390710548115
 30
0
 42
-0.004084509566415342
  0
VERTEX
  8
1
 10
335.8231642084392
 20
278.6207537472868
 30
0
 42
-0.006836327826127307
  0
VERTEX
  8
1
 10
335.192872386223
 20
278.6162333319678
 30
0
 42
-0.00961451280075561
  0
VERTEX
  8
1
 10
334.5642049854579
 20
278.6324082549571
 30
0
 42
-0.01239487570151274
  0
VERTEX
  8
1
 10
333.9377034799612
 20
278.6761769623577
 30
0
 42
-0.01720460201216157
  0
VERTEX
  8
1
 10
333.1102471054704
 20
278.7848561164021
 30
0
 42
-0.01506268212940612
  0
VERTEX
  8
1
 10
332.2891709418165
 20
278.9471237241347
 30
0
 42
-0.01298929339497529
  0
VERTEX
  8
1
 10
331.4760828917796
 20
279.1557684205311
 30
0
 42
-0.01101450300653821
  0
VERTEX
  8
1
 10
330.6725908581401
 20
279.4035788405669
 30
0
 42
-0.009143100764496738
  0
VERTEX
  8
1
 10
329.8803027436781
 20
279.6833436192175
 30
0
 42
-0.003751510980113818
  0
VERTEX
  8
1
 10
329.4446325212028
 20
279.8499174224883
 30
0
 42
-0.002072865824909765
  0
VERTEX
  8
1
 10
329.0116365082288
 20
280.0212780951795
 30
0
 42
-0.0003846956453414136
  0
VERTEX
  8
1
 10
328.5800221791437
 20
280.1945516992311
 30
0
 42
0.001309348898548245
  0
VERTEX
  8
1
 10
328.1484970083349
 20
280.3668642965826
 30
0
 42
0.003005986051564335
  0
VERTEX
  8
1
 10
327.7157684701899
 20
280.5353419491736
 30
0
 42
0.00395184471212501
  0
VERTEX
  8
1
 10
327.2517574210344
 20
280.7086028949187
 30
0
 42
0.001611805709648191
  0
VERTEX
  8
1
 10
326.7856007752503
 20
280.8767789605795
 30
0
 42
0.001288536037497662
  0
VERTEX
  8
1
 10
326.3179930548452
 20
281.0424194168622
 30
0
 42
-0.0005425218248008947
  0
VERTEX
  8
1
 10
325.8496287818266
 20
281.2080735344727
 30
0
 42
-0.001862584057000814
  0
VERTEX
  8
1
 10
325.3812024782021
 20
281.376290584117
 30
0
 42
-0.001452496948240575
  0
VERTEX
  8
1
 10
324.7282942654745
 20
281.6169981102585
 30
0
 42
0.002656236824408372
  0
VERTEX
  8
1
 10
324.0746774742443
 20
281.8561817597442
 30
0
 42
0.006791582524860437
  0
VERTEX
  8
1
 10
323.4184125861151
 20
282.0823684071506
 30
0
 42
0.01103558094081646
  0
VERTEX
  8
1
 10
322.7575600826906
 20
282.2840849270542
 30
0
 42
0.01535980820493119
  0
VERTEX
  8
1
 10
322.0901804455742
 20
282.4498581940314
 30
0
 42
0.02443126800989351
  0
VERTEX
  8
1
 10
321.1107019781958
 20
282.6118446035936
 30
0
 42
0.0160620545672184
  0
VERTEX
  8
1
 10
320.1170457925874
 20
282.6944305553687
 30
0
 42
0.01393493870861667
  0
VERTEX
  8
1
 10
319.1127563183064
 20
282.7174661638035
 30
0
 42
0.005770450064538123
  0
VERTEX
  8
1
 10
318.1013779849105
 20
282.7008015433446
 30
0
 42
0.003972978688588122
  0
VERTEX
  8
1
 10
317.086455221957
 20
282.664286808439
 30
0
  0
SEQEND
  8
1
  0
POLYLINE
  8
1
 62
3
 66
1
  0
VERTEX
  8
1
 10
337.086455221957
 20
279.664286808439
 30
0
 42
-0.001362471609938599
  0
VERTEX
  8
1
 10
336.4545112204484
 20
279.6389806281461
 30
0
 42
-0.004097610774242528
  0
VERTEX
  8
1
 10
335.8231156322172
 20
279.6205955006223
 30
0
 42
-0.006858595752738161
  0
VERTEX
  8
1
 10
335.1928168705406
 20
279.6160524786369
 30
0
 42
-0.009646437364494796
  0
VERTEX
  8
1
 10
334.5641633486962
 20
279.632272614959
 30
0
 42
-0.01243679960363059
  0
VERTEX
  8
1
 10
333.9377034799612
 20
279.6761769623577
 30
0
 42
-0.01723934499796133
  0
VERTEX
  8
1
 10
333.1103452765572
 20
279.7851759281617
 30
0
 42
-0.01504120646970737
  0
VERTEX
  8
1
 10
332.2893733218681
 20
279.9477830172373
 30
0
 42
-0.01291158192509075
  0
VERTEX
  8
1
 10
331.4763403952527
 20
280.1566072890969
 30
0
 42
-0.01088102849111453
  0
VERTEX
  8
1
 10
330.6727992760698
 20
280.4042578032529
 30
0
 42
-0.00895359670549073
  0
VERTEX
  8
1
 10
329.8803027436781
 20
280.6833436192175
 30
0
 42
-0.00370378141828309
  0
VERTEX
  8
1
 10
329.4444422596109
 20
280.8492976076686
 30
0
 42
-0.002172491294113159
  0
VERTEX
  8
1
 10
329.0112703510517
 20
281.0200852656522
 30
0
 42
-0.0006319289787843377
  0
VERTEX
  8
1
 10
328.5795752571772
 20
281.1930957624059
 30
0
 42
0.0009139763724129985
  0
VERTEX
  8
1
 10
328.1481452171643
 20
281.3657182671672
 30
0
 42
0.002461932441344876
  0
VERTEX
  8
1
 10
327.7157684701899
 20
281.5353419491736
 30
0
 42
0.003473150353791484
  0
VERTEX
  8
1
 10
327.2524302494617
 20
281.7107947667839
 30
0
 42
0.002008603979583206
  0
VERTEX
  8
1
 10
326.7869702058874
 20
281.8812401521155
 30
0
 42
0.00204756478100188
  0
VERTEX
  8
1
 10
326.3197226734786
 20
282.0480539921364
 30
0
 42
0.0005824769220551889
  0
VERTEX
  8
1
 10
325.8510219862463
 20
282.2126121738143
 30
0
 42
0.000624250145609343
  0
VERTEX
  8
1
 10
325.3812024782021
 20
282.376290584117
 30
0
 42
0.0003363676654857783
  0
VERTEX
  8
1
 10
324.7299123132896
 20
282.6017885646659
 30
0
 42
0.005230759131897393
  0
VERTEX
  8
1
 10
324.0761433553469
 20
282.8200239822245
 30
0
 42
0.006236406618191591
  0
VERTEX
  8
1
 10
323.4189172765977
 20
283.0227853678323
 30
0
 42
0.01123059924289248
  0
VERTEX
  8
1
 10
322.7572557492654
 20
283.2018612525287
 30
0
 42
0.01235024403585669
  0
VERTEX
  8
1
 10
322.0901804455742
 20
283.3490401673532
 30
0
 42
0.02178204566588754
  0
VERTEX
  8
1
 10
321.1057756053514
 20
283.496708690304
 30
0
 42
0.01290993169226823
  0
VERTEX
  8
1
 10
320.1104772954615
 20
283.5760241244191
 30
0
 42
0.01287933557265905
  0
VERTEX
  8
1
 10
319.1070088833213
 20
283.6040747419074
 30
0
 42
0.004130453162413669
  0
VERTEX
  8
1
 10
318.0980937363476
 20
283.5979488149779
 30
0
 42
0.004305287326472341
  0
VERTEX
  8
1
 10
317.086455221957
 20
283.5747346158395
 30
0
  0
SEQEND
  8
1
  0
POLYLINE
  8
1
 62
3
 66
1
  0
VERTEX
  8
1
 10
337.086455221957
 20
283.664286808439
 30
0
 42
-0.001888937841193283
  0
VERTEX
  8
1
 10
336.452689229446
 20
283.6255901793249
 30
0
 42
-0.005694027757118369
  0
VERTEX
  8
1
 10
335.819927147963
 20
283.5965677074894
 30
0
 42
-0.009568406319994756
  0
VERTEX
  8
1
 10
335.1891728885358
 20
283.5868935502109
 30
0
 42
-0.01351495323550303
  0
VERTEX
  8
1
 10
334.5614303621927
 20
283.6062418647679
 30
0
 42
-0.04014634871253704
  0
VERTEX
  8
1
 10
333.1238710622505
 20
283.8062996360428
 30
0
 42
-0.009124304351183306
  0
VERTEX
  8
1
 10
332.314971255068
 20
283.996514368101
 30
0
 42
0.001534250010516991
  0
VERTEX
  8
1
 10
331.5072475831125
 20
284.1994008047495
 30
0
 42
0.01220105072969194
  0
VERTEX
  8
1
 10
330.6969435710829
 20
284.3794287461239
 30
0
 42
0.02318308017380818
  0
VERTEX
  8
1
 10
329.8803027436781
 20
284.5010679923602
 30
0
 42
0.01529747283864934
  0
VERTEX
  8
1
 10
329.4499482506637
 20
284.5316370609273
 30
0
 42
0.005656696756928831
  0
VERTEX
  8
1
 10
329.0175772917615
 20
284.5441825196318
 30
0
 42
0.006368138960227354
  0
VERTEX
  8
1
 10
328.5839301520177
 20
284.5463325514519
 30
0
 42
-0.0006029030482145562
  0
VERTEX
  8
1
 10
328.1497471164785
 20
284.5457153393656
 30
0
 42
-0.00500014199452997
  0
VERTEX
  8
1
 10
327.7157684701899
 20
284.5499590663508
 30
0
 42
-0.006579526751766057
  0
VERTEX
  8
1
 10
327.2478887456553
 20
284.5664416384146
 30
0
 42
-0.004151305535355003
  0
VERTEX
  8
1
 10
326.7808017259034
 20
284.5929444444716
 30
0
 42
-0.001715361460921063
  0
VERTEX
  8
1
 10
326.3141979692202
 20
284.6249167259888
 30
0
 42
0.0007228359943103085
  0
VERTEX
  8
1
 10
325.8477680338912
 20
284.657807724433
 30
0
 42
0.003162479870856433
  0
VERTEX
  8
1
 10
325.3812024782021
 20
284.6870666812712
 30
0
 42
0.006187227354365859
  0
VERTEX
  8
1
 10
324.7239159855254
 20
284.7159599325668
 30
0
 42
0.003818458239032461
  0
VERTEX
  8
1
 10
324.0659592359434
 20
284.7317005528432
 30
0
 42
0.00385552403897402
  0
VERTEX
  8
1
 10
323.407543529437
 20
284.7373439958098
 30
0
 42
0.001491465785949936
  0
VERTEX
  8
1
 10
322.748880165987
 20
284.7359457151759
 30
0
 42
0.001534251241651974
  0
VERTEX
  8
1
 10
322.0901804455742
 20
284.7305611646509
 30
0
 42
0.000484460051222088
  0
VERTEX
  8
1
 10
321.088950108419
 20
284.719888380155
 30
0
 42
0.0003770640252798661
  0
VERTEX
  8
1
 10
320.0880432995516
 20
284.7074942044947
 30
0
 42
0.0002694207362295629
  0
VERTEX
  8
1
 10
319.0873791369002
 20
284.6938089854613
 30
0
 42
0.0001617307304159478
  0
VERTEX
  8
1
 10
318.0868767383926
 20
284.6792630708457
 30
0
 42
5.389327191962192e-005
  0
VERTEX
  8
1
 10
317.086455221957
 20
284.664286808439
 30
0
  0
SEQEND
  8
1
  0
POLYLINE
  8
1
 62
3
 66
1
  0
VERTEX
  8
1
 10
337.086455221957
 20
284.664286808439
 30
0
 42
-0.001888937841193283
  0
VERTEX
  8
1
 10
336.452689229446
 20
284.6255901793249
 30
0
 42
-0.005694027757297676
  0
VERTEX
  8
1
 10
335.819927147963
 20
284.5965677074894
 30
0
 42
-0.009568406320174963
  0
VERTEX
  8
1
 10
335.1891728885358
 20
284.5868935502109
 30
0
 42
-0.01351495323541259
  0
VERTEX
  8
1
 10
334.5614303621927
 20
284.6062418647679
 30
0
 42
-0.04014634871256267
  0
VERTEX
  8
1
 10
333.1238710622505
 20
284.8062996360428
 30
0
 42
-0.009124304351116743
  0
VERTEX
  8
1
 10
332.314971255068
 20
284.9965143681011
 30
0
 42
0.00153425001038443
  0
VERTEX
  8
1
 10
331.5072475831125
 20
285.1994008047495
 30
0
 42
0.01220105072982452
  0
VERTEX
  8
1
 10
330.6969435710829
 20
285.379428746124
 30
0
 42
0.02318308017370865
  0
VERTEX
  8
1
 10
329.8803027436781
 20
285.5010679923602
 30
0
 42
0.01529747283877927
  0
VERTEX
  8
1
 10
329.4499482506637
 20
285.5316370609273
 30
0
 42
0.005656696756667697
  0
VERTEX
  8
1
 10
329.0175772917615
 20
285.5441825196318
 30
0
 42
0.006368138960554661
  0
VERTEX
  8
1
 10
328.5839301520177
 20
285.5463325514519
 30
0
 42
-0.0006029030482145562
  0
VERTEX
  8
1
 10
328.1497471164785
 20
285.5457153393655
 30
0
 42
-0.005000141994791933
  0
VERTEX
  8
1
 10
327.7157684701899
 20
285.5499590663507
 30
0
 42
-0.006579526751523407
  0
VERTEX
  8
1
 10
327.2478887456553
 20
285.5664416384145
 30
0
 42
-0.004151305535355003
  0
VERTEX
  8
1
 10
326.7808017259034
 20
285.5929444444715
 30
0
 42
-0.001715361460557241
  0
VERTEX
  8
1
 10
326.3141979692202
 20
285.6249167259887
 30
0
 42
0.000722835994189072
  0
VERTEX
  8
1
 10
325.8477680338912
 20
285.657807724433
 30
0
 42
0.003162479871038289
  0
VERTEX
  8
1
 10
325.3812024782021
 20
285.6870666812712
 30
0
 42
0.006187227354140253
  0
VERTEX
  8
1
 10
324.7239159855254
 20
285.7159599325669
 30
0
 42
0.003818458239301583
  0
VERTEX
  8
1
 10
324.0659592359434
 20
285.7317005528433
 30
0
 42
0.00385552403870512
  0
VERTEX
  8
1
 10
323.407543529437
 20
285.7373439958099
 30
0
 42
0.001491465786218833
  0
VERTEX
  8
1
 10
322.748880165987
 20
285.7359457151759
 30
0
 42
0.001534251241426377
  0
VERTEX
  8
1
 10
322.0901804455742
 20
285.7305611646509
 30
0
 42
0.0004844600512780433
  0
VERTEX
  8
1
 10
321.0889501084189
 20
285.7198883801549
 30
0
 42
0.0003770640251677336
  0
VERTEX
  8
1
 10
320.0880432995516
 20
285.7074942044947
 30
0
 42
0.0002694207363698951
  0
VERTEX
  8
1
 10
319.0873791369002
 20
285.6938089854613
 30
0
 42
0.0001617307302756155
  0
VERTEX
  8
1
 10
318.0868767383926
 20
285.6792630708457
 30
0
 42
5.389327205995412e-005
  0
VERTEX
  8
1
 10
317.086455221957
 20
285.664286808439
 30
0
  0
SEQEND
  8
1
  0
POLYLINE
  8
1
 62
3
 66
1
  0
VERTEX
  8
1
 10
337.086455221957
 20
286.164286808439
 30
0
 42
-0.001012204111016456
  0
VERTEX
  8
1
 10
336.4552153810553
 20
286.1449678021661
 30
0
 42
-0.003041506933661132
  0
VERTEX
  8
1
 10
335.8243479132793
 20
286.1307765285299
 30
0
 42
-0.005083541123795455
  0
VERTEX
  8
1
 10
335.1942251917545
 20
286.126840720167
 30
0
 42
-0.007140173251191887
  0
VERTEX
  8
1
 10
334.5652195896066
 20
286.1382881097143
 30
0
 42
-0.02015103824154162
  0
VERTEX
  8
1
 10
333.2006329011766
 20
286.2377061484559
 30
0
 42
-0.005713191267175451
  0
VERTEX
  8
1
 10
332.4650031290232
 20
286.3283308583173
 30
0
 42
-0.001504699509115376
  0
VERTEX
  8
1
 10
331.7296714188435
 20
286.4297089760567
 30
0
 42
0.002686391856299344
  0
VERTEX
  8
1
 10
330.9934950259793
 20
286.5294289183388
 30
0
 42
0.006874857216546138
  0
VERTEX
  8
1
 10
330.2553312057731
 20
286.6150791018279
 30
0
 42
0.006540794941231747
  0
VERTEX
  8
1
 10
329.7912965229268
 20
286.656339755114
 30
0
 42
0.006046787787471538
  0
VERTEX
  8
1
 10
329.3264856701306
 20
286.6858992335373
 30
0
 42
0.007915314743382824
  0
VERTEX
  8
1
 10
328.8613520033624
 20
286.7024581857601
 30
0
 42
0.007448605158059635
  0
VERTEX
  8
1
 10
328.3963488786
 20
286.7047172604443
 30
0
 42
0.01990100913000492
  0
VERTEX
  8
1
 10
327.3685055108359
 20
286.6534516777071
 30
0
 42
0.006705255688125799
  0
VERTEX
  8
1
 10
326.8064233295197
 20
286.5953273938259
 30
0
 42
0.006951790059350984
  0
VERTEX
  8
1
 10
326.2454915216148
 20
286.5217893952931
 30
0
 42
0.002464144041458925
  0
VERTEX
  8
1
 10
325.6855185008644
 20
286.4376228227932
 30
0
 42
0.002737693092494098
  0
VERTEX
  8
1
 10
325.1263126810111
 20
286.3476128170103
 30
0
 42
-0.0001339878578998224
  0
VERTEX
  8
1
 10
324.5714278586642
 20
286.2568423901056
 30
0
 42
-0.001401259120632696
  0
VERTEX
  8
1
 10
324.016667594675
 20
286.1678399095785
 30
0
 42
-0.002671166501138824
  0
VERTEX
  8
1
 10
323.4615886156754
 20
286.0834173051785
 30
0
 42
-0.00394255514289454
  0
VERTEX
  8
1
 10
322.9057476482975
 20
286.0063865066549
 30
0
 42
-0.00521219561504513
  0
VERTEX
  8
1
 10
322.3487014191731
 20
285.9395594437571
 30
0
 42
-0.004276427741950187
  0
VERTEX
  8
1
 10
321.9086862679709
 20
285.8955095621614
 30
0
 42
-0.003618960281053532
  0
VERTEX
  8
1
 10
321.4678503373636
 20
285.8583976914464
 30
0
 42
-0.002963333241840526
  0
VERTEX
  8
1
 10
321.0263964652587
 20
285.8270800853655
 30
0
 42
-0.002309907759224693
  0
VERTEX
  8
1
 10
320.5845274895635
 20
285.8004129976721
 30
0
 42
-0.001658437888544814
  0
VERTEX
  8
1
 10
320.1424462481853
 20
285.7772526821194
 30
0
 42
-0.001659181814452345
  0
VERTEX
  8
1
 10
319.5312696617651
 20
285.7492408543773
 30
0
 42
-0.001291066999953397
  0
VERTEX
  8
1
 10
318.9200786627946
 20
285.7248414619725
 30
0
 42
-0.0009224660058158546
  0
VERTEX
  8
1
 10
318.3088768544113
 20
285.7031513960707
 30
0
 42
-0.0005535777015023054
  0
VERTEX
  8
1
 10
317.697667839753
 20
285.6832675478377
 30
0
 42
-0.0001845410470840345
  0
VERTEX
  8
1
 10
317.086455221957
 20
285.664286808439
 30
0
  0
SEQEND
  8
1
  0
POLYLINE
  8
1
 62
3
 66
1
  0
VERTEX
  8
1
 10
337.086455221957
 20
287.164286808439
 30
0
 42
-0.001012204111016456
  0
VERTEX
  8
1
 10
336.4552153810553
 20
287.1449678021661
 30
0
 42
-0.003041506933661132
  0
VERTEX
  8
1
 10
335.8243479132793
 20
287.1307765285299
 30
0
 42
-0.005083541123795455
  0
VERTEX
  8
1
 10
335.1942251917545
 20
287.126840720167
 30
0
 42
-0.007140173251282265
  0
VERTEX
  8
1
 10
334.5652195896066
 20
287.1382881097143
 30
0
 42
-0.02015103824163226
  0
VERTEX
  8
1
 10
333.2006329011766
 20
287.2377061484559
 30
0
 42
-0.005713191267327668
  0
VERTEX
  8
1
 10
332.4650031290232
 20
287.3283308583173
 30
0
 42
-0.001504699509115376
  0
VERTEX
  8
1
 10
331.7296714188435
 20
287.4297089760567
 30
0
 42
0.002686391856299344
  0
VERTEX
  8
1
 10
330.9934950259793
 20
287.5294289183388
 30
0
 42
0.006874857216546138
  0
VERTEX
  8
1
 10
330.2553312057731
 20
287.6150791018279
 30
0
 42
0.006540794941170904
  0
VERTEX
  8
1
 10
329.7912965229268
 20
287.656339755114
 30
0
 42
0.006046787787653843
  0
VERTEX
  8
1
 10
329.3264856701306
 20
287.6858992335373
 30
0
 42
0.007915314743139225
  0
VERTEX
  8
1
 10
328.8613520033624
 20
287.7024581857601
 30
0
 42
0.007448605158241944
  0
VERTEX
  8
1
 10
328.3963488786
 20
287.7047172604443
 30
0
 42
0.01990100912991141
  0
VERTEX
  8
1
 10
327.3685055108359
 20
287.6534516777071
 30
0
 42
0.006705255688191083
  0
VERTEX
  8
1
 10
326.8064233295197
 20
287.5953273938259
 30
0
 42
0.006951790059285477
  0
VERTEX
  8
1
 10
326.2454915216148
 20
287.5217893952931
 30
0
 42
0.002464144041574612
  0
VERTEX
  8
1
 10
325.6855185008644
 20
287.4376228227931
 30
0
 42
0.002737693092279601
  0
VERTEX
  8
1
 10
325.1263126810111
 20
287.3476128170103
 30
0
 42
-0.0001339878578000134
  0
VERTEX
  8
1
 10
324.5714278586642
 20
287.2568423901055
 30
0
 42
-0.001401259120532776
  0
VERTEX
  8
1
 10
324.016667594675
 20
287.1678399095785
 30
0
 42
-0.002671166501138824
  0
VERTEX
  8
1
 10
323.4615886156754
 20
287.0834173051785
 30
0
 42
-0.00394255514289454
  0
VERTEX
  8
1
 10
322.9057476482975
 20
287.0063865066549
 30
0
 42
-0.005212195614843951
  0
VERTEX
  8
1
 10
322.3487014191731
 20
286.9395594437571
 30
0
 42
-0.004276427742334054
  0
VERTEX
  8
1
 10
321.9086862679709
 20
286.8955095621614
 30
0
 42
-0.003618960281181487
  0
VERTEX
  8
1
 10
321.4678503373636
 20
286.8583976914464
 30
0
 42
-0.002963333241840526
  0
VERTEX
  8
1
 10
321.0263964652587
 20
286.8270800853655
 30
0
 42
-0.002309907759096517
  0
VERTEX
  8
1
 10
320.5845274895635
 20
286.8004129976721
 30
0
 42
-0.0016584378886731
  0
VERTEX
  8
1
 10
320.1424462481853
 20
286.7772526821194
 30
0
 42
-0.00165918181435953
  0
VERTEX
  8
1
 10
319.5312696617651
 20
286.7492408543772
 30
0
 42
-0.001291066999860527
  0
VERTEX
  8
1
 10
318.9200786627946
 20
286.7248414619725
 30
0
 42
-0.0009224660058158546
  0
VERTEX
  8
1
 10
318.3088768544113
 20
286.7031513960707
 30
0
 42
-0.0005535777015023054
  0
VERTEX
  8
1
 10
317.697667839753
 20
286.6832675478377
 30
0
 42
-0.0001845410468981831
  0
VERTEX
  8
1
 10
317.086455221957
 20
286.664286808439
 30
0
  0
SEQEND
  8
1
  0
POLYLINE
  8
1
 62
3
 66
1
  0
VERTEX
  8
1
 10
337.086455221957
 20
291.164286808439
 30
0
 42
0.002401515546166598
  0
VERTEX
  8
1
 10
336.3419781599782
 20
291.2225949889915
 30
0
 42
0.007248840753390763
  0
VERTEX
  8
1
 10
335.5998801172929
 20
291.2663261244059
 30
0
 42
0.01229879808574531
  0
VERTEX
  8
1
 10
334.8625401131948
 20
291.2809031695439
 30
0
 42
0.01753962731828581
  0
VERTEX
  8
1
 10
334.1323371669773
 20
291.2517490792677
 30
0
 42
0.02289826929953938
  0
VERTEX
  8
1
 10
333.4116502979342
 20
291.164286808439
 30
0
 42
0.02623792913378745
  0
VERTEX
  8
1
 10
332.6419771586072
 20
290.9929636654223
 30
0
 42
0.01533451021638473
  0
VERTEX
  8
1
 10
331.8832258794698
 20
290.7564642800361
 30
0
 42
0.01262719634053398
  0
VERTEX
  8
1
 10
331.1323063895434
 20
290.4754681882416
 30
0
 42
0.002243745492036576
  0
VERTEX
  8
1
 10
330.386128617849
 20
290.1706549260006
 30
0
 42
-0.002052424583977788
  0
VERTEX
  8
1
 10
329.641602493408
 20
289.8627040292747
 30
0
 42
-0.004718784384037163
  0
VERTEX
  8
1
 10
328.8450607004061
 20
289.5482711067614
 30
0
 42
-0.002952234778268836
  0
VERTEX
  8
1
 10
328.0473712844242
 20
289.2474616182251
 30
0
 42
-0.001148070354464536
  0
VERTEX
  8
1
 10
327.2490291019066
 20
288.9538685909454
 30
0
 42
0.0006697605109405343
  0
VERTEX
  8
1
 10
326.4505290092966
 20
288.6610850522021
 30
0
 42
0.002482044596500967
  0
VERTEX
  8
1
 10
325.6523658630381
 20
288.3627040292747
 30
0
 42
0.001978882975317699
  0
VERTEX
  8
1
 10
324.9750212896559
 20
288.1025782338165
 30
0
 42
-0.002424872975765011
  0
VERTEX
  8
1
 10
324.2963453266918
 20
287.8440106298345
 30
0
 42
-0.005965402688304445
  0
VERTEX
  8
1
 10
323.6144070821014
 20
287.5972113411092
 30
0
 42
-0.00956320824152721
  0
VERTEX
  8
1
 10
322.9272756638403
 20
287.372390491421
 30
0
 42
-0.01321986738215363
  0
VERTEX
  8
1
 10
322.233020179864
 20
287.17975820455
 30
0
 42
-0.01938778054352291
  0
VERTEX
  8
1
 10
321.2259124190862
 20
286.9726907598338
 30
0
 42
-0.01499239441264251
  0
VERTEX
  8
1
 10
320.204001171106
 20
286.8349387587802
 30
0
 42
-0.01059728124992445
  0
VERTEX
  8
1
 10
319.170987307724
 20
286.7491733404737
 30
0
 42
-0.006296230251676055
  0
VERTEX
  8
1
 10
318.1305717007408
 20
286.6980656439985
 30
0
 42
-0.002086734309533161
  0
VERTEX
  8
1
 10
317.086455221957
 20
286.664286808439
 30
0
  0
SEQEND
  8
1
  0
POLYLINE
  8
1
 62
3
 66
1
  0
VERTEX
  8
1
 10
337.086455221957
 20
292.164286808439
 30
0
 42
0.002401515546318256
  0
VERTEX
  8
1
 10
336.3419781599782
 20
292.2225949889915
 30
0
 42
0.00724884075323932
  0
VERTEX
  8
1
 10
335.5998801172929
 20
292.2663261244059
 30
0
 42
0.01229879808589699
  0
VERTEX
  8
1
 10
334.8625401131948
 20
292.2809031695439
 30
0
 42
0.01753962731809568
  0
VERTEX
  8
1
 10
334.1323371669773
 20
292.2517490792678
 30
0
 42
0.02289826929980708
  0
VERTEX
  8
1
 10
333.4116502979342
 20
292.164286808439
 30
0
 42
0.02623792913348238
  0
VERTEX
  8
1
 10
332.6419771586072
 20
291.9929636654223
 30
0
 42
0.01533451021668745
  0
VERTEX
  8
1
 10
331.8832258794698
 20
291.7564642800361
 30
0
 42
0.01262719634023062
  0
VERTEX
  8
1
 10
331.1323063895434
 20
291.4754681882416
 30
0
 42
0.002243745492308583
  0
VERTEX
  8
1
 10
330.386128617849
 20
291.1706549260007
 30
0
 42
-0.002052424584173355
  0
VERTEX
  8
1
 10
329.641602493408
 20
290.8627040292747
 30
0
 42
-0.004718784384099392
  0
VERTEX
  8
1
 10
328.8450607004061
 20
290.5482711067614
 30
0
 42
-0.002952234778331232
  0
VERTEX
  8
1
 10
328.0473712844242
 20
290.2474616182251
 30
0
 42
-0.001148070354401698
  0
VERTEX
  8
1
 10
327.2490291019066
 20
289.9538685909454
 30
0
 42
0.0006697605110031509
  0
VERTEX
  8
1
 10
326.4505290092966
 20
289.6610850522021
 30
0
 42
0.002482044596469658
  0
VERTEX
  8
1
 10
325.6523658630381
 20
289.3627040292747
 30
0
 42
0.00197888297534923
  0
VERTEX
  8
1
 10
324.9750212896559
 20
289.1025782338165
 30
0
 42
-0.002424872975911283
  0
VERTEX
  8
1
 10
324.2963453266918
 20
288.8440106298345
 30
0
 42
-0.005965402688304445
  0
VERTEX
  8
1
 10
323.6144070821014
 20
288.5972113411092
 30
0
 42
-0.00956320824152721
  0
VERTEX
  8
1
 10
322.9272756638403
 20
288.372390491421
 30
0
 42
-0.01321986738215363
  0
VERTEX
  8
1
 10
322.233020179864
 20
288.17975820455
 30
0
 42
-0.01938778054363125
  0
VERTEX
  8
1
 10
321.2259124190862
 20
287.9726907598338
 30
0
 42
-0.01499239441269748
  0
VERTEX
  8
1
 10
320.204001171106
 20
287.8349387587803
 30
0
 42
-0.01059728124997902
  0
VERTEX
  8
1
 10
319.170987307724
 20
287.7491733404737
 30
0
 42
-0.006296230251676055
  0
VERTEX
  8
1
 10
318.1305717007408
 20
287.6980656439985
 30
0
 42
-0.002086734309641963
  0
VERTEX
  8
1
 10
317.086455221957
 20
287.664286808439
 30
0
  0
SEQEND
  8
1
  0
POLYLINE
  8
1
 62
3
 66
1
  0
VERTEX
  8
1
 10
337.086455221957
 20
296.164286808439
 30
0
 42
0.004358729398411158
  0
VERTEX
  8
1
 10
336.1173411712838
 20
296.159759623253
 30
0
 42
0.0133758448351214
  0
VERTEX
  8
1
 10
335.1651195101673
 20
296.1215179230919
 30
0
 42
0.02383563990208393
  0
VERTEX
  8
1
 10
334.2466826281643
 20
296.0158471929808
 30
0
 42
0.0358919016953017
  0
VERTEX
  8
1
 10
333.3789229148313
 20
295.8090329179448
 30
0
 42
0.04895632414657229
  0
VERTEX
  8
1
 10
332.5787327597251
 20
295.4673605830087
 30
0
 42
0.04576326853649064
  0
VERTEX
  8
1
 10
331.9209493123619
 20
295.0242163707469
 30
0
 42
0.02110922930109179
  0
VERTEX
  8
1
 10
331.3109933226491
 20
294.4821600122634
 30
0
 42
0.01598160533310771
  0
VERTEX
  8
1
 10
330.7274484769524
 20
293.8804788834383
 30
0
 42
-0.00109213469111036
  0
VERTEX
  8
1
 10
330.1488984616378
 20
293.258460360152
 30
0
 42
-0.01369804711987017
  0
VERTEX
  8
1
 10
329.5539269630711
 20
292.6553918182846
 30
0
 42
-0.02555441647288264
  0
VERTEX
  8
1
 10
328.6980032078994
 20
291.9224202175001
 30
0
 42
-0.021435015959924
  0
VERTEX
  8
1
 10
327.7848984710855
 20
291.278787983325
 30
0
 42
-0.01692967819388433
  0
VERTEX
  8
1
 10
326.8263077480333
 20
290.707825274258
 30
0
 42
-0.01233822321837145
  0
VERTEX
  8
1
 10
325.8339260341464
 20
290.192862248798
 30
0
 42
-0.007800748263403179
  0
VERTEX
  8
1
 10
324.819448324829
 20
289.7172290654435
 30
0
 42
-0.005362192224247325
  0
VERTEX
  8
1
 10
324.0125760811328
 20
289.362453312323
 30
0
 42
-0.007366627213549639
  0
VERTEX
  8
1
 10
323.1981677702894
 20
289.0288241191017
 30
0
 42
-0.009412356290847523
  0
VERTEX
  8
1
 10
322.3751205887065
 20
288.7234723014562
 30
0
 42
-0.01149368119270441
  0
VERTEX
  8
1
 10
321.5423317327916
 20
288.4535286750628
 30
0
 42
-0.02517093435356889
  0
VERTEX
  8
1
 10
319.9862266369044
 20
288.072278590535
 30
0
 42
-0.008504618118801858
  0
VERTEX
  8
1
 10
319.2671036259558
 20
287.9460851358928
 30
0
 42
-0.006047552492907476
  0
VERTEX
  8
1
 10
318.5429921783316
 20
287.8406306890661
 30
0
 42
-0.003614339530341322
  0
VERTEX
  8
1
 10
317.8155551062569
 20
287.7490022474499
 30
0
 42
-0.001202089796673845
  0
VERTEX
  8
1
 10
317.086455221957
 20
287.664286808439
 30
0
  0
SEQEND
  8
1
  0
POLYLINE
  8
1
 62
3
 66
1
  0
VERTEX
  8
1
 10
337.086455221957
 20
297.164286808439
 30
0
 42
0.004358729398528399
  0
VERTEX
  8
1
 10
336.1173411712838
 20
297.159759623253
 30
0
 42
0.01337584483497438
  0
VERTEX
  8
1
 10
335.1651195101673
 20
297.1215179230919
 30
0
 42
0.02383563990229078
  0
VERTEX
  8
1
 10
334.2466826281643
 20
297.0158471929808
 30
0
 42
0.0358919016950647
  0
VERTEX
  8
1
 10
333.3789229148313
 20
296.8090329179448
 30
0
 42
0.04895632414681245
  0
VERTEX
  8
1
 10
332.5787327597251
 20
296.4673605830087
 30
0
 42
0.045763268536253
  0
VERTEX
  8
1
 10
331.9209493123619
 20
296.0242163707469
 30
0
 42
0.02110922930132726
  0
VERTEX
  8
1
 10
331.3109933226491
 20
295.4821600122634
 30
0
 42
0.0159816053328976
  0
VERTEX
  8
1
 10
330.7274484769524
 20
294.8804788834383
 30
0
 42
-0.00109213469101921
  0
VERTEX
  8
1
 10
330.1488984616378
 20
294.258460360152
 30
0
 42
-0.01369804711982364
  0
VERTEX
  8
1
 10
329.5539269630711
 20
293.6553918182846
 30
0
 42
-0.02555441647288264
  0
VERTEX
  8
1
 10
328.6980032078994
 20
292.9224202175001
 30
0
 42
-0.02143501596005063
  0
VERTEX
  8
1
 10
327.7848984710855
 20
292.278787983325
 30
0
 42
-0.01692967819397362
  0
VERTEX
  8
1
 10
326.8263077480333
 20
291.7078252742581
 30
0
 42
-0.01233822321841575
  0
VERTEX
  8
1
 10
325.8339260341464
 20
291.192862248798
 30
0
 42
-0.007800748263403179
  0
VERTEX
  8
1
 10
324.819448324829
 20
290.7172290654435
 30
0
 42
-0.005362192224365345
  0
VERTEX
  8
1
 10
324.0125760811328
 20
290.362453312323
 30
0
 42
-0.007366627213609317
  0
VERTEX
  8
1
 10
323.1981677702894
 20
290.0288241191018
 30
0
 42
-0.009412356290908371
  0
VERTEX
  8
1
 10
322.3751205887065
 20
289.7234723014562
 30
0
 42
-0.01149368119270441
  0
VERTEX
  8
1
 10
321.5423317327916
 20
289.4535286750628
 30
0
 42
-0.02517093435348262
  0
VERTEX
  8
1
 10
319.9862266369044
 20
289.072278590535
 30
0
 42
-0.008504618118801858
  0
VERTEX
  8
1
 10
319.2671036259558
 20
288.9460851358928
 30
0
 42
-0.006047552492907476
  0
VERTEX
  8
1
 10
318.5429921783316
 20
288.8406306890661
 30
0
 42
-0.003614339530341322
  0
VERTEX
  8
1
 10
317.8155551062569
 20
288.7490022474499
 30
0
 42
-0.001202089796673845
  0
VERTEX
  8
1
 10
317.086455221957
 20
288.664286808439
 30
0
  0
SEQEND
  8
1
  0
POLYLINE
  8
1
 62
3
 66
1
  0
VERTEX
  8
1
 10
274.9765027775673
 20
283.5634687817609
 30
0
 42
-0.0002943625235031911
  0
VERTEX
  8
1
 10
274.2535211568487
 20
283.4516222210304
 30
0
 42
-0.0008817296301136928
  0
VERTEX
  8
1
 10
273.5297216114967
 20
283.3413924219422
 30
0
 42
-0.001464990072466438
  0
VERTEX
  8
1
 10
272.8042862168783
 20
283.2343961461386
 30
0
 42
-0.002041299421599003
  0
VERTEX
  8
1
 10
272.0763970483602
 20
283.1322501552618
 30
0
 42
-0.002607663120018818
  0
VERTEX
  8
1
 10
271.3452361813091
 20
283.0365712109542
 30
0
 42
-0.003565789052159889
  0
VERTEX
  8
1
 10
270.8677733204934
 20
282.9796214834332
 30
0
 42
-0.006974058786607429
  0
VERTEX
  8
1
 10
270.3896325484978
 20
282.9327791920555
 30
0
 42
-0.01046734541267817
  0
VERTEX
  8
1
 10
269.9118658378828
 20
282.9027323751825
 30
0
 42
-0.01406324816700095
  0
VERTEX
  8
1
 10
269.4355251612088
 20
282.8961690711753
 30
0
 42
-0.04238687832031686
  0
VERTEX
  8
1
 10
268.3067557299772
 20
283.0083826068566
 30
0
 42
-0.01275655711055931
  0
VERTEX
  8
1
 10
267.6560728950129
 20
283.1435167878708
 30
0
 42
-0.00331159030225289
  0
VERTEX
  8
1
 10
267.0069877968447
 20
283.3001807257473
 30
0
 42
0.00601880392644865
  0
VERTEX
  8
1
 10
266.3568742461737
 20
283.4533752847962
 30
0
 42
0.01543555655999313
  0
VERTEX
  8
1
 10
265.7031060537012
 20
283.5781013293271
 30
0
 42
0.01835179206123159
  0
VERTEX
  8
1
 10
265.1226378319017
 20
283.6486514181507
 30
0
 42
0.01056861445986898
  0
VERTEX
  8
1
 10
264.5385168517265
 20
283.6855648103514
 30
0
 42
0.01150728188676415
  0
VERTEX
  8
1
 10
263.9519633394683
 20
283.6966877015477
 30
0
 42
0.003776246101149933
  0
VERTEX
  8
1
 10
263.3641975214196
 20
283.6898662873581
 30
0
 42
0.004810538921408927
  0
VERTEX
  8
1
 10
262.7764396238731
 20
283.6729467634007
 30
0
 42
0.0009324995728340179
  0
VERTEX
  8
1
 10
262.1539279541685
 20
283.6512307082242
 30
0
 42
0.0007280294780177891
  0
VERTEX
  8
1
 10
261.5325222591195
 20
283.6274867521595
 30
0
 42
0.0005209755890924659
  0
VERTEX
  8
1
 10
260.9119460450622
 20
283.6022218704288
 30
0
 42
0.0003134104111587438
  0
VERTEX
  8
1
 10
260.2919228183327
 20
283.5759430382541
 30
0
 42
0.0001042969050870978
  0
VERTEX
  8
1
 10
259.6721760852671
 20
283.5491572308574
 30
0
  0
SEQEND
  8
1
  0
POLYLINE
  8
1
 62
3
 66
1
  0
VERTEX
  8
1
 10
275.9986230288382
 20
284.664286808439
 30
0
 42
0.0003148701003670792
  0
VERTEX
  8
1
 10
275.7074358130283
 20
284.6431502227553
 30
0
 42
0.0009449789258167061
  0
VERTEX
  8
1
 10
275.4163875883384
 20
284.6212863721972
 30
0
 42
0.001576883993898183
  0
VERTEX
  8
1
 10
275.1256173458886
 20
284.5979679918905
 30
0
 42
0.002211090619655373
  0
VERTEX
  8
1
 10
274.835264076799
 20
284.5724678169609
 30
0
 42
0.002848557154573854
  0
VERTEX
  8
1
 10
274.5454667721897
 20
284.5440585825339
 30
0
 42
0.006756412268971387
  0
VERTEX
  8
1
 10
273.8808371353237
 20
284.4659880557002
 30
0
 42
0.003949607810315748
  0
VERTEX
  8
1
 10
273.2181593478715
 20
284.3737234205329
 30
0
 42
0.002819681200144253
  0
VERTEX
  8
1
 10
272.5557045922186
 20
284.2723294957626
 30
0
 42
0.0004244089955428448
  0
VERTEX
  8
1
 10
271.8917440507503
 20
284.1668711001204
 30
0
 42
-0.001526779813761734
  0
VERTEX
  8
1
 10
271.2245489058521
 20
284.0624130523372
 30
0
 42
-0.003828713700413022
  0
VERTEX
  8
1
 10
270.7592172809418
 20
283.9942967376479
 30
0
 42
-0.00807729998023881
  0
VERTEX
  8
1
 10
270.2928627602868
 20
283.9373206176341
 30
0
 42
-0.01246650744820742
  0
VERTEX
  8
1
 10
269.8268510468324
 20
283.8997060838226
 30
0
 42
-0.01702945909590325
  0
VERTEX
  8
1
 10
269.3625478435243
 20
283.8896745277404
 30
0
 42
-0.05240043144325279
  0
VERTEX
  8
1
 10
268.2514473942399
 20
284.0205671733227
 30
0
 42
-0.01461122410702307
  0
VERTEX
  8
1
 10
267.6071239820102
 20
284.1814647476347
 30
0
 42
-0.002053019632382947
  0
VERTEX
  8
1
 10
266.9648978374674
 20
284.3646863524949
 30
0
 42
0.01039734553711675
  0
VERTEX
  8
1
 10
266.3213181814602
 20
284.5367782765481
 30
0
 42
0.02316068791114832
  0
VERTEX
  8
1
 10
265.672934234837
 20
284.664286808439
 30
0
 42
0.02682260581778222
  0
VERTEX
  8
1
 10
265.0822448026667
 20
284.7201143396132
 30
0
 42
0.01284867864477329
  0
VERTEX
  8
1
 10
264.486523969716
 20
284.7289937886285
 30
0
 42
0.01264018664575643
  0
VERTEX
  8
1
 10
263.8874468460947
 20
284.7073752879184
 30
0
 42
0.002393804698141345
  0
VERTEX
  8
1
 10
263.2866885419128
 20
284.6717089699163
 30
0
 42
-0.004389826407226662
  0
VERTEX
  8
1
 10
262.6859241672801
 20
284.6384449670557
 30
0
 42
-0.007114942061718073
  0
VERTEX
  8
1
 10
262.0811356887938
 20
284.6205836006369
 30
0
 42
-0.005563552051047623
  0
VERTEX
  8
1
 10
261.4777064516966
 20
284.6180753906816
 30
0
 42
-0.003986604090352537
  0
VERTEX
  8
1
 10
260.8752966456413
 20
284.6270820480742
 30
0
 42
-0.002396062566142999
  0
VERTEX
  8
1
 10
260.2735664602805
 20
284.6437652836986
 30
0
 42
-0.0007992743056832215
  0
VERTEX
  8
1
 10
259.6721760852671
 20
284.664286808439
 30
0
  0
SEQEND
  8
1
  0
POLYLINE
  8
1
 62
3
 66
1
  0
VERTEX
  8
1
 10
259.6721760852671
 20
273.664286808439
 30
0
 42
0.0001520563530779765
  0
VERTEX
  8
1
 10
260.5726067973031
 20
273.7101981419979
 30
0
 42
0.0004559430653171918
  0
VERTEX
  8
1
 10
261.4733159544418
 20
273.7572218502828
 30
0
 42
0.0007586958596492444
  0
VERTEX
  8
1
 10
262.3745820017856
 20
273.8064703080195
 30
0
 42
0.001059843563147728
  0
VERTEX
  8
1
 10
263.2766833844372
 20
273.859055889934
 30
0
 42
0.001358440646009209
  0
VERTEX
  8
1
 10
264.1798985474991
 20
273.9160909707521
 30
0
 42
0.001876121247780085
  0
VERTEX
  8
1
 10
264.7896904944957
 20
273.958559555743
 30
0
 42
0.005028464223597791
  0
VERTEX
  8
1
 10
265.3985915164712
 20
274.0094239119548
 30
0
 42
0.006786548224088138
  0
VERTEX
  8
1
 10
266.0050771446139
 20
274.0745488337868
 30
0
 42
0.01000373869103296
  0
VERTEX
  8
1
 10
266.6076229101118
 20
274.1597991156384
 30
0
 42
0.01181943118258089
  0
VERTEX
  8
1
 10
267.2047043441531
 20
274.2710395519088
 30
0
 42
0.02260296103181333
  0
VERTEX
  8
1
 10
268.1951341402973
 20
274.5271381995498
 30
0
 42
0.01776829577894172
  0
VERTEX
  8
1
 10
269.1647612637823
 20
274.8633408647936
 30
0
 42
0.01769407885032806
  0
VERTEX
  8
1
 10
270.1126213530195
 20
275.2693285513482
 30
0
 42
0.01304024145622727
  0
VERTEX
  8
1
 10
271.0377500464199
 20
275.7347822629213
 30
0
 42
0.01325209981399246
  0
VERTEX
  8
1
 10
271.939182982395
 20
276.2493830032208
 30
0
 42
0.006507225467880592
  0
VERTEX
  8
1
 10
272.7582387972799
 20
276.7608855607371
 30
0
 42
0.000349231293447057
  0
VERTEX
  8
1
 10
273.5678850252349
 20
277.2820785489769
 30
0
 42
-0.006990503468444429
  0
VERTEX
  8
1
 10
274.3800783383352
 20
277.7890106389805
 30
0
 42
-0.01414273780468323
  0
VERTEX
  8
1
 10
275.2067754086559
 20
278.2577305017878
 30
0
 42
-0.02139598757927912
  0
VERTEX
  8
1
 10
276.0599329082721
 20
278.664286808439
 30
0
 42
-0.01756986365212424
  0
VERTEX
  8
1
 10
276.7539919096374
 20
278.9279243548983
 30
0
 42
-0.0135168574550867
  0
VERTEX
  8
1
 10
277.4669773336918
 20
279.1491368703847
 30
0
 42
-0.009528745766193255
  0
VERTEX
  8
1
 10
278.194157574763
 20
279.3385306126415
 30
0
 42
-0.005654478827483394
  0
VERTEX
  8
1
 10
278.9308010271789
 20
279.5067118394118
 30
0
 42
-0.00187321491614969
  0
VERTEX
  8
1
 10
279.6721760852671
 20
279.664286808439
 30
0
  0
SEQEND
  8
1
  0
POLYLINE
  8
1
 62
3
 66
1
  0
VERTEX
  8
1
 10
259.6721760852671
 20
274.664286808439
 30
0
 42
0.0001520563532039313
  0
VERTEX
  8
1
 10
260.5726067973031
 20
274.7101981419979
 30
0
 42
0.000455943065191237
  0
VERTEX
  8
1
 10
261.4733159544418
 20
274.7572218502828
 30
0
 42
0.0007586958597751438
  0
VERTEX
  8
1
 10
262.3745820017856
 20
274.8064703080195
 30
0
 42
0.001059843563021828
  0
VERTEX
  8
1
 10
263.2766833844372
 20
274.859055889934
 30
0
 42
0.001358440646135108
  0
VERTEX
  8
1
 10
264.1798985474991
 20
274.9160909707521
 30
0
 42
0.001876121247700538
  0
VERTEX
  8
1
 10
264.7896904944957
 20
274.9585595557431
 30
0
 42
0.005028464223584635
  0
VERTEX
  8
1
 10
265.3985915164712
 20
275.0094239119548
 30
0
 42
0.006786548224147371
  0
VERTEX
  8
1
 10
266.0050771446139
 20
275.0745488337868
 30
0
 42
0.01000373869101952
  0
VERTEX
  8
1
 10
266.6076229101118
 20
275.1597991156384
 30
0
 42
0.01181943118250261
  0
VERTEX
  8
1
 10
267.2047043441531
 20
275.2710395519088
 30
0
 42
0.02260296103193819
  0
VERTEX
  8
1
 10
268.1951341402973
 20
275.5271381995498
 30
0
 42
0.01776829577881601
  0
VERTEX
  8
1
 10
269.1647612637823
 20
275.8633408647936
 30
0
 42
0.01769407885045394
  0
VERTEX
  8
1
 10
270.1126213530195
 20
276.2693285513482
 30
0
 42
0.01304024145612533
  0
VERTEX
  8
1
 10
271.0377500464199
 20
276.7347822629213
 30
0
 42
0.01325209981404621
  0
VERTEX
  8
1
 10
271.939182982395
 20
277.2493830032208
 30
0
 42
0.006507225467850171
  0
VERTEX
  8
1
 10
272.7582387972799
 20
277.7608855607371
 30
0
 42
0.0003492312935022351
  0
VERTEX
  8
1
 10
273.5678850252349
 20
278.2820785489769
 30
0
 42
-0.006990503468393802
  0
VERTEX
  8
1
 10
274.3800783383352
 20
278.7890106389805
 30
0
 42
-0.01414273780468323
  0
VERTEX
  8
1
 10
275.2067754086559
 20
279.2577305017878
 30
0
 42
-0.02139598757927912
  0
VERTEX
  8
1
 10
276.0599329082721
 20
279.664286808439
 30
0
 42
-0.01756986365226728
  0
VERTEX
  8
1
 10
276.7539919096374
 20
279.9279243548983
 30
0
 42
-0.01351685745494146
  0
VERTEX
  8
1
 10
277.4669773336918
 20
280.1491368703847
 30
0
 42
-0.009528745766193255
  0
VERTEX
  8
1
 10
278.194157574763
 20
280.3385306126415
 30
0
 42
-0.005654478827483394
  0
VERTEX
  8
1
 10
278.9308010271789
 20
280.5067118394118
 30
0
 42
-0.00187321491614969
  0
VERTEX
  8
1
 10
279.6721760852671
 20
280.664286808439
 30
0
  0
SEQEND
  8
1
  0
POLYLINE
  8
1
 62
3
 66
1
  0
VERTEX
  8
1
 10
259.6721760852671
 20
276.164286808439
 30
0
 42
0.001250144812352061
  0
VERTEX
  8
1
 10
260.4102588504985
 20
276.1345866488798
 30
0
 42
0.00375759586699792
  0
VERTEX
  8
1
 10
261.1475611706232
 20
276.1123115292104
 30
0
 42
0.006297950553659957
  0
VERTEX
  8
1
 10
261.8833026005345
 20
276.1048864893206
 30
0
 42
0.008870900991238474
  0
VERTEX
  8
1
 10
262.6167026951257
 20
276.1197365691002
 30
0
 42
0.01147156471204609
  0
VERTEX
  8
1
 10
263.3469810092901
 20
276.164286808439
 30
0
 42
0.01254792155288568
  0
VERTEX
  8
1
 10
264.1021319281731
 20
276.2468995138334
 30
0
 42
0.007042539110100696
  0
VERTEX
  8
1
 10
264.854890756151
 20
276.359240002929
 30
0
 42
0.005557307952646452
  0
VERTEX
  8
1
 10
265.6070789051402
 20
276.4909494136745
 30
0
 42
9.171228498584168e-005
  0
VERTEX
  8
1
 10
266.3605177870566
 20
276.6316688840183
 30
0
 42
-0.002321053770344762
  0
VERTEX
  8
1
 10
267.1170288138162
 20
276.7710395519088
 30
0
 42
-0.001201310525960601
  0
VERTEX
  8
1
 10
267.9340646368476
 20
276.912916888415
 30
0
 42
0.005027277254577288
  0
VERTEX
  8
1
 10
268.7491303819675
 20
277.0608722892883
 30
0
 42
0.01135044803578382
  0
VERTEX
  8
1
 10
269.5546018786087
 20
277.2345110391055
 30
0
 42
0.01794427143872268
  0
VERTEX
  8
1
 10
270.3428549562039
 20
277.4534384224431
 30
0
 42
0.04827825323432054
  0
VERTEX
  8
1
 10
271.8040187608319
 20
278.0768582865316
 30
0
 42
0.008490223132644957
  0
VERTEX
  8
1
 10
272.4836710855976
 20
278.4630622945767
 30
0
 42
0.003152034215513035
  0
VERTEX
  8
1
 10
273.1563813203579
 20
278.8663243010664
 30
0
 42
-0.009118567119183801
  0
VERTEX
  8
1
 10
273.8333083669872
 20
279.2570968590541
 30
0
 42
-0.01940348389047204
  0
VERTEX
  8
1
 10
274.5256111273602
 20
279.6058325215931
 30
0
 42
-0.03006721513014704
  0
VERTEX
  8
1
 10
275.4970280794307
 20
279.9737136918474
 30
0
 42
-0.02315593798536138
  0
VERTEX
  8
1
 10
276.5070423911752
 20
280.2374679868449
 30
0
 42
-0.01618042258612554
  0
VERTEX
  8
1
 10
277.546004722675
 20
280.4231271253999
 30
0
 42
-0.00950469546973489
  0
VERTEX
  8
1
 10
278.6042657340119
 20
280.5567228263265
 30
0
 42
-0.003129060246778163
  0
VERTEX
  8
1
 10
279.6721760852671
 20
280.664286808439
 30
0
  0
SEQEND
  8
1
  0
POLYLINE
  8
1
 62
3
 66
1
  0
VERTEX
  8
1
 10
259.6721760852671
 20
277.164286808439
 30
0
 42
0.001152801735502336
  0
VERTEX
  8
1
 10
260.4096226318612
 20
277.1369531579779
 30
0
 42
0.00346375652332995
  0
VERTEX
  8
1
 10
261.146447788008
 20
277.116452920132
 30
0
 42
0.005799164164924864
  0
VERTEX
  8
1
 10
261.8820301632599
 20
277.1096195075167
 30
0
 42
0.008158172994374505
  0
VERTEX
  8
1
 10
262.6157483671698
 20
277.1232863327473
 30
0
 42
0.01053592694594844
  0
VERTEX
  8
1
 10
263.3469810092901
 20
277.164286808439
 30
0
 42
0.01177436222929243
  0
VERTEX
  8
1
 10
264.1037976270903
 20
277.2407037009299
 30
0
 42
0.007768041546182376
  0
VERTEX
  8
1
 10
264.8582350850495
 20
277.3468002781218
 30
0
 42
0.006923755484737368
  0
VERTEX
  8
1
 10
265.6112690145612
 20
277.4753636834152
 30
0
 42
0.002936010792568542
  0
VERTEX
  8
1
 10
266.363875047019
 20
277.6191810602107
 30
0
 42
0.0021371604040039
  0
VERTEX
  8
1
 10
267.1170288138162
 20
277.7710395519088
 30
0
 42
0.0005152325845733356
  0
VERTEX
  8
1
 10
267.9360952581986
 20
277.9407145194964
 30
0
 42
0.008980172020433649
  0
VERTEX
  8
1
 10
268.7507566215551
 20
278.1256772161461
 30
0
 42
0.009777534548824896
  0
VERTEX
  8
1
 10
269.5548084257571
 20
278.3402370335728
 30
0
 42
0.01845505424885131
  0
VERTEX
  8
1
 10
270.3420461926769
 20
278.5987033634909
 30
0
 42
0.03922143116260179
  0
VERTEX
  8
1
 10
271.7994635544402
 20
279.2715928436344
 30
0
 42
0.00676227980761599
  0
VERTEX
  8
1
 10
272.4774661260628
 20
279.6638238988462
 30
0
 42
-0.001664850240858312
  0
VERTEX
  8
1
 10
273.1508042108758
 20
280.0642546102832
 30
0
 42
-0.0111397204239865
  0
VERTEX
  8
1
 10
273.830008860701
 20
280.4450608249782
 30
0
 42
-0.02096863254692256
  0
VERTEX
  8
1
 10
274.5256111273602
 20
280.7784183899635
 30
0
 42
-0.03144394759791581
  0
VERTEX
  8
1
 10
275.4968033224795
 20
281.1180551831213
 30
0
 42
-0.02411662718858914
  0
VERTEX
  8
1
 10
276.5067427152402
 20
281.3493832366372
 30
0
 42
-0.01677980776424677
  0
VERTEX
  8
1
 10
277.5457425062319
 20
281.4994797354219
 30
0
 42
-0.009824377807874929
  0
VERTEX
  8
1
 10
278.6041158960443
 20
281.5954218643856
 30
0
 42
-0.003228644692574004
  0
VERTEX
  8
1
 10
279.6721760852671
 20
281.664286808439
 30
0
  0
SEQEND
  8
1
  0
POLYLINE
  8
1
 62
3
 66
1
  0
VERTEX
  8
1
 10
259.6721760852671
 20
278.664286808439
 30
0
 42
-0.0006197544448362954
  0
VERTEX
  8
1
 10
260.3010533034033
 20
278.6850085448122
 30
0
 42
-0.001858534659346283
  0
VERTEX
  8
1
 10
260.9301488041052
 20
278.7026160927769
 30
0
 42
-0.003094675195969979
  0
VERTEX
  8
1
 10
261.5596808699386
 20
278.713995263925
 30
0
 42
-0.004324913475718067
  0
VERTEX
  8
1
 10
262.1898677834694
 20
278.7160318698479
 30
0
 42
-0.005543773682183753
  0
VERTEX
  8
1
 10
262.8209278272631
 20
278.7056117221374
 30
0
 42
-0.004520796364699131
  0
VERTEX
  8
1
 10
263.5600251144571
 20
278.6769070827643
 30
0
 42
0.0007805678301396056
  0
VERTEX
  8
1
 10
264.2992130005266
 20
278.6426649634701
 30
0
 42
0.006092705141478538
  0
VERTEX
  8
1
 10
265.0370894704179
 20
278.6186426724927
 30
0
 42
0.01150964957835357
  0
VERTEX
  8
1
 10
265.7722525090773
 20
278.6205975180698
 30
0
 42
0.01700876146755227
  0
VERTEX
  8
1
 10
266.503300101451
 20
278.664286808439
 30
0
 42
0.01240697077921311
  0
VERTEX
  8
1
 10
266.968327170136
 20
278.7196606318875
 30
0
 42
0.006037178883353293
  0
VERTEX
  8
1
 10
267.4321388929984
 20
278.7923253818252
 30
0
 42
0.005589350942044763
  0
VERTEX
  8
1
 10
267.8957772369134
 20
278.8760508658494
 30
0
 42
0.0007533041593569829
  0
VERTEX
  8
1
 10
268.3602841687566
 20
278.9646068915574
 30
0
 42
-0.002573584257780244
  0
VERTEX
  8
1
 10
268.8267016554031
 20
279.0517632665462
 30
0
 42
-0.001804763928908762
  0
VERTEX
  8
1
 10
269.4014713504357
 20
279.1519818648231
 30
0
 42
0.004933510209122738
  0
VERTEX
  8
1
 10
269.9750488973806
 20
279.2556864753321
 30
0
 42
0.01176870411058747
  0
VERTEX
  8
1
 10
270.5418032938903
 20
279.3778339021678
 30
0
 42
0.01888827476042882
  0
VERTEX
  8
1
 10
271.096103537617
 20
279.5333809494245
 30
0
 42
0.0544954495777696
  0
VERTEX
  8
1
 10
272.194674583788
 20
280.0242857851555
 30
0
 42
0.005924946793849549
  0
VERTEX
  8
1
 10
272.7411405376938
 20
280.3525750653484
 30
0
 42
5.930991551832388e-005
  0
VERTEX
  8
1
 10
273.2841896389959
 20
280.6877212129347
 30
0
 42
-0.01842206213847525
  0
VERTEX
  8
1
 10
273.8362950387599
 20
280.9952931790739
 30
0
 42
-0.03355665101508523
  0
VERTEX
  8
1
 10
274.4099298880511
 20
281.2408599149254
 30
0
 42
-0.02601541318580509
  0
VERTEX
  8
1
 10
274.8329119940118
 20
281.3616773444451
 30
0
 42
-0.01999312491784697
  0
VERTEX
  8
1
 10
275.2689211078275
 20
281.4438203233527
 30
0
 42
-0.01415542656699354
  0
VERTEX
  8
1
 10
275.7140646857616
 20
281.4966006894839
 30
0
 42
-0.008632739804099631
  0
VERTEX
  8
1
 10
276.1644501840776
 20
281.529330280674
 30
0
 42
-0.003342474864371884
  0
VERTEX
  8
1
 10
276.6161850590388
 20
281.5513209347587
 30
0
 42
-0.00090581359896457
  0
VERTEX
  8
1
 10
277.2331327116924
 20
281.5771404142966
 30
0
 42
-0.0007135431988498621
  0
VERTEX
  8
1
 10
277.8462473994074
 20
281.6008090239666
 30
0
 42
-0.0005145810279896536
  0
VERTEX
  8
1
 10
278.4564873634184
 20
281.6228644812357
 30
0
 42
-0.0003107331200463215
  0
VERTEX
  8
1
 10
279.0648108449601
 20
281.6438445035709
 30
0
 42
-0.0001039106373768687
  0
VERTEX
  8
1
 10
279.6721760852671
 20
281.664286808439
 30
0
  0
SEQEND
  8
1
  0
POLYLINE
  8
1
 62
3
 66
1
  0
VERTEX
  8
1
 10
259.6721760852671
 20
279.664286808439
 30
0
 42
-0.0005686270056101113
  0
VERTEX
  8
1
 10
260.3013744801595
 20
279.6839946694746
 30
0
 42
-0.001705583657887978
  0
VERTEX
  8
1
 10
260.9307108634286
 20
279.7008418109363
 30
0
 42
-0.002841296066370188
  0
VERTEX
  8
1
 10
261.5603232234511
 20
279.7119675132499
 30
0
 42
-0.003973764666337504
  0
VERTEX
  8
1
 10
262.1903495486037
 20
279.7145110568416
 30
0
 42
-0.005099253580780476
  0
VERTEX
  8
1
 10
262.8209278272631
 20
279.7056117221374
 30
0
 42
-0.004222463661788729
  0
VERTEX
  8
1
 10
263.5590542980288
 20
279.6799717093751
 30
0
 42
0.0005439850099139104
  0
VERTEX
  8
1
 10
264.2972395463595
 20
279.6488946686743
 30
0
 42
0.005315690746772434
  0
VERTEX
  8
1
 10
265.0345987867261
 20
279.6265051429849
 30
0
 42
0.01014946503132892
  0
VERTEX
  8
1
 10
265.7702472335997
 20
279.6269276752565
 30
0
 42
0.01502468512821522
  0
VERTEX
  8
1
 10
266.503300101451
 20
279.664286808439
 30
0
 42
0.01137546385967764
  0
VERTEX
  8
1
 10
266.9704643570603
 20
279.7129140629899
 30
0
 42
0.007443944909009004
  0
VERTEX
  8
1
 10
267.4362956802806
 20
279.7792034356478
 30
0
 42
0.007896505749414121
  0
VERTEX
  8
1
 10
267.9008850310914
 20
279.8599268268409
 30
0
 42
0.0039971828473828
  0
VERTEX
  8
1
 10
268.3643233694724
 20
279.9518561369976
 30
0
 42
0.004492470942121286
  0
VERTEX
  8
1
 10
268.8267016554031
 20
280.0517632665462
 30
0
 42
0.002764412574123881
  0
VERTEX
  8
1
 10
269.4011373620963
 20
280.1846373903196
 30
0
 42
0.009311519232478844
  0
VERTEX
  8
1
 10
269.9714924194432
 20
280.3311638395535
 30
0
 42
0.008520636601529399
  0
VERTEX
  8
1
 10
270.5351913205246
 20
280.4976179297393
 30
0
 42
0.0151227303957673
  0
VERTEX
  8
1
 10
271.089658558421
 20
280.690274976369
 30
0
 42
0.01430393938663611
  0
VERTEX
  8
1
 10
271.6323186262131
 20
280.9154102949341
 30
0
 42
0.01731454526682979
  0
VERTEX
  8
1
 10
272.1875842089215
 20
281.1880954100567
 30
0
 42
0.003504480622534288
  0
VERTEX
  8
1
 10
272.7350094693604
 20
281.4801800803781
 30
0
 42
-0.006277921057904513
  0
VERTEX
  8
1
 10
273.2825630646289
 20
281.7684671551374
 30
0
 42
-0.01631292714574009
  0
VERTEX
  8
1
 10
273.8382136518261
 20
282.0297594835735
 30
0
 42
-0.02662680848174392
  0
VERTEX
  8
1
 10
274.4099298880511
 20
282.2408599149254
 30
0
 42
-0.02074436175711534
  0
VERTEX
  8
1
 10
274.8373717173183
 20
282.3518528002005
 30
0
 42
-0.0163108998894469
  0
VERTEX
  8
1
 10
275.2745636617401
 20
282.4313900632766
 30
0
 42
-0.01199063797510977
  0
VERTEX
  8
1
 10
275.7186602086271
 20
282.4864769856985
 30
0
 42
-0.007845844435539
  0
VERTEX
  8
1
 10
276.1668158452899
 20
282.524118849011
 30
0
 42
-0.003838265878913638
  0
VERTEX
  8
1
 10
276.6161850590388
 20
282.5513209347587
 30
0
 42
-0.002306500364995836
  0
VERTEX
  8
1
 10
277.2310726514097
 20
282.5816786226122
 30
0
 42
-0.001809730331300675
  0
VERTEX
  8
1
 10
277.8435006523637
 20
282.6068599683875
 30
0
 42
-0.001301101934969084
  0
VERTEX
  8
1
 10
278.4540839597552
 20
282.628159057604
 30
0
 42
-0.0007840297045750573
  0
VERTEX
  8
1
 10
279.0634374714383
 20
282.6468699757813
 30
0
 42
-0.000261903952512241
  0
VERTEX
  8
1
 10
279.6721760852671
 20
282.664286808439
 30
0
  0
SEQEND
  8
1
  0
POLYLINE
  8
1
 62
3
 66
1
  0
VERTEX
  8
1
 10
259.6721760852671
 20
281.164286808439
 30
0
 42
-0.0002378208920107265
  0
VERTEX
  8
1
 10
260.3016906121979
 20
281.1714535500229
 30
0
 42
-0.0007133573779161169
  0
VERTEX
  8
1
 10
260.9312640944958
 20
281.1774231139068
 30
0
 42
-0.001188552287437465
  0
VERTEX
  8
1
 10
261.5609554875279
 20
281.1809983223906
 30
0
 42
-0.001663092467058991
  0
VERTEX
  8
1
 10
262.1908237466613
 20
281.1809819977743
 30
0
 42
-0.002136537293387777
  0
VERTEX
  8
1
 10
262.8209278272631
 20
281.1761769623577
 30
0
 42
-0.001865631803356704
  0
VERTEX
  8
1
 10
263.6332092913739
 20
281.162706724353
 30
0
 42
0.0005141892356270194
  0
VERTEX
  8
1
 10
264.4455351521289
 20
281.1470400102899
 30
0
 42
0.002895590791050332
  0
VERTEX
  8
1
 10
265.2574603544568
 20
281.1369193998373
 30
0
 42
0.00528960878327038
  0
VERTEX
  8
1
 10
266.0685398432863
 20
281.1400874726641
 30
0
 42
0.007694918188644389
  0
VERTEX
  8
1
 10
266.8783285635461
 20
281.164286808439
 30
0
 42
0.004343499979218052
  0
VERTEX
  8
1
 10
267.3103448012802
 20
281.187617202386
 30
0
 42
0.0002859975230971899
  0
VERTEX
  8
1
 10
267.7423359941606
 20
281.2149598109286
 30
0
 42
-0.001341803219642783
  0
VERTEX
  8
1
 10
268.1747724955229
 20
281.2421148914193
 30
0
 42
-0.003766903632609691
  0
VERTEX
  8
1
 10
268.6081246587023
 20
281.2648827012101
 30
0
 42
-0.006169435875753065
  0
VERTEX
  8
1
 10
269.0428628370343
 20
281.2790634976532
 30
0
 42
-0.004876619092776843
  0
VERTEX
  8
1
 10
269.5131726297448
 20
281.2826810906148
 30
0
 42
0.001180039295705492
  0
VERTEX
  8
1
 10
269.9837118498942
 20
281.282826355848
 30
0
 42
0.007259670785122259
  0
VERTEX
  8
1
 10
270.4525527728872
 20
281.2908855332469
 30
0
 42
0.0135185517926848
  0
VERTEX
  8
1
 10
270.9177676741284
 20
281.3182448627053
 30
0
 42
0.01992093401009585
  0
VERTEX
  8
1
 10
271.3774288290221
 20
281.376290584117
 30
0
 42
0.03139252909756913
  0
VERTEX
  8
1
 10
272.0460819010996
 20
281.5315931799939
 30
0
 42
0.01336612539574835
  0
VERTEX
  8
1
 10
272.7039122771882
 20
281.747921057129
 30
0
 42
0.008041575925032586
  0
VERTEX
  8
1
 10
273.3565183205009
 20
281.9939543973169
 30
0
 42
-0.00619973908516334
  0
VERTEX
  8
1
 10
274.0094983942504
 20
282.2383733823528
 30
0
 42
-0.01768287072622552
  0
VERTEX
  8
1
 10
274.6684508616501
 20
282.4498581940314
 30
0
 42
-0.03095415732676432
  0
VERTEX
  8
1
 10
275.6401324237594
 20
282.6541374012609
 30
0
 42
-0.02393841117518998
  0
VERTEX
  8
1
 10
276.6311896409447
 20
282.7508209522583
 30
0
 42
-0.01676213531400993
  0
VERTEX
  8
1
 10
277.6367785994372
 20
282.7668077610819
 30
0
 42
-0.009855059173506396
  0
VERTEX
  8
1
 10
278.6520553854676
 20
282.7289967417894
 30
0
 42
-0.003245338130062986
  0
VERTEX
  8
1
 10
279.6721760852671
 20
282.664286808439
 30
0
  0
SEQEND
  8
1
  0
POLYLINE
  8
1
 62
3
 66
1
  0
VERTEX
  8
1
 10
259.6721760852671
 20
282.164286808439
 30
0
 42
-0.0002335519102235489
  0
VERTEX
  8
1
 10
260.3017173363116
 20
282.1713680605078
 30
0
 42
-0.0007005663858006932
  0
VERTEX
  8
1
 10
260.9313108616949
 20
282.1772735072553
 30
0
 42
-0.001167288473299498
  0
VERTEX
  8
1
 10
261.5610089357554
 20
282.1808273433603
 30
0
 42
-0.001633442215008528
  0
VERTEX
  8
1
 10
262.190863832832
 20
282.1808537635016
 30
0
 42
-0.002098630677717578
  0
VERTEX
  8
1
 10
262.8209278272631
 20
282.1761769623577
 30
0
 42
-0.001836296502023269
  0
VERTEX
  8
1
 10
263.6331182330017
 20
282.1629980169344
 30
0
 42
0.0004944346747125393
  0
VERTEX
  8
1
 10
264.4453480667873
 20
282.1476384898235
 30
0
 42
0.002826535781270636
  0
VERTEX
  8
1
 10
265.2572227713318
 20
282.1376794200324
 30
0
 42
0.005169687816533179
  0
VERTEX
  8
1
 10
266.0683477893474
 20
282.1407018465686
 30
0
 42
0.007522252505527772
  0
VERTEX
  8
1
 10
266.8783285635461
 20
282.164286808439
 30
0
 42
0.004271185294061452
  0
VERTEX
  8
1
 10
267.310511994934
 20
282.1870823556733
 30
0
 42
0.0004085886508075378
  0
VERTEX
  8
1
 10
267.7426566978371
 20
282.2139338909657
 30
0
 42
-0.001118848494138597
  0
VERTEX
  8
1
 10
268.1751631123951
 20
282.2408653215625
 30
0
 42
-0.00341513368133605
  0
VERTEX
  8
1
 10
268.6084316787477
 20
282.2639005547096
 30
0
 42
-0.005694717497790892
  0
VERTEX
  8
1
 10
269.0428628370343
 20
282.2790634976532
 30
0
 42
-0.004574985680658126
  0
VERTEX
  8
1
 10
269.5125788404672
 20
282.2845806019653
 30
0
 42
0.0009489473348909225
  0
VERTEX
  8
1
 10
269.9825022861051
 20
282.2866957085518
 30
0
 42
0.00648872591923399
  0
VERTEX
  8
1
 10
270.4510243292253
 20
282.2957749716285
 30
0
 42
0.01215971397451806
  0
VERTEX
  8
1
 10
270.9165361251053
 20
282.3221845454116
 30
0
 42
0.01793657943332389
  0
VERTEX
  8
1
 10
271.3774288290221
 20
282.376290584117
 30
0
 42
0.02806143278873775
  0
VERTEX
  8
1
 10
272.0442118865554
 20
282.5175995706126
 30
0
 42
0.01206734520030549
  0
VERTEX
  8
1
 10
272.7021331096704
 20
282.71327141425
 30
0
 42
0.007302900516048897
  0
VERTEX
  8
1
 10
273.3557650072817
 20
282.9355637229634
 30
0
 42
-0.005441792991700869
  0
VERTEX
  8
1
 10
274.0096800883035
 20
283.1567341046865
 30
0
 42
-0.01567352639378427
  0
VERTEX
  8
1
 10
274.6684508616501
 20
283.3490401673532
 30
0
 42
-0.02763614220714637
  0
VERTEX
  8
1
 10
275.6450944942161
 20
283.538883401074
 30
0
 42
-0.02140139376498281
  0
VERTEX
  8
1
 10
276.6378057348869
 20
283.6322570721125
 30
0
 42
-0.01504769255778416
  0
VERTEX
  8
1
 10
277.6425676816366
 20
283.6532785711391
 30
0
 42
-0.008883408330750561
  0
VERTEX
  8
1
 10
278.6553634324387
 20
283.6260652888246
 30
0
 42
-0.002932426850897126
  0
VERTEX
  8
1
 10
279.6721760852671
 20
283.5747346158395
 30
0
  0
SEQEND
  8
1
  0
POLYLINE
  8
1
 62
3
 66
1
  0
VERTEX
  8
1
 10
259.6721760852671
 20
286.1331246617802
 30
0
 42
-0.001460442418309036
  0
VERTEX
  8
1
 10
260.3052046013978
 20
286.1692242965101
 30
0
 42
-0.004397959821638198
  0
VERTEX
  8
1
 10
260.9374135755955
 20
286.1978571298905
 30
0
 42
-0.007379722782397485
  0
VERTEX
  8
1
 10
261.5679834659276
 20
286.2115563605718
 30
0
 42
-0.01041556889187895
  0
VERTEX
  8
1
 10
262.1960947304611
 20
286.2028551872044
 30
0
 42
-0.0134835455197709
  0
VERTEX
  8
1
 10
262.8209278272631
 20
286.164286808439
 30
0
 42
-0.01852174853751347
  0
VERTEX
  8
1
 10
263.6440930395385
 20
286.0586553964417
 30
0
 42
-0.01562583279972608
  0
VERTEX
  8
1
 10
264.4607287220213
 20
285.8965571473582
 30
0
 42
-0.0127086813695279
  0
VERTEX
  8
1
 10
265.2715218719947
 20
285.6872746042733
 30
0
 42
-0.009851910915195017
  0
VERTEX
  8
1
 10
266.0771594867418
 20
285.440090310272
 30
0
 42
-0.007085593377921954
  0
VERTEX
  8
1
 10
266.8783285635461
 20
285.164286808439
 30
0
 42
-0.0001477941853299087
  0
VERTEX
  8
1
 10
267.3082927489779
 20
285.008770202444
 30
0
 42
0.005767172919201406
  0
VERTEX
  8
1
 10
267.7384444426954
 20
284.8586133849244
 30
0
 42
0.01182779522934113
  0
VERTEX
  8
1
 10
268.1700674710459
 20
284.7247820961934
 30
0
 42
0.01824629362265523
  0
VERTEX
  8
1
 10
268.6044456603764
 20
284.6182420765645
 30
0
 42
0.02476807313196713
  0
VERTEX
  8
1
 10
269.0428628370343
 20
284.5499590663508
 30
0
 42
0.02753061669684136
  0
VERTEX
  8
1
 10
269.5037284948958
 20
284.5269269457149
 30
0
 42
0.01481336585964643
  0
VERTEX
  8
1
 10
269.968981083317
 20
284.5430952349094
 30
0
 42
0.01190430324306923
  0
VERTEX
  8
1
 10
270.4372574420062
 20
284.5844903459141
 30
0
 42
0.002183927245008925
  0
VERTEX
  8
1
 10
270.9071944106718
 20
284.6371386907081
 30
0
 42
-0.005081831715078841
  0
VERTEX
  8
1
 10
271.3774288290221
 20
284.6870666812712
 30
0
 42
-0.01107023940325795
  0
VERTEX
  8
1
 10
272.0378313624657
 20
284.7335145694242
 30
0
 42
-0.008484735428290077
  0
VERTEX
  8
1
 10
272.696628910819
 20
284.7539919432302
 30
0
 42
-0.005824984950495109
  0
VERTEX
  8
1
 10
273.3543273957134
 20
284.7555948212977
 30
0
 42
-0.003132588015419207
  0
VERTEX
  8
1
 10
274.01143273878
 20
284.7454192222351
 30
0
 42
-0.000430019776493563
  0
VERTEX
  8
1
 10
274.6684508616501
 20
284.7305611646509
 30
0
 42
0.001259723772489901
  0
VERTEX
  8
1
 10
275.6680344273977
 20
284.7106110708348
 30
0
 42
0.0009782375385798091
  0
VERTEX
  8
1
 10
276.6683923124625
 20
284.6951244587345
 30
0
 42
0.0006981689223459126
  0
VERTEX
  8
1
 10
277.6693309370152
 20
284.6829854579211
 30
0
 42
0.0004184329134420296
  0
VERTEX
  8
1
 10
278.6706567212265
 20
284.6730781979655
 30
0
 42
0.0001395634117039856
  0
VERTEX
  8
1
 10
279.6721760852671
 20
284.664286808439
 30
0
  0
SEQEND
  8
1
  0
POLYLINE
  8
1
 62
3
 66
1
  0
VERTEX
  8
1
 10
259.6721760852671
 20
287.164286808439
 30
0
 42
-0.001393915121759076
  0
VERTEX
  8
1
 10
260.3052114013751
 20
287.1927281132657
 30
0
 42
-0.004196304011969358
  0
VERTEX
  8
1
 10
260.937425475556
 20
287.2140590918857
 30
0
 42
-0.007037433262232204
  0
VERTEX
  8
1
 10
261.5679970658824
 20
287.2211694180924
 30
0
 42
-0.009926024469204004
  0
VERTEX
  8
1
 10
262.1961049304272
 20
287.206948765679
 30
0
 42
-0.01284330496700019
  0
VERTEX
  8
1
 10
262.8209278272631
 20
287.164286808439
 30
0
 42
-0.01770265890832641
  0
VERTEX
  8
1
 10
263.6441075823715
 20
287.055749339826
 30
0
 42
-0.01507171499089599
  0
VERTEX
  8
1
 10
264.4607463331354
 20
286.89303796406
 30
0
 42
-0.01241504341036669
  0
VERTEX
  8
1
 10
265.2715352799735
 20
286.6845953226006
 30
0
 42
-0.009804710123014294
  0
VERTEX
  8
1
 10
266.0771656233043
 20
286.4388640569071
 30
0
 42
-0.007270830576701534
  0
VERTEX
  8
1
 10
266.8783285635461
 20
286.164286808439
 30
0
 42
-0.0002864829083163976
  0
VERTEX
  8
1
 10
267.3082912135201
 20
286.0090770289934
 30
0
 42
0.005668233751502522
  0
VERTEX
  8
1
 10
267.7384425294207
 20
285.8589957096465
 30
0
 42
0.01176641970667162
  0
VERTEX
  8
1
 10
268.1700659476831
 20
285.7250865058136
 30
0
 42
0.01822351206904565
  0
VERTEX
  8
1
 10
268.6044449047425
 20
285.6183930729099
 30
0
 42
0.0247892232023776
  0
VERTEX
  8
1
 10
269.0428628370343
 20
285.5499590663507
 30
0
 42
0.02758139801227021
  0
VERTEX
  8
1
 10
269.5037289394294
 20
285.5268381157108
 30
0
 42
0.01483379378696003
  0
VERTEX
  8
1
 10
269.9689816441122
 20
285.5429831726564
 30
0
 42
0.01193127750359746
  0
VERTEX
  8
1
 10
270.4372578967962
 20
285.5843994664142
 30
0
 42
0.0021904789255874
  0
VERTEX
  8
1
 10
270.9071946431949
 20
285.6370922262103
 30
0
 42
-0.005086201687264938
  0
VERTEX
  8
1
 10
271.3774288290221
 20
285.6870666812712
 30
0
 42
-0.01108267781621162
  0
VERTEX
  8
1
 10
272.037831164979
 20
285.733554032681
 30
0
 42
-0.008493923054602398
  0
VERTEX
  8
1
 10
272.6966286600446
 20
285.7540420548257
 30
0
 42
-0.005830763332785752
  0
VERTEX
  8
1
 10
273.3543271903947
 20
285.7556358496037
 30
0
 42
-0.003134911106098705
  0
VERTEX
  8
1
 10
274.0114326322046
 20
285.7454405189127
 30
0
 42
-0.0004288851270690493
  0
VERTEX
  8
1
 10
274.6684508616501
 20
285.7305611646509
 30
0
 42
0.001263637240675276
  0
VERTEX
  8
1
 10
275.6680345317658
 20
285.7105902152146
 30
0
 42
0.0009812774422138717
  0
VERTEX
  8
1
 10
276.66839245162
 20
285.6950966512409
 30
0
 42
0.0007003385916119396
  0
VERTEX
  8
1
 10
277.669331058778
 20
285.6829611263642
 30
0
 42
0.0004197335025017521
  0
VERTEX
  8
1
 10
278.6706567908053
 20
285.6730642942187
 30
0
 42
0.0001399970764968748
  0
VERTEX
  8
1
 10
279.6721760852671
 20
285.664286808439
 30
0
  0
SEQEND
  8
1
  0
POLYLINE
  8
1
 62
3
 66
1
  0
VERTEX
  8
1
 10
259.6721760852671
 20
288.6583271870699
 30
0
 42
-0.001487848289165896
  0
VERTEX
  8
1
 10
260.3042694796662
 20
288.6898051176892
 30
0
 42
-0.004476505034155962
  0
VERTEX
  8
1
 10
260.9357771125652
 20
288.7137115467222
 30
0
 42
-0.007497884543594898
  0
VERTEX
  8
1
 10
261.5661132224644
 20
288.7224749725824
 30
0
 42
-0.01055265308886797
  0
VERTEX
  8
1
 10
262.1946920478637
 20
288.7085238936834
 30
0
 42
-0.01360823765830893
  0
VERTEX
  8
1
 10
262.8209278272631
 20
288.664286808439
 30
0
 42
-0.01778042054241674
  0
VERTEX
  8
1
 10
263.575608298405
 20
288.5620330698938
 30
0
 42
-0.01672861272990179
  0
VERTEX
  8
1
 10
264.3235867637218
 20
288.4075455696794
 30
0
 42
-0.01573533131193357
  0
VERTEX
  8
1
 10
265.0624622208866
 20
288.2041849387376
 30
0
 42
-0.01482389590207345
  0
VERTEX
  8
1
 10
265.7898336675721
 20
287.9553118080102
 30
0
 42
-0.01400939333512718
  0
VERTEX
  8
1
 10
266.503300101451
 20
287.664286808439
 30
0
 42
-0.005755986491841026
  0
VERTEX
  8
1
 10
266.9662722628513
 20
287.4526661519078
 30
0
 42
0.0007264045253016484
  0
VERTEX
  8
1
 10
267.4261186280385
 20
287.2368531515884
 30
0
 42
0.007266235803816258
  0
VERTEX
  8
1
 10
267.8868190679207
 20
287.0295595093159
 30
0
 42
0.01402911607747938
  0
VERTEX
  8
1
 10
268.3523534534062
 20
286.8434969269255
 30
0
 42
0.02092265011938672
  0
VERTEX
  8
1
 10
268.8267016554031
 20
286.6913771062523
 30
0
 42
0.02585205553181248
  0
VERTEX
  8
1
 10
269.372772782975
 20
286.571099056314
 30
0
 42
0.01307870543559777
  0
VERTEX
  8
1
 10
269.9306622394024
 20
286.4930772550873
 30
0
 42
0.01031549261550182
  0
VERTEX
  8
1
 10
270.4960778291248
 20
286.4408180499057
 30
0
 42
0.0004827589534742561
  0
VERTEX
  8
1
 10
271.0647273565818
 20
286.3978277881022
 30
0
 42
-0.006885535425595083
  0
VERTEX
  8
1
 10
271.6323186262131
 20
286.3476128170103
 30
0
 42
-0.008649353238355691
  0
VERTEX
  8
1
 10
272.1917509248088
 20
286.2784234596808
 30
0
 42
-0.004805729940407702
  0
VERTEX
  8
1
 10
272.7475666570274
 20
286.1944299406184
 30
0
 42
-0.0009220831189856176
  0
VERTEX
  8
1
 10
273.3014273661319
 20
286.1042257628955
 30
0
 42
0.002980105104960663
  0
VERTEX
  8
1
 10
273.8549945953855
 20
286.0164044295843
 30
0
 42
0.006887240875691412
  0
VERTEX
  8
1
 10
274.4099298880511
 20
285.9395594437571
 30
0
 42
0.00719438754086918
  0
VERTEX
  8
1
 10
274.8490599704414
 20
285.8913092693918
 30
0
 42
0.004252160957313698
  0
VERTEX
  8
1
 10
275.28966087064
 20
285.8530820091016
 30
0
 42
0.004734714785338727
  0
VERTEX
  8
1
 10
275.7313222467422
 20
285.8227491598303
 30
0
 42
0.001808389312292535
  0
VERTEX
  8
1
 10
276.1736337568433
 20
285.7981822185217
 30
0
 42
0.002305351000009117
  0
VERTEX
  8
1
 10
276.6161850590388
 20
285.7772526821194
 30
0
 42
3.675170215728266e-005
  0
VERTEX
  8
1
 10
277.2277743519339
 20
285.7511994456182
 30
0
 42
0.001837690898072319
  0
VERTEX
  8
1
 10
277.8391029197294
 20
285.7274529169604
 30
0
 42
0.000586599310296424
  0
VERTEX
  8
1
 10
278.4502359437001
 20
285.7054364191852
 30
0
 42
0.000352222308039722
  0
VERTEX
  8
1
 10
279.0612386051211
 20
285.6845732753316
 30
0
 42
0.0001173843013297063
  0
VERTEX
  8
1
 10
279.6721760852671
 20
285.664286808439
 30
0
  0
SEQEND
  8
1
  0
POLYLINE
  8
1
 62
3
 66
1
  0
VERTEX
  8
1
 10
259.6721760852671
 20
289.6583271870699
 30
0
 42
-0.001487848289165896
  0
VERTEX
  8
1
 10
260.3042694796662
 20
289.6898051176892
 30
0
 42
-0.004476505034336043
  0
VERTEX
  8
1
 10
260.9357771125652
 20
289.7137115467222
 30
0
 42
-0.007497884543685275
  0
VERTEX
  8
1
 10
261.5661132224644
 20
289.7224749725823
 30
0
 42
-0.01055265308895836
  0
VERTEX
  8
1
 10
262.1946920478637
 20
289.7085238936834
 30
0
 42
-0.01360823765812837
  0
VERTEX
  8
1
 10
262.8209278272631
 20
289.664286808439
 30
0
 42
-0.01778042054241674
  0
VERTEX
  8
1
 10
263.575608298405
 20
289.5620330698938
 30
0
 42
-0.01672861272990179
  0
VERTEX
  8
1
 10
264.3235867637218
 20
289.4075455696794
 30
0
 42
-0.01573533131193357
  0
VERTEX
  8
1
 10
265.0624622208866
 20
289.2041849387376
 30
0
 42
-0.0148238959018629
  0
VERTEX
  8
1
 10
265.7898336675721
 20
288.9553118080102
 30
0
 42
-0.01400939333519581
  0
VERTEX
  8
1
 10
266.503300101451
 20
288.664286808439
 30
0
 42
-0.005755986491841026
  0
VERTEX
  8
1
 10
266.9662722628513
 20
288.4526661519078
 30
0
 42
0.0007264045253016484
  0
VERTEX
  8
1
 10
267.4261186280385
 20
288.2368531515884
 30
0
 42
0.007266235803816258
  0
VERTEX
  8
1
 10
267.8868190679207
 20
288.0295595093159
 30
0
 42
0.01402911607747938
  0
VERTEX
  8
1
 10
268.3523534534062
 20
287.8434969269255
 30
0
 42
0.02092265011938672
  0
VERTEX
  8
1
 10
268.8267016554031
 20
287.6913771062523
 30
0
 42
0.02585205553181248
  0
VERTEX
  8
1
 10
269.372772782975
 20
287.571099056314
 30
0
 42
0.0130787054356478
  0
VERTEX
  8
1
 10
269.9306622394024
 20
287.4930772550874
 30
0
 42
0.01031549261530073
  0
VERTEX
  8
1
 10
270.4960778291248
 20
287.4408180499057
 30
0
 42
0.0004827589533748356
  0
VERTEX
  8
1
 10
271.0647273565818
 20
287.3978277881022
 30
0
 42
-0.006885535425793823
  0
VERTEX
  8
1
 10
271.6323186262131
 20
287.3476128170103
 30
0
 42
-0.008649353238255985
  0
VERTEX
  8
1
 10
272.1917509248088
 20
287.2784234596807
 30
0
 42
-0.004805729940507402
  0
VERTEX
  8
1
 10
272.7475666570274
 20
287.1944299406184
 30
0
 42
-0.0009220831189856176
  0
VERTEX
  8
1
 10
273.3014273661319
 20
287.1042257628955
 30
0
 42
0.002980105105060972
  0
VERTEX
  8
1
 10
273.8549945953855
 20
287.0164044295843
 30
0
 42
0.006887240875490452
  0
VERTEX
  8
1
 10
274.4099298880511
 20
286.9395594437571
 30
0
 42
0.007194387541183222
  0
VERTEX
  8
1
 10
274.8490599704414
 20
286.8913092693919
 30
0
 42
0.004252160956872321
  0
VERTEX
  8
1
 10
275.28966087064
 20
286.8530820091016
 30
0
 42
0.004734714785844112
  0
VERTEX
  8
1
 10
275.7313222467422
 20
286.8227491598303
 30
0
 42
0.00180838931185072
  0
VERTEX
  8
1
 10
276.1736337568433
 20
286.7981822185217
 30
0
 42
0.002305351000322812
  0
VERTEX
  8
1
 10
276.6161850590388
 20
286.7772526821194
 30
0
 42
3.675170190770453e-005
  0
VERTEX
  8
1
 10
277.2277743519339
 20
286.7511994456182
 30
0
 42
0.001837690898368305
  0
VERTEX
  8
1
 10
277.8391029197294
 20
286.7274529169604
 30
0
 42
0.0005865993103893497
  0
VERTEX
  8
1
 10
278.4502359437001
 20
286.7054364191852
 30
0
 42
0.000352222308039722
  0
VERTEX
  8
1
 10
279.0612386051211
 20
286.6845732753317
 30
0
 42
0.0001173843012367251
  0
VERTEX
  8
1
 10
279.6721760852671
 20
286.664286808439
 30
0
  0
SEQEND
  8
1
  0
POLYLINE
  8
1
 62
3
 66
1
  0
VERTEX
  8
1
 10
259.6721760852671
 20
291.164286808439
 30
0
 42
-0.00240151554617215
  0
VERTEX
  8
1
 10
260.416653147246
 20
291.2225949889915
 30
0
 42
-0.007270061774003677
  0
VERTEX
  8
1
 10
261.1587511899313
 20
291.2663261244059
 30
0
 42
-0.01231149283695376
  0
VERTEX
  8
1
 10
261.8960911940295
 20
291.280903169544
 30
0
 42
-0.01755354876929873
  0
VERTEX
  8
1
 10
262.626294140247
 20
291.2517490792677
 30
0
 42
-0.02286882021851987
  0
VERTEX
  8
1
 10
263.3469810092901
 20
291.164286808439
 30
0
 42
-0.02422950548639768
  0
VERTEX
  8
1
 10
264.1166541486172
 20
290.9929636654224
 30
0
 42
-0.01734588071477367
  0
VERTEX
  8
1
 10
264.8754054277545
 20
290.7564642800361
 30
0
 42
-0.01066198829474464
  0
VERTEX
  8
1
 10
265.6263249176809
 20
290.4754681882416
 30
0
 42
-0.004244675796728025
  0
VERTEX
  8
1
 10
266.3725026893752
 20
290.1706549260006
 30
0
 42
0.002052424584108406
  0
VERTEX
  8
1
 10
267.1170288138162
 20
289.8627040292747
 30
0
 42
0.006058712418393632
  0
VERTEX
  8
1
 10
267.9135706068182
 20
289.5482711067614
 30
0
 42
0.001620781604081669
  0
VERTEX
  8
1
 10
268.7112600227999
 20
289.2474616182251
 30
0
 42
0.002483729581238534
  0
VERTEX
  8
1
 10
269.5096022053177
 20
288.9538685909454
 30
0
 42
-0.000669760510894571
  0
VERTEX
  8
1
 10
270.3081022979276
 20
288.6610850522021
 30
0
 42
-0.002478661273250167
  0
VERTEX
  8
1
 10
271.1062654441861
 20
288.3627040292747
 30
0
 42
-0.001095647322359574
  0
VERTEX
  8
1
 10
271.7836100175683
 20
288.1025782338165
 30
0
 42
0.002424872975820522
  0
VERTEX
  8
1
 10
272.4622859805324
 20
287.8440106298345
 30
0
 42
0.005958294520742054
  0
VERTEX
  8
1
 10
273.1442242251228
 20
287.5972113411092
 30
0
 42
0.009559540633501602
  0
VERTEX
  8
1
 10
273.831355643384
 20
287.372390491421
 30
0
 42
0.01321742970668774
  0
VERTEX
  8
1
 10
274.5256111273602
 20
287.17975820455
 30
0
 42
0.02072492854072202
  0
VERTEX
  8
1
 10
275.532718888138
 20
286.9726907598338
 30
0
 42
0.01367359041636761
  0
VERTEX
  8
1
 10
276.5546301361181
 20
286.8349387587802
 30
0
 42
0.01190594914402699
  0
VERTEX
  8
1
 10
277.5876439995001
 20
286.7491733404737
 30
0
 42
0.004970428984487151
  0
VERTEX
  8
1
 10
278.6280596064833
 20
286.6980656439985
 30
0
 42
0.00340093216607362
  0
VERTEX
  8
1
 10
279.6721760852671
 20
286.664286808439
 30
0
  0
SEQEND
  8
1
  0
POLYLINE
  8
1
 62
3
 66
1
  0
VERTEX
  8
1
 10
259.6721760852671
 20
292.164286808439
 30
0
 42
-0.002401515546323807
  0
VERTEX
  8
1
 10
260.416653147246
 20
292.2225949889915
 30
0
 42
-0.007270061773850902
  0
VERTEX
  8
1
 10
261.1587511899313
 20
292.2663261244059
 30
0
 42
-0.01231149283695376
  0
VERTEX
  8
1
 10
261.8960911940295
 20
292.280903169544
 30
0
 42
-0.01755354876922099
  0
VERTEX
  8
1
 10
262.626294140247
 20
292.2517490792678
 30
0
 42
-0.02286882021828616
  0
VERTEX
  8
1
 10
263.3469810092901
 20
292.164286808439
 30
0
 42
-0.02422950548653831
  0
VERTEX
  8
1
 10
264.1166541486172
 20
291.9929636654224
 30
0
 42
-0.01734588071477367
  0
VERTEX
  8
1
 10
264.8754054277545
 20
291.7564642800361
 30
0
 42
-0.01066198829474464
  0
VERTEX
  8
1
 10
265.6263249176809
 20
291.4754681882416
 30
0
 42
-0.0042446757965324
  0
VERTEX
  8
1
 10
266.3725026893752
 20
291.1706549260007
 30
0
 42
0.002052424584303807
  0
VERTEX
  8
1
 10
267.1170288138162
 20
290.8627040292747
 30
0
 42
0.006058712418261455
  0
VERTEX
  8
1
 10
267.9135706068182
 20
290.5482711067614
 30
0
 42
0.001620781604151669
  0
VERTEX
  8
1
 10
268.7112600227999
 20
290.2474616182251
 30
0
 42
0.002483729581168367
  0
VERTEX
  8
1
 10
269.5096022053177
 20
289.9538685909454
 30
0
 42
-0.0006697605109574097
  0
VERTEX
  8
1
 10
270.3081022979276
 20
289.6610850522021
 30
0
 42
-0.002478661273250167
  0
VERTEX
  8
1
 10
271.1062654441861
 20
289.3627040292747
 30
0
 42
-0.001095647322359574
  0
VERTEX
  8
1
 10
271.7836100175683
 20
289.1025782338165
 30
0
 42
0.002424872975966851
  0
VERTEX
  8
1
 10
272.4622859805324
 20
288.8440106298345
 30
0
 42
0.005958294520595943
  0
VERTEX
  8
1
 10
273.1442242251228
 20
288.5972113411092
 30
0
 42
0.00955954063364761
  0
VERTEX
  8
1
 10
273.831355643384
 20
288.372390491421
 30
0
 42
0.01321742970654217
  0
VERTEX
  8
1
 10
274.5256111273602
 20
288.17975820455
 30
0
 42
0.0207249285408673
  0
VERTEX
  8
1
 10
275.532718888138
 20
287.9726907598338
 30
0
 42
0.01367359041625019
  0
VERTEX
  8
1
 10
276.5546301361181
 20
287.8349387587803
 30
0
 42
0.01190594914409061
  0
VERTEX
  8
1
 10
277.5876439995001
 20
287.7491733404737
 30
0
 42
0.004970428984450014
  0
VERTEX
  8
1
 10
278.6280596064833
 20
287.6980656439985
 30
0
 42
0.003400932166110757
  0
VERTEX
  8
1
 10
279.6721760852671
 20
287.664286808439
 30
0
  0
SEQEND
  8
1
  0
POLYLINE
  8
1
 62
3
 66
1
  0
VERTEX
  8
1
 10
259.6721760852671
 20
293.664286808439
 30
0
 42
-0.001282843573334237
  0
VERTEX
  8
1
 10
260.5814816225611
 20
293.560560468232
 30
0
 42
-0.003855547891276556
  0
VERTEX
  8
1
 10
261.4888468986433
 20
293.4476020519354
 30
0
 42
-0.006445299873550337
  0
VERTEX
  8
1
 10
262.3923316523016
 20
293.3161794834596
 30
0
 42
-0.00904987960786288
  0
VERTEX
  8
1
 10
263.2899956223241
 20
293.1570606867148
 30
0
 42
-0.01164617623662725
  0
VERTEX
  8
1
 10
264.1798985474991
 20
292.9610135856117
 30
0
 42
-0.00874350845472946
  0
VERTEX
  8
1
 10
264.7962509439616
 20
292.7979303075477
 30
0
 42
-0.00817306587571018
  0
VERTEX
  8
1
 10
265.4073860793104
 20
292.6138988651476
 30
0
 42
-0.007621914706664081
  0
VERTEX
  8
1
 10
266.0128255960933
 20
292.4105195627641
 30
0
 42
-0.007091699757812215
  0
VERTEX
  8
1
 10
266.6120911368583
 20
292.1893927047497
 30
0
 42
-0.006583037128464651
  0
VERTEX
  8
1
 10
267.2047043441531
 20
291.9521185954573
 30
0
 42
-0.008713060780503974
  0
VERTEX
  8
1
 10
268.1634979104819
 20
291.5326662810469
 30
0
 42
-0.005295441891873722
  0
VERTEX
  8
1
 10
269.1097052221832
 20
291.0867240521687
 30
0
 42
-0.001863754328412972
  0
VERTEX
  8
1
 10
270.0499636145443
 20
290.6270190274944
 30
0
 42
0.001562292244715866
  0
VERTEX
  8
1
 10
270.9909104228524
 20
290.1662783256954
 30
0
 42
0.004976995968671334
  0
VERTEX
  8
1
 10
271.939182982395
 20
289.7172290654435
 30
0
 42
0.006696095144271847
  0
VERTEX
  8
1
 10
272.7427662429848
 20
289.3594168593298
 30
0
 42
0.007803666421304505
  0
VERTEX
  8
1
 10
273.5563825850173
 20
289.0250565051422
 30
0
 42
0.01011296588920874
  0
VERTEX
  8
1
 10
274.3802822893425
 20
288.720491753027
 30
0
 42
0.01131361176714628
  0
VERTEX
  8
1
 10
275.2147156368108
 20
288.4520663531302
 30
0
 42
0.0250028341344774
  0
VERTEX
  8
1
 10
276.7731671576121
 20
288.0729825335915
 30
0
 42
0.007638934575486471
  0
VERTEX
  8
1
 10
277.4925443309913
 20
287.9470237266348
 30
0
 42
0.006629896808809897
  0
VERTEX
  8
1
 10
278.2165286974002
 20
287.8414519559654
 30
0
 42
0.002849043767127361
  0
VERTEX
  8
1
 10
278.9435845258287
 20
287.749471542821
 30
0
 42
0.001877809742899835
  0
VERTEX
  8
1
 10
279.6721760852671
 20
287.664286808439
 30
0
  0
SEQEND
  8
1
  0
POLYLINE
  8
1
 62
3
 66
1
  0
VERTEX
  8
1
 10
259.6721760852671
 20
294.664286808439
 30
0
 42
-0.001282843573395744
  0
VERTEX
  8
1
 10
260.5814816225611
 20
294.560560468232
 30
0
 42
-0.003855547891091367
  0
VERTEX
  8
1
 10
261.4888468986433
 20
294.4476020519354
 30
0
 42
-0.006445299873550337
  0
VERTEX
  8
1
 10
262.3923316523016
 20
294.3161794834596
 30
0
 42
-0.009049879607924392
  0
VERTEX
  8
1
 10
263.2899956223241
 20
294.1570606867149
 30
0
 42
-0.0116461762364447
  0
VERTEX
  8
1
 10
264.1798985474991
 20
293.9610135856117
 30
0
 42
-0.00874350845472946
  0
VERTEX
  8
1
 10
264.7962509439616
 20
293.7979303075477
 30
0
 42
-0.00817306587571018
  0
VERTEX
  8
1
 10
265.4073860793104
 20
293.6138988651476
 30
0
 42
-0.007621914706664081
  0
VERTEX
  8
1
 10
266.0128255960933
 20
293.4105195627641
 30
0
 42
-0.007091699757812215
  0
VERTEX
  8
1
 10
266.6120911368583
 20
293.1893927047497
 30
0
 42
-0.006583037128464651
  0
VERTEX
  8
1
 10
267.2047043441531
 20
292.9521185954573
 30
0
 42
-0.00871306078045401
  0
VERTEX
  8
1
 10
268.1634979104819
 20
292.5326662810469
 30
0
 42
-0.005295441891824427
  0
VERTEX
  8
1
 10
269.1097052221832
 20
292.0867240521687
 30
0
 42
-0.001863754328461822
  0
VERTEX
  8
1
 10
270.0499636145443
 20
291.6270190274943
 30
0
 42
0.001562292244667127
  0
VERTEX
  8
1
 10
270.9909104228524
 20
291.1662783256954
 30
0
 42
0.004976995968695926
  0
VERTEX
  8
1
 10
271.939182982395
 20
290.7172290654435
 30
0
 42
0.006696095144247365
  0
VERTEX
  8
1
 10
272.7427662429848
 20
290.3594168593298
 30
0
 42
0.007803666421329209
  0
VERTEX
  8
1
 10
273.5563825850173
 20
290.0250565051422
 30
0
 42
0.01011296588915416
  0
VERTEX
  8
1
 10
274.3802822893425
 20
289.7204917530269
 30
0
 42
0.01131361176726237
  0
VERTEX
  8
1
 10
275.2147156368108
 20
289.4520663531302
 30
0
 42
0.02500283413433109
  0
VERTEX
  8
1
 10
276.7731671576121
 20
289.0729825335915
 30
0
 42
0.007638934575631919
  0
VERTEX
  8
1
 10
277.4925443309913
 20
288.9470237266348
 30
0
 42
0.0066298968087032
  0
VERTEX
  8
1
 10
278.2165286974002
 20
288.8414519559655
 30
0
 42
0.002849043767156838
  0
VERTEX
  8
1
 10
278.9435845258287
 20
288.749471542821
 30
0
 42
0.001877809742908606
  0
VERTEX
  8
1
 10
279.6721760852671
 20
288.664286808439
 30
0
  0
SEQEND
  8
1
  0
POLYLINE
  8
1
 62
3
 66
1
  0
VERTEX
  8
1
 10
297.3411211032763
 20
288.664286808439
 30
0
 42
0.006401683005912559
  0
VERTEX
  8
1
 10
296.84553971507
 20
287.8401566394227
 30
0
 42
0.02019686451657302
  0
VERTEX
  8
1
 10
296.4110534257227
 20
287.0220590126605
 30
0
 42
0.0391119796075171
  0
VERTEX
  8
1
 10
296.0987573340933
 20
286.2160264704065
 30
0
 42
0.06467125169468946
  0
VERTEX
  8
1
 10
295.9697465390408
 20
285.4280915549145
 30
0
 42
0.09177780810687627
  0
VERTEX
  8
1
 10
296.0851161394243
 20
284.664286808439
 30
0
 42
0.0621348450116446
  0
VERTEX
  8
1
 10
296.3820561469373
 20
284.0605040946028
 30
0
 42
0.01032167271987987
  0
VERTEX
  8
1
 10
296.7891812046146
 20
283.4677269658027
 30
0
 42
-0.008968366807531245
  0
VERTEX
  8
1
 10
297.2129111966418
 20
282.8768411939208
 30
0
 42
-0.04086910226537173
  0
VERTEX
  8
1
 10
297.5596660072042
 20
282.2787325508389
 30
0
 42
-0.08398492570948342
  0
VERTEX
  8
1
 10
297.7358655204873
 20
281.664286808439
 30
0
 42
-0.05745879019253847
  0
VERTEX
  8
1
 10
297.7260883200545
 20
281.2757929933228
 30
0
 42
-0.04092577827180247
  0
VERTEX
  8
1
 10
297.6367031985795
 20
280.8796283882841
 30
0
 42
-0.02623680825990527
  0
VERTEX
  8
1
 10
297.4876121363228
 20
280.4777106908034
 30
0
 42
-0.01444012508565607
  0
VERTEX
  8
1
 10
297.2987171135448
 20
280.0719575983616
 30
0
 42
-0.004595698193026338
  0
VERTEX
  8
1
 10
297.0899201105063
 20
279.664286808439
 30
0
  0
SEQEND
  8
1
  0
POLYLINE
  8
1
 62
3
 66
1
  0
VERTEX
  8
1
 10
298.2023816499173
 20
288.664286808439
 30
0
 42
0.005610045220729319
  0
VERTEX
  8
1
 10
297.7232171762659
 20
288.062758071562
 30
0
 42
0.01766205651874396
  0
VERTEX
  8
1
 10
297.2884835231961
 20
287.4616115189042
 30
0
 42
0.03408297587044554
  0
VERTEX
  8
1
 10
296.9426115112899
 20
286.8612293346849
 30
0
 42
0.05686596115244005
  0
VERTEX
  8
1
 10
296.730031961129
 20
286.2619937031234
 30
0
 42
0.08472232245207613
  0
VERTEX
  8
1
 10
296.6951756932953
 20
285.664286808439
 30
0
 42
0.1038365951309751
  0
VERTEX
  8
1
 10
296.9555840853259
 20
284.8724422316336
 30
0
 42
0.01466668619483035
  0
VERTEX
  8
1
 10
297.4456381389562
 20
284.0802452785875
 30
0
 42
0.0136340814958331
  0
VERTEX
  8
1
 10
298.0028602051766
 20
283.2839706139442
 30
0
 42
-0.04258924877918888
  0
VERTEX
  8
1
 10
298.4647726349771
 20
282.479892902347
 30
0
 42
-0.09880128485636304
  0
VERTEX
  8
1
 10
298.6688977793482
 20
281.664286808439
 30
0
 42
-0.0542564205418192
  0
VERTEX
  8
1
 10
298.6339658544928
 20
281.2684894138644
 30
0
 42
-0.03886192777691091
  0
VERTEX
  8
1
 10
298.5218414824329
 20
280.8698902823395
 30
0
 42
-0.02511887737165078
  0
VERTEX
  8
1
 10
298.3518227749696
 20
280.4691898481019
 30
0
 42
-0.01391435860726458
  0
VERTEX
  8
1
 10
298.143207843904
 20
280.0670885453893
 30
0
 42
-0.004443253589489105
  0
VERTEX
  8
1
 10
297.9152948010373
 20
279.664286808439
 30
0
  0
SEQEND
  8
1
  0
ARC
  8
1
 62
3
 10
424.6795072300409
 20
129.8477413329838
 30
0
 40
7
 50
180
 51
270
  0
ARC
  8
1
 62
3
 10
490.6795072300409
 20
129.8477413329838
 30
0
 40
6.999999999999986
 50
270
 51
0
  0
ARC
  8
1
 62
3
 10
490.6795072300409
 20
195.8477413329838
 30
0
 40
7
 50
0
 51
90
  0
ARC
  8
1
 62
3
 10
424.6795072300409
 20
195.8477413329838
 30
0
 40
7
 50
90
 51
180
  0
ARC
  8
1
 62
3
 10
302.1433336913502
 20
131.347741332984
 30
0
 40
0.5
 50
90
 51
156.4218215218455
  0
ARC
  8
1
 62
3
 10
168.7368513433588
 20
157.8177413329838
 30
0
 40
1.669999999999988
 50
270
 51
0
  0
ARC
  8
1
 62
3
 10
165.0768513433587
 20
157.8177413329838
 30
0
 40
1.669999999999902
 50
180
 51
270
  0
ARC
  8
1
 62
3
 10
168.7168513433588
 20
157.8377413329838
 30
0
 40
0.6899999999999977
 50
270
 51
0
  0
ARC
  8
1
 62
3
 10
168.7168513433588
 20
157.8455019857491
 30
0
 40
0.6899999999999977
 50
0
 51
90
  0
ARC
  8
1
 62
3
 10
165.0968513433588
 20
157.8377413329838
 30
0
 40
0.6899999999999977
 50
180
 51
270
  0
ARC
  8
1
 62
3
 10
165.0968513433588
 20
157.8455019857491
 30
0
 40
0.6899999999999977
 50
90
 51
180
  0
ARC
  8
1
 62
3
 10
133.9068513433588
 20
129.8477413329838
 30
0
 40
7
 50
180
 51
270
  0
ARC
  8
1
 62
3
 10
199.9068513433588
 20
129.8477413329838
 30
0
 40
6.999999999999986
 50
270
 51
0
  0
ARC
  8
1
 62
3
 10
133.9068513433588
 20
195.8477413329838
 30
0
 40
7
 50
90
 51
180
  0
ARC
  8
1
 62
3
 10
199.9068513433588
 20
195.8477413329838
 30
0
 40
7
 50
0
 51
90
  0
ARC
  8
1
 62
3
 10
300.0630413262416
 20
122.9991213132885
 30
0
 40
0.2999999999999972
 50
270
 51
0
  0
ARC
  8
1
 62
3
 10
300.0230413262416
 20
122.9991213132887
 30
0
 40
0.2999999999999545
 50
180
 51
270
  0
ARC
  8
1
 62
3
 10
324.34303369135
 20
191.6477413329838
 30
0
 40
2.200000000000216
 50
0
 51
90
  0
ARC
  8
1
 62
3
 10
324.34303369135
 20
134.0477413329838
 30
0
 40
2.200000000000017
 50
270
 51
0
  0
ARC
  8
1
 62
3
 10
302.1433336913502
 20
194.3477413329841
 30
0
 40
0.5
 50
180
 51
270
  0
ARC
  8
1
 62
3
 10
324.3430336913501
 20
71.55073623641272
 30
0
 40
2.200000000000159
 50
0
 51
90
  0
ARC
  8
1
 62
3
 10
324.3430336913501
 20
13.95073623641275
 30
0
 40
2.20000000000004
 50
270
 51
0
  0
ARC
  8
1
 62
3
 10
302.1433336913504
 20
74.25073623641305
 30
0
 40
0.5
 50
180
 51
270
  0
ARC
  8
1
 62
3
 10
302.1433336913504
 20
11.25073623641242
 30
0
 40
0.5000000000005098
 50
90
 51
179.9999999999896
  0
ARC
  8
1
 62
3
 10
444.3671762403159
 20
175.6204673326569
 30
0
 40
1
 50
180
 51
270
  0
ARC
  8
1
 62
3
 10
444.3671762403159
 20
185.6204673326569
 30
0
 40
1
 50
90
 51
180
  0
ARC
  8
1
 62
3
 10
470.3671762403158
 20
185.6204673326569
 30
0
 40
1
 50
0
 51
90
  0
ARC
  8
1
 62
3
 10
470.3671762403158
 20
175.6204673326569
 30
0
 40
1
 50
270
 51
0
  0
ARC
  8
1
 62
3
 10
464.1788934573072
 20
193.4653833061992
 30
0
 40
0.8000000000000114
 50
180
 51
190.7103357656793
  0
ARC
  8
1
 62
3
 10
439.5946272311967
 20
126.9118614397557
 30
0
 40
0.03119999999978848
 50
352.5415509438549
 51
45.00000000023989
  0
ARC
  8
1
 62
3
 10
439.5946272311967
 20
126.7850658045211
 30
0
 40
0.03119999999991645
 50
314.9999999996309
 51
7.458449056171063
  0
ARC
  8
1
 62
3
 10
440.1422928225935
 20
127.332731395918
 30
0
 40
0.03120000000019408
 50
262.5415509437944
 51
314.9999999996309
  0
ARC
  8
1
 62
3
 10
440.0154971873588
 20
127.332731395918
 30
0
 40
0.03120000000003704
 50
225.0000000001477
 51
277.4584490564126
  0
ARC
  8
1
 62
3
 10
440.5631627787556
 20
126.7850658045211
 30
0
 40
0.03120000000001578
 50
172.5415509438832
 51
225
  0
ARC
  8
1
 62
3
 10
440.5631627787556
 20
126.9118614397557
 30
0
 40
0.03120000000004709
 50
135.0000000001292
 51
187.458449056091
  0
ARC
  8
1
 62
3
 10
440.0154971873588
 20
126.3641958483588
 30
0
 40
0.03120000000019475
 50
82.54155094358401
 51
134.9999999998708
  0
ARC
  8
1
 62
3
 10
440.1422928225935
 20
126.3641958483588
 30
0
 40
0.03119999999990641
 50
45.00000000035062
 51
97.45844905620898
  0
ARC
  8
1
 62
3
 10
474.7946241358591
 20
126.9118614397557
 30
0
 40
0.03119999999984484
 50
352.5415509438684
 51
45.00000000016608
  0
ARC
  8
1
 62
3
 10
474.7946241358591
 20
126.7850658045211
 30
0
 40
0.03119999999995665
 50
314.9999999997047
 51
7.458449056157512
  0
ARC
  8
1
 62
3
 10
475.3422897272558
 20
127.332731395918
 30
0
 40
0.03120000000017933
 50
262.5415509440014
 51
314.9999999997786
  0
ARC
  8
1
 62
3
 10
475.2154940920213
 20
127.332731395918
 30
0
 40
0.03119999999995665
 50
225.0000000002952
 51
277.4584490563091
  0
ARC
  8
1
 62
3
 10
475.7631596834182
 20
126.7850658045211
 30
0
 40
0.0312000000001285
 50
172.5415509439103
 51
224.9999999998524
  0
ARC
  8
1
 62
3
 10
475.7631596834182
 20
126.9118614397557
 30
0
 40
0.03120000000012747
 50
135.0000000002768
 51
187.4584490560639
  0
ARC
  8
1
 62
3
 10
475.2154940920213
 20
126.3641958483588
 30
0
 40
0.03120000000018737
 50
82.54155094368751
 51
134.9999999997232
  0
ARC
  8
1
 62
3
 10
475.3422897272558
 20
126.3641958483588
 30
0
 40
0.03120000000010738
 50
44.99999999998155
 51
97.45844905600197
  0
ARC
  8
1
 62
3
 10
452.7888934573073
 20
194.8377413329839
 30
0
 40
0.009999999999990905
 50
90
 51
180
  0
ARC
  8
1
 62
3
 10
462.5688934573073
 20
194.8377413329839
 30
0
 40
0.009999999999990905
 50
0
 51
90
  0
ARC
  8
1
 62
3
 10
439.1788934573072
 20
123.8477413329839
 30
0
 40
0.9999999999998863
 50
180
 51
270
  0
ARC
  8
1
 62
3
 10
476.1788934573063
 20
123.8477413329839
 30
0
 40
1.000000000001094
 50
270
 51
0
  0
ARC
  8
1
 62
3
 10
439.3788934573072
 20
131.3477548984324
 30
0
 40
2
 50
180
 51
233.1301023541607
  0
ARC
  8
1
 62
3
 10
482.1788934573073
 20
124.5977413329833
 30
0
 40
1.5
 50
270
 51
0
  0
ARC
  8
1
 62
3
 10
433.1788934573071
 20
124.5977413329833
 30
0
 40
1.5
 50
180
 51
270
  0
ARC
  8
1
 62
3
 10
421.1788934573071
 20
138.3477413329835
 30
0
 40
1.5
 50
180
 51
270
  0
ARC
  8
1
 62
3
 10
494.1788934573073
 20
138.3477413329835
 30
0
 40
1.5
 50
270
 51
0
  0
ARC
  8
1
 62
3
 10
494.1788934573073
 20
187.3477413329839
 30
0
 40
1.5
 50
0
 51
90
  0
ARC
  8
1
 62
3
 10
482.1788934573073
 20
199.3477413329839
 30
0
 40
1.5
 50
0
 51
90
  0
ARC
  8
1
 62
3
 10
433.1788934573071
 20
199.3477413329839
 30
0
 40
1.5
 50
90
 51
180
  0
ARC
  8
1
 62
3
 10
421.1788934573071
 20
187.3477413329839
 30
0
 40
1.5
 50
90
 51
180
  0
ARC
  8
1
 62
3
 10
486.6788934573073
 20
191.8477413329839
 30
0
 40
3
 50
180
 51
270
  0
ARC
  8
1
 62
3
 10
486.6788934573073
 20
133.8477413329835
 30
0
 40
3
 50
90
 51
180
  0
ARC
  8
1
 62
3
 10
428.6788934573071
 20
191.8477413329839
 30
0
 40
3
 50
270
 51
0
  0
ARC
  8
1
 62
3
 10
428.6788934573071
 20
133.8477413329835
 30
0
 40
3
 50
0
 51
90
  0
ARC
  8
1
 62
3
 10
475.9788934573072
 20
131.347754898432
 30
0
 40
2.000000000000125
 50
306.869897645845
 51
0
  0
ARC
  8
1
 62
3
 10
464.1788934573072
 20
193.8741816702187
 30
0
 40
0.8000000000000895
 50
78.16773095150271
 51
180
  0
ARC
  8
1
 62
3
 10
451.1788934573072
 20
193.8741816702187
 30
0
 40
0.8000000000000114
 50
0
 51
101.8322690484973
  0
ARC
  8
1
 62
3
 10
451.1788934573072
 20
193.4653833061992
 30
0
 40
0.799999999999969
 50
349.2722664569498
 51
0
  0
ARC
  8
1
 62
3
 10
436.5788934573073
 20
139.1901844007898
 30
0
 40
0.8000000000001766
 50
228.2704652751567
 51
0
  0
ARC
  8
1
 62
3
 10
478.7788934573073
 20
139.2106930745501
 30
0
 40
0.8000000000000682
 50
180
 51
311.5783115319698
  0
TEXT
  8
1
 62
2
 10
350.7698263569322
 20
299.0260049101119
 30
0
 40
3.200000000000001
  1
1
 50
90
 41
0.9
  0
TEXT
  8
1
 62
2
 10
350.8249207109361
 20
267.1190873262229
 30
0
 40
3.199999999999999
  1
11
 50
90
 41
0.9
  0
TEXT
  8
1
 62
2
 10
248.7944454290162
 20
269.3530716176563
 30
0
 40
3.200000000000001
  1
9
 50
90
 41
0.9
  0
TEXT
  8
1
 62
2
 10
248.2358863751251
 20
297.7399416915856
 30
0
 40
3.200000000000001
  1
1
 50
90
 41
0.9
  0
TEXT
  8
1
 62
2
 10
284.4677132318747
 20
258.6657895248472
 30
0
 40
4
  1
付属ケーブル
 41
0.9
  0
TEXT
  8
1
 62
2
 10
272.9613416081855
 20
-20.1934670713969
 30
0
 40
5
  1
FY8PF15N-D3
 41
0.9
  0
ENDSEC
  0
EOF
