  0
SECTION
  2
HEADER
  9
$ACADVER
  1
AC1009
  9
$INSBASE
 10
0
 20
0
  9
$EXTMIN
 10
133.5552760843182
 20
-13.35791740061213
  9
$EXTMAX
 10
477.9319576126487
 20
297.7121556299777
  9
$LIMMIN
 10
133.5552760843182
 20
-13.35791740061213
  9
$LIMMAX
 10
477.9319576126487
 20
297.7121556299777
  9
$VIEWCTR
 10
10
 20
10
  9
$VIEWSIZE
 40
10
  9
$SNAPMODE
 70
0
  9
$SNAPUNIT
 10
1
 20
1
  9
$SNAPBASE
 10
0
 20
0
  9
$SNAPANG
 50
0
  9
$SNAPSTYLE
 70
0
  9
$SNAPISOPAIR
 70
0
  9
$GRIDMODE
 70
0
  9
$GRIDUNIT
 10
0
 20
0
  9
$ORTHOMODE
 70
0
  9
$REGENMODE
 70
1
  9
$FILLMODE
 70
1
  9
$QTEXTMODE
 70
0
  9
$DRAGMODE
 70
2
  9
$LTSCALE
 40
1
  9
$OSMODE
 70
0
  9
$ATTMODE
 70
1
  9
$TEXTSIZE
 40
3.5
  9
$TRACEWID
 40
0.5
  9
$TEXTSTYLE
  7
STANDARD
  9
$CLAYER
  8
0
  9
$CELTYPE
  6
BYLAYER
  9
$CECOLOR
 62
256
  9
$DIMSCALE
 40
1
  9
$DIMASZ
 40
0.18
  9
$DIMEXO
 40
0.0625
  9
$DIMDLI
 40
0.38
  9
$DIMRND
 40
0
  9
$DIMDLE
 40
0
  9
$DIMEXE
 40
0.18
  9
$DIMTP
 40
0
  9
$DIMTM
 40
0
  9
$DIMTXT
 40
0.18
  9
$DIMCEN
 40
0.09
  9
$DIMTSZ
 40
0
  9
$DIMTOL
 70
0
  9
$DIMLIM
 70
0
  9
$DIMTIH
 70
1
  9
$DIMTOH
 70
1
  9
$DIMSE1
 70
0
  9
$DIMSE2
 70
0
  9
$DIMTAD
 70
0
  9
$DIMZIN
 70
0
  9
$DIMBLK
  1

  9
$DIMASO
 70
1
  9
$DIMSHO
 70
1
  9
$DIMPOST
  1

  9
$DIMAPOST
  1

  9
$DIMALT
 70
0
  9
$DIMALTD
 70
2
  9
$DIMALTF
 40
25.4
  9
$DIMLFAC
 40
1
  9
$DIMTOFL
 70
0
  9
$DIMTVP
 40
0
  9
$DIMTIX
 70
0
  9
$DIMSOXD
 70
0
  9
$DIMSAH
 70
0
  9
$DIMBLK1
  1

  9
$DIMBLK2
  1

  9
$DIMSTYLE
  2
*UNNAMED
  9
$DIMCLRD
 70
0
  9
$DIMCLRE
 70
0
  9
$DIMCLRT
 70
0
  9
$DIMTFAC
 40
1
  9
$DIMGAP
 40
0.09
  9
$LUNITS
 70
2
  9
$LUPREC
 70
4
  9
$AXISMODE
 70
0
  9
$AXISUNIT
 10
0
 20
0
  9
$SKETCHINC
 40
0.1
  9
$FILLETRAD
 40
2
  9
$AUNITS
 70
0
  9
$AUPREC
 70
0
  9
$MENU
  1
ACAD
  9
$ELEVATION
 40
0
  9
$THICKNESS
 40
0
  9
$VIEWDIR
 10
0
 20
0
 30
1
  9
$LIMCHECK
 70
0
  9
$BLIPMODE
 70
1
  9
$CHAMFERA
 40
0
  9
$CHAMFERB
 40
0
  9
$FASTZOOM
 70
1
  9
$SKPOLY
 70
0
  9
$ANGBASE
 50
0
  9
$ANGDIR
 70
0
  9
$PDMODE
 70
0
  9
$PDSIZE
 40
0
  9
$PLINEWID
 40
0
  9
$COORDS
 70
2
  0
ENDSEC
  0
SECTION
  2
TABLES
  0
TABLE
  2
DIMSTYLE
 70
0
  0
ENDTAB
  0
TABLE
  2
LTYPE
 70
9
  0
LTYPE
  2
CONTINUOUS
 70
64
  3
Solid line
 72
65
 73
0
 40
0
  0
LTYPE
  2
BORDER
 70
64
  3
__ __ . __ __ .
 72
65
 73
6
 40
15.8594524388047
 49
4.53127212537277
 49
-2.265636062686385
 49
4.53127212537277
 49
-2.265636062686385
 49
0
 49
-2.265636062686385
  0
LTYPE
  2
CENTER
 70
64
  3
____ _ ____ _
 72
65
 73
4
 40
18.12508850149108
 49
11.32818031343193
 49
-2.265636062686385
 49
2.265636062686385
 49
-2.265636062686385
  0
LTYPE
  2
DASHDOT
 70
64
  3
__ . __ . __ .
 72
65
 73
4
 40
9.062544250745541
 49
4.53127212537277
 49
-2.265636062686385
 49
0
 49
-2.265636062686385
  0
LTYPE
  2
DASHED
 70
64
  3
__ __ __ __ __
 72
65
 73
2
 40
6.796908188059156
 49
4.53127212537277
 49
-2.265636062686385
  0
LTYPE
  2
DIVIDE
 70
64
  3
__ . . __ . . 
 72
65
 73
6
 40
11.32818031343193
 49
4.53127212537277
 49
-2.265636062686385
 49
0
 49
-2.265636062686385
 49
0
 49
-2.265636062686385
  0
LTYPE
  2
DOT
 70
64
  3
..............
 72
65
 73
4
 40
4.53127212537277
 49
0
 49
-2.265636062686385
 49
0
 49
-2.265636062686385
  0
LTYPE
  2
HIDDEN
 70
64
  3
_ _ _ _ _ _ _
 72
65
 73
2
 40
3.398454094029578
 49
2.265636062686385
 49
-1.132818031343193
  0
LTYPE
  2
PHANTOM
 70
64
  3
_____ _ _ _____ _ _ 
 72
65
 73
6
 40
22.65636062686385
 49
11.32818031343193
 49
-2.265636062686385
 49
2.265636062686385
 49
-2.265636062686385
 49
2.265636062686385
 49
-2.265636062686385
  0
ENDTAB
  0
TABLE
  2
LAYER
 70
3
  0
LAYER
  2
1
 70
0
 62
7
  6
CONTINUOUS
  0
LAYER
  2
0
 70
0
 62
7
  6
CONTINUOUS
  0
ENDTAB
  0
TABLE
  2
STYLE
 70
4
  0
STYLE
  2
STANDARD
 70
0
 40
0
 41
1
 50
0
 71
0
 42
3.5
  3
txt
  4

  0
STYLE
  2
SIMPLEX
 70
0
 40
0
 41
1
 50
0
 71
0
 42
3.5
  3
simplex
  4

  0
STYLE
  2
COMPLEX
 70
0
 40
0
 41
1
 50
0
 71
0
 42
3.5
  3
complex
  4

  0
STYLE
  2
ITALIC
 70
0
 40
0
 41
1
 50
0
 71
0
 42
3.5
  3
italic
  4

  0
ENDTAB
  0
TABLE
  2
VIEW
 70
0
  0
ENDTAB
  0
ENDSEC
  0
SECTION
  2
BLOCKS
  0
BLOCK
  8
0
  2
1
 70
0
 10
303.7591743728615
 20
34.45246559271332
 30
0
  0
ENDBLK
  8
0
  0
BLOCK
  8
0
  2
GI74421-02_____-10W
 70
0
 10
-199.9855301127004
 20
-255.0065145224606
 30
0
  0
ENDBLK
  8
0
  0
BLOCK
  8
0
  2
GI74421-18__-___6W
 70
0
 10
-58.31613400215764
 20
359.9570439024211
 30
0
  0
INSERT
  8
0
  2
GI74421-02_____-10W
 10
-199.9855301127004
 20
-255.0065145224606
 30
0
  0
ENDBLK
  8
0
  0
BLOCK
  8
0
  2
____6S5_5____11___I
 70
0
 10
97.97848686150751
 20
-22.07945328168586
 30
0
  0
INSERT
  8
0
  2
GI74421-18__-___6W
 10
-58.31613400215764
 20
359.9570439024211
 30
0
  0
ENDBLK
  8
0
  0
ENDSEC
  0
SECTION
  2
ENTITIES
  0
LINE
  8
1
 62
3
 10
316.3775318141689
 20
83.47608661350419
 30
0
 11
316.3775318141689
 21
71.15608661350419
 31
0
  0
LINE
  8
1
 62
3
 10
305.2775318141694
 20
79.0904362901255
 30
0
 11
305.2775318141694
 21
78.4560866135042
 31
0
  0
LINE
  8
1
 62
3
 10
305.2775318141694
 20
35.8560866135042
 30
0
 11
305.2775318141694
 21
35.2217369368829
 31
0
  0
LINE
  8
1
 62
3
 10
305.2775318141694
 20
35.8560866135042
 30
0
 11
311.2775318141693
 21
35.8560866135042
 31
0
  0
LINE
  8
1
 62
3
 10
305.2775318141694
 20
78.4560866135042
 30
0
 11
305.2775318141694
 21
35.8560866135042
 31
0
  0
LINE
  8
1
 62
3
 10
311.2775318141693
 20
78.4560866135042
 30
0
 11
305.2775318141694
 21
78.4560866135042
 31
0
  0
LINE
  8
1
 62
3
 10
311.2775318141693
 20
35.65608661350422
 30
0
 11
312.2775318141692
 21
35.65608661350422
 31
0
  0
LINE
  8
1
 62
3
 10
312.2775318141692
 20
35.65608661350422
 30
0
 11
312.2775318141692
 21
29.15608661350422
 31
0
  0
LINE
  8
1
 62
3
 10
312.2775318141692
 20
29.15608661350422
 30
0
 11
311.2775318141693
 21
29.15608661350422
 31
0
  0
LINE
  8
1
 62
3
 10
312.2775318141692
 20
78.6560866135042
 30
0
 11
311.2775318141693
 21
78.6560866135042
 31
0
  0
LINE
  8
1
 62
3
 10
312.2775318141692
 20
85.1560866135042
 30
0
 11
312.2775318141692
 21
78.6560866135042
 31
0
  0
LINE
  8
1
 62
3
 10
311.2775318141693
 20
85.1560866135042
 30
0
 11
312.2775318141692
 21
85.1560866135042
 31
0
  0
LINE
  8
1
 62
3
 10
312.8775318141695
 20
37.12941994683749
 30
0
 11
312.8775318141692
 21
37.6560866135042
 31
0
  0
LINE
  8
1
 62
3
 10
312.8775318141695
 20
77.18275328017091
 30
0
 11
312.8775318141692
 21
76.6560866135042
 31
0
  0
LINE
  8
1
 62
3
 10
315.3775318141692
 20
28.3060866135042
 30
0
 11
311.2775318141693
 21
28.3060866135042
 31
0
  0
LINE
  8
1
 62
3
 10
315.3775318141692
 20
86.00608661350421
 30
0
 11
311.2775318141693
 21
86.00608661350421
 31
0
  0
LINE
  8
1
 62
3
 10
312.8775318141692
 20
76.6560866135042
 30
0
 11
311.2775318141693
 21
76.6560866135042
 31
0
  0
LINE
  8
1
 62
3
 10
312.8775318141692
 20
71.15608661350419
 30
0
 11
312.8775318141692
 21
76.6560866135042
 31
0
  0
LINE
  8
1
 62
3
 10
312.8775318141692
 20
37.6560866135042
 30
0
 11
311.2775318141693
 21
37.6560866135042
 31
0
  0
LINE
  8
1
 62
3
 10
312.8775318141692
 20
43.1560866135042
 30
0
 11
312.8775318141692
 21
37.6560866135042
 31
0
  0
LINE
  8
1
 62
3
 10
312.8775318141695
 20
72.3294199468375
 30
0
 11
314.1764205203699
 21
72.3294199468375
 31
0
  0
LINE
  8
1
 62
3
 10
314.1764205203699
 20
77.18275328017091
 30
0
 11
312.8775318141695
 21
77.18275328017091
 31
0
  0
LINE
  8
1
 62
3
 10
314.7939851199188
 20
74.4419199468376
 30
0
 11
314.9456517865853
 21
74.44191994683771
 31
0
  0
LINE
  8
1
 62
3
 10
314.7939851199186
 20
75.07025328017102
 30
0
 11
314.7939851199188
 21
74.4419199468376
 31
0
  0
LINE
  8
1
 62
3
 10
314.9456517865853
 20
75.07025328017102
 30
0
 11
314.7939851199186
 21
75.07025328017102
 31
0
  0
LINE
  8
1
 62
3
 10
318.162099068904
 20
49.46471601649244
 30
0
 11
318.3775318141692
 21
49.6560866135042
 31
0
  0
LINE
  8
1
 62
3
 10
318.3775318141692
 20
46.6560866135042
 30
0
 11
318.162099068904
 21
46.8474572105162
 31
0
  0
LINE
  8
1
 62
3
 10
318.3775318141692
 20
49.6560866135042
 30
0
 11
318.3775318141692
 21
46.6560866135042
 31
0
  0
LINE
  8
1
 62
3
 10
318.162099068904
 20
71.15608661350419
 30
0
 11
317.662099068904
 21
71.15608661350419
 31
0
  0
LINE
  8
1
 62
3
 10
318.162099068904
 20
43.1560866135042
 30
0
 11
318.8775318141692
 21
43.1560866135042
 31
0
  0
LINE
  8
1
 62
3
 10
312.8775318141692
 20
71.15608661350419
 30
0
 11
312.8775318141692
 21
43.1560866135042
 31
0
  0
LINE
  8
1
 62
3
 10
318.8775318141692
 20
71.15608661350419
 30
0
 11
318.162099068904
 21
71.15608661350419
 31
0
  0
LINE
  8
1
 62
3
 10
318.8775318141692
 20
43.1560866135042
 30
0
 11
318.8775318141692
 21
71.15608661350419
 31
0
  0
LINE
  8
1
 62
3
 10
312.8775318141692
 20
43.1560866135042
 30
0
 11
317.662099068904
 21
43.1560866135042
 31
0
  0
LINE
  8
1
 62
3
 10
318.162099068904
 20
46.8474572105162
 30
0
 11
317.662099068904
 21
46.8474572105162
 31
0
  0
LINE
  8
1
 62
3
 10
318.162099068904
 20
49.46471601649244
 30
0
 11
317.662099068904
 21
49.46471601649243
 31
0
  0
LINE
  8
1
 62
3
 10
317.662099068904
 20
46.8474572105162
 30
0
 11
317.662099068904
 21
43.1560866135042
 31
0
  0
LINE
  8
1
 62
3
 10
317.662099068904
 20
43.1560866135042
 30
0
 11
318.162099068904
 21
43.1560866135042
 31
0
  0
LINE
  8
1
 62
3
 10
317.662099068904
 20
49.46471601649243
 30
0
 11
317.662099068904
 21
64.8474572105162
 31
0
  0
LINE
  8
1
 62
3
 10
317.662099068904
 20
71.15608661350419
 30
0
 11
312.8775318141692
 21
71.15608661350419
 31
0
  0
LINE
  8
1
 62
3
 10
318.162099068904
 20
67.4647160164923
 30
0
 11
318.3775318141692
 21
67.65608661350419
 31
0
  0
LINE
  8
1
 62
3
 10
318.3775318141692
 20
64.6560866135042
 30
0
 11
318.162099068904
 21
64.84745721051621
 31
0
  0
LINE
  8
1
 62
3
 10
318.3775318141692
 20
67.65608661350419
 30
0
 11
318.3775318141692
 21
64.6560866135042
 31
0
  0
LINE
  8
1
 62
3
 10
318.162099068904
 20
64.84745721051621
 30
0
 11
317.662099068904
 21
64.8474572105162
 31
0
  0
LINE
  8
1
 62
3
 10
318.162099068904
 20
67.4647160164923
 30
0
 11
317.662099068904
 21
67.4647160164923
 31
0
  0
LINE
  8
1
 62
3
 10
317.662099068904
 20
67.4647160164923
 30
0
 11
317.662099068904
 21
71.15608661350419
 31
0
  0
LINE
  8
1
 62
3
 10
315.3775318141692
 20
43.1560866135042
 30
0
 11
315.3775318141692
 21
38.28150052532762
 31
0
  0
LINE
  8
1
 62
3
 10
316.3775318141694
 20
42.5135616105358
 30
0
 11
316.3775318141694
 21
43.1560866135042
 31
0
  0
LINE
  8
1
 62
3
 10
315.3775318141692
 20
71.15608661350419
 30
0
 11
315.3775318141692
 21
84.1977211794843
 31
0
  0
LINE
  8
1
 62
2
 10
280.7888905453324
 20
61.15608661350422
 30
0
 11
280.7888905453324
 21
54.1560866135041
 31
0
  0
LINE
  8
1
 62
3
 10
280.2775318141686
 20
60.6560866135041
 30
0
 11
280.7888905453324
 21
61.15608661350422
 31
0
  0
LINE
  8
1
 62
3
 10
301.2775318141693
 20
61.15608661350412
 30
0
 11
280.7888905453324
 21
61.15608661350422
 31
0
  0
LINE
  8
1
 62
3
 10
318.0775318141696
 20
84.65608661350412
 30
0
 11
334.6775318141689
 21
84.6560866135042
 31
0
  0
LINE
  8
1
 62
3
 10
316.3775318141695
 20
29.4060866135042
 30
0
 11
317.6445191122774
 21
29.4060866135042
 31
0
  0
LINE
  8
1
 62
3
 10
316.3775318141695
 20
29.4060866135042
 30
0
 11
316.3775318141695
 21
29.85608661350422
 31
0
  0
LINE
  8
1
 62
3
 10
316.3775318141689
 20
83.47608661350419
 30
0
 11
316.3775318141696
 21
84.9060866135042
 31
0
  0
LINE
  8
1
 62
3
 10
316.3775318141696
 20
84.9060866135042
 30
0
 11
317.6445191122773
 21
84.9060866135042
 31
0
  0
LINE
  8
1
 62
3
 10
314.1764205203699
 20
41.9827532801709
 30
0
 11
312.8775318141695
 21
41.9827532801709
 31
0
  0
LINE
  8
1
 62
3
 10
312.8775318141695
 20
37.12941994683749
 30
0
 11
314.1764205203699
 21
37.12941994683749
 31
0
  0
LINE
  8
1
 62
3
 10
314.9456517865853
 20
39.87025328017069
 30
0
 11
314.7939851199188
 21
39.87025328017081
 31
0
  0
LINE
  8
1
 62
3
 10
314.7939851199188
 20
39.87025328017081
 30
0
 11
314.7939851199186
 21
39.24191994683739
 31
0
  0
LINE
  8
1
 62
3
 10
314.7939851199186
 20
39.24191994683739
 30
0
 11
314.9456517865853
 21
39.24191994683739
 31
0
  0
LINE
  8
1
 62
3
 10
336.8775318141689
 20
81.25608661350411
 30
0
 11
336.8775318141689
 21
64.6560866135042
 31
0
  0
LINE
  8
1
 62
3
 10
336.8775318141689
 20
82.4560866135041
 30
0
 11
336.8775318141689
 21
81.25608661350411
 31
0
  0
LINE
  8
1
 62
3
 10
334.6775318141689
 20
29.6560866135042
 30
0
 11
318.0775318141695
 21
29.65608661350412
 31
0
  0
LINE
  8
1
 62
3
 10
336.8775318141689
 20
51.1560866135042
 30
0
 11
336.8775318141689
 21
33.1560866135042
 31
0
  0
LINE
  8
1
 62
3
 10
336.8775318141689
 20
33.1560866135042
 30
0
 11
336.8775318141689
 21
31.8560866135041
 31
0
  0
LINE
  8
1
 62
3
 10
337.277531814169
 20
53.175789622625
 30
0
 11
337.277531814169
 21
51.175789622625
 31
0
  0
LINE
  8
1
 62
3
 10
337.277531814169
 20
61.175789622625
 30
0
 11
337.277531814169
 21
53.175789622625
 31
0
  0
LINE
  8
1
 62
3
 10
337.277531814169
 20
63.175789622625
 30
0
 11
337.277531814169
 21
61.175789622625
 31
0
  0
LINE
  8
1
 62
3
 10
336.8775318141689
 20
64.6560866135042
 30
0
 11
336.8775318141689
 21
63.1560866135042
 31
0
  0
LINE
  8
1
 62
3
 10
337.277531814169
 20
51.175789622625
 30
0
 11
336.8775318141689
 21
51.175789622625
 31
0
  0
LINE
  8
1
 62
3
 10
316.3775318141689
 20
29.6560866135042
 30
0
 11
316.3775318141689
 21
30.8560866135041
 31
0
  0
LINE
  8
1
 62
3
 10
316.3775318141695
 20
30.85608661350581
 30
0
 11
316.3775318141694
 21
42.5135616105358
 31
0
  0
LINE
  8
1
 62
3
 10
315.8775318141689
 20
83.47608661350419
 30
0
 11
315.8775318141689
 21
80.62610902750352
 31
0
  0
LINE
  8
1
 62
3
 10
315.8775318141689
 20
80.62610902750352
 30
0
 11
315.8775318141689
 21
71.15608661350419
 31
0
  0
LINE
  8
1
 62
3
 10
315.8775318141689
 20
30.8760866135042
 30
0
 11
316.3775318141695
 21
30.87608661350579
 31
0
  0
LINE
  8
1
 62
3
 10
315.8775318141689
 20
30.8760866135042
 30
0
 11
315.8775318141689
 21
33.7260641995049
 31
0
  0
LINE
  8
1
 62
3
 10
315.8775318141689
 20
33.7260641995049
 30
0
 11
315.8775318141689
 21
43.1560866135042
 31
0
  0
LINE
  8
1
 62
3
 10
316.3775318141689
 20
83.47608661350419
 30
0
 11
315.8775318141689
 21
83.47608661350419
 31
0
  0
LINE
  8
1
 62
3
 10
336.8775318141689
 20
63.1560866135042
 30
0
 11
336.8775318141689
 21
51.1560866135042
 31
0
  0
LINE
  8
1
 62
3
 10
336.8775318141689
 20
63.175789622625
 30
0
 11
337.277531814169
 21
63.175789622625
 31
0
  0
LINE
  8
1
 62
3
 10
304.2775318141693
 20
26.6560866135042
 30
0
 11
305.2775318141693
 21
26.6560866135044
 31
0
  0
LINE
  8
1
 62
3
 10
304.2775318141693
 20
30.1560866135042
 30
0
 11
304.2775318141693
 21
26.6560866135042
 31
0
  0
LINE
  8
1
 62
3
 10
304.2775318141693
 20
30.1560866135042
 30
0
 11
301.6275318141692
 21
30.1560866135042
 31
0
  0
LINE
  8
1
 62
3
 10
301.6275318141692
 20
30.1560866135042
 30
0
 11
301.2775318141693
 21
30.506086613504
 31
0
  0
LINE
  8
1
 62
3
 10
301.2775318141693
 20
33.1560866135042
 30
0
 11
301.2775318141693
 21
30.506086613504
 31
0
  0
LINE
  8
1
 62
3
 10
301.2775318141693
 20
53.1363836043838
 30
0
 11
301.2775318141693
 21
33.1560866135042
 31
0
  0
LINE
  8
1
 62
3
 10
301.2775318141693
 20
81.15608661350372
 30
0
 11
301.2775318141693
 21
53.1363836043838
 31
0
  0
LINE
  8
1
 62
3
 10
301.2775318141693
 20
83.80608661350389
 30
0
 11
301.2775318141693
 21
81.15608661350372
 31
0
  0
LINE
  8
1
 62
3
 10
301.6275318141692
 20
84.15608661350372
 30
0
 11
304.2775318141692
 21
84.15608661350372
 31
0
  0
LINE
  8
1
 62
3
 10
304.2775318141693
 20
87.6560866135044
 30
0
 11
304.2775318141692
 21
84.15608661350372
 31
0
  0
LINE
  8
1
 62
3
 10
311.2775318141693
 20
87.65608661350451
 30
0
 11
304.2775318141693
 21
87.6560866135044
 31
0
  0
LINE
  8
1
 62
3
 10
311.2775318141693
 20
84.1977211794843
 30
0
 11
311.2775318141693
 21
87.45679533721001
 31
0
  0
LINE
  8
1
 62
3
 10
311.2775318141693
 20
87.65608661350451
 30
0
 11
311.2775318141693
 21
84.1977211794843
 31
0
  0
LINE
  8
1
 62
3
 10
311.2775318141693
 20
44.1560866135044
 30
0
 11
311.2775318141693
 21
85.3310866135044
 31
0
  0
LINE
  8
1
 62
3
 10
315.3775318141692
 20
84.1977211794843
 30
0
 11
315.3775318141692
 21
86.00608661350421
 31
0
  0
LINE
  8
1
 62
3
 10
315.3775318141692
 20
38.28150052532762
 30
0
 11
315.3775318141692
 21
28.3060866135042
 31
0
  0
LINE
  8
1
 62
3
 10
301.6275318141692
 20
84.15608661350372
 30
0
 11
301.2775318141693
 21
83.80608661350389
 31
0
  0
LINE
  8
1
 62
3
 10
304.2775318141692
 20
84.15608661350372
 30
0
 11
304.2775318141693
 21
30.1560866135042
 31
0
  0
LINE
  8
1
 62
3
 10
305.2775318141693
 20
26.6560866135044
 30
0
 11
311.2775318141693
 21
26.6560866135044
 31
0
  0
LINE
  8
1
 62
3
 10
311.2775318141693
 20
26.6560866135044
 30
0
 11
311.2775318141693
 21
44.1560866135044
 31
0
  0
LINE
  8
1
 62
3
 10
280.7888905453324
 20
53.1560866135042
 30
0
 11
301.2775318141693
 21
53.1560866135042
 31
0
  0
LINE
  8
1
 62
3
 10
280.2775318141686
 20
60.6560866135041
 30
0
 11
280.2775318141686
 21
53.65608661350431
 31
0
  0
LINE
  8
1
 62
3
 10
280.7888905453324
 20
53.1560866135042
 30
0
 11
280.2775318141686
 21
53.65608661350431
 31
0
  0
LINE
  8
1
 62
2
 10
280.7888905453324
 20
60.15608661350431
 30
0
 11
280.7888905453324
 21
53.1560866135042
 31
0
  0
LINE
  8
1
 62
1
 10
275.2775318141689
 20
57.1560866135042
 30
0
 11
342.277531814169
 21
57.1560866135042
 31
0
  0
LINE
  8
1
 62
3
 10
430.6783343199712
 20
181.9278618289182
 30
0
 11
456.6783343199709
 21
181.9278618289182
 31
0
  0
LINE
  8
1
 62
3
 10
429.6783343199712
 20
192.9278618289182
 30
0
 11
429.6783343199712
 21
182.9278618289182
 31
0
  0
LINE
  8
1
 62
3
 10
456.6783343199709
 20
193.9278618289182
 30
0
 11
430.6783343199712
 21
193.9278618289182
 31
0
  0
LINE
  8
1
 62
3
 10
457.6783343199709
 20
182.9278618289182
 30
0
 11
457.6783343199709
 21
192.9278618289182
 31
0
  0
LINE
  8
1
 62
3
 10
468.9906653096977
 20
202.0675898413378
 30
0
 11
443.990665309696
 21
202.0675898413373
 31
0
  0
LINE
  8
1
 62
3
 10
413.490665309696
 20
196.5675898413374
 30
0
 11
413.490665309696
 21
146.4675898413376
 31
0
  0
LINE
  8
1
 62
3
 10
422.6906653096962
 20
135.9675898413376
 30
0
 11
422.6906653096957
 21
138.4675898413372
 31
0
  0
LINE
  8
1
 62
3
 10
462.5906653096961
 20
151.0450779279617
 30
0
 11
462.5906653096961
 21
151.4559552443879
 31
0
  0
LINE
  8
1
 62
3
 10
425.390665309696
 20
151.0450779279617
 30
0
 11
425.390665309696
 21
151.4559552443878
 31
0
  0
LINE
  8
1
 62
3
 10
469.490665309696
 20
141.4675898413372
 30
0
 11
469.448432777851
 21
141.4675898413376
 31
0
  0
LINE
  8
1
 62
3
 10
468.290665309696
 20
141.4675898413375
 30
0
 11
469.490665309696
 21
141.4675898413372
 31
0
  0
LINE
  8
1
 62
3
 10
418.990665309694
 20
141.467589841337
 30
0
 11
419.6906653096957
 21
141.4675898413372
 31
0
  0
LINE
  8
1
 62
3
 10
422.6906653096962
 20
135.9675898413376
 30
0
 11
422.6906653096962
 21
137.2675898413371
 31
0
  0
LINE
  8
1
 62
3
 10
463.290665309696
 20
133.9675898413376
 30
0
 11
424.690665309696
 21
133.9675898413376
 31
0
  0
LINE
  8
1
 62
3
 10
465.290665309696
 20
135.9675898413376
 30
0
 11
465.290665309696
 21
136.4175898413372
 31
0
  0
LINE
  8
1
 62
3
 10
474.490665309696
 20
146.4675898413376
 30
0
 11
474.490665309696
 21
196.5675898413374
 31
0
  0
LINE
  8
1
 62
3
 10
443.990665309696
 20
202.0675898413373
 30
0
 11
418.9906653096944
 21
202.067589841338
 31
0
  0
LINE
  8
1
 62
3
 10
425.390665309696
 20
143.7676034067868
 30
0
 11
425.390665309696
 21
150.9856358652399
 31
0
  0
LINE
  8
1
 62
3
 10
462.5906653096961
 20
143.7676034067868
 30
0
 11
462.5906653096961
 21
150.9856358652399
 31
0
  0
LINE
  8
1
 62
3
 10
465.290665309696
 20
138.4675898413375
 30
0
 11
465.290665309696
 21
135.9675898413376
 31
0
  0
LINE
  8
1
 62
3
 10
469.490665309696
 20
141.4675898413372
 30
0
 11
469.490665309698
 21
141.4675898413372
 31
0
  0
LINE
  8
1
 62
3
 10
469.490665309698
 20
141.4675898413372
 30
0
 11
469.490665309696
 21
141.4675898413372
 31
0
  0
LINE
  8
1
 62
1
 10
416.990665309696
 20
147.0175898413375
 30
0
 11
423.1680038881129
 21
147.0175898413375
 31
0
  0
LINE
  8
1
 62
1
 10
415.1607670639001
 20
147.0175898413375
 30
0
 11
416.990665309696
 21
147.0175898413375
 31
0
  0
LINE
  8
1
 62
1
 10
419.240665309696
 20
142.9238984212567
 30
0
 11
419.240665309696
 21
151.5525924318267
 31
0
  0
LINE
  8
1
 62
1
 10
415.1607670639001
 20
196.5175898413374
 30
0
 11
416.990665309696
 21
196.5175898413374
 31
0
  0
LINE
  8
1
 62
1
 10
416.990665309696
 20
196.5175898413374
 30
0
 11
423.1680038881129
 21
196.5175898413374
 31
0
  0
LINE
  8
1
 62
1
 10
419.240665309696
 20
192.4238984212566
 30
0
 11
419.240665309696
 21
201.0525924318264
 31
0
  0
LINE
  8
1
 62
1
 10
466.490665309696
 20
147.0175898413375
 30
0
 11
472.6680038881129
 21
147.0175898413375
 31
0
  0
LINE
  8
1
 62
1
 10
464.6607670639
 20
147.0175898413375
 30
0
 11
466.490665309696
 21
147.0175898413375
 31
0
  0
LINE
  8
1
 62
1
 10
468.740665309696
 20
142.9238984212567
 30
0
 11
468.740665309696
 21
151.5525924318267
 31
0
  0
LINE
  8
1
 62
1
 10
468.740665309696
 20
192.4238984212566
 30
0
 11
468.740665309696
 21
201.0525924318264
 31
0
  0
LINE
  8
1
 62
1
 10
466.490665309696
 20
196.5175898413376
 30
0
 11
472.6680038881129
 21
196.5175898413374
 31
0
  0
LINE
  8
1
 62
1
 10
464.6607670639
 20
196.5175898413374
 30
0
 11
466.490665309696
 21
196.5175898413376
 31
0
  0
LINE
  8
1
 62
3
 10
449.690665309696
 20
198.9186947912287
 30
0
 11
449.690665309696
 21
199.4313296463602
 31
0
  0
LINE
  8
1
 62
3
 10
438.2906653096963
 20
198.9186947912287
 30
0
 11
438.2906653096963
 21
199.4313296463603
 31
0
  0
LINE
  8
1
 62
1
 10
443.990665309696
 20
200.4494480610029
 30
0
 11
443.9906653096955
 21
194.9558571650635
 31
0
  0
LINE
  8
1
 62
3
 10
439.5906653096959
 20
200.7675898413375
 30
0
 11
448.390665309696
 21
200.7675898413375
 31
0
  0
LINE
  8
1
 62
3
 10
439.0906653096959
 20
200.2675898413375
 30
0
 11
439.0906653096959
 21
198.8092244073172
 31
0
  0
LINE
  8
1
 62
3
 10
448.890665309696
 20
200.2675898413375
 30
0
 11
448.890665309696
 21
198.8092244073172
 31
0
  0
LINE
  8
1
 62
1
 10
477.9319576126487
 20
171.7675898413375
 30
0
 11
409.291358119692
 21
171.7675898413375
 31
0
  0
LINE
  8
1
 62
1
 10
443.990665309696
 20
131.8636317362985
 30
0
 11
443.990665309696
 21
205.8958499470125
 31
0
  0
LINE
  8
1
 62
1
 10
471.9302806547431
 20
171.7675898413375
 30
0
 11
429.352381737227
 21
171.7675898413375
 31
0
  0
LINE
  8
1
 62
3
 10
425.4885124679288
 20
138.7929977377577
 30
0
 11
425.9284608151586
 21
138.3530493905279
 31
0
  0
LINE
  8
1
 62
3
 10
425.4885124679288
 20
137.7421819449171
 30
0
 11
425.9284608151586
 21
138.1821302921471
 31
0
  0
LINE
  8
1
 62
3
 10
426.9160747537855
 20
139.169744230774
 30
0
 11
426.4761264065556
 21
138.729795883544
 31
0
  0
LINE
  8
1
 62
3
 10
426.3007901443049
 20
138.7342130474144
 30
0
 11
425.8652589609451
 21
139.169744230774
 31
0
  0
LINE
  8
1
 62
3
 10
426.3052073081749
 20
138.729795883544
 30
0
 11
426.3007901443049
 21
138.7342130474144
 31
0
  0
LINE
  8
1
 62
3
 10
427.2928212468017
 20
137.7421819449171
 30
0
 11
426.8528728995718
 21
138.1821302921471
 31
0
  0
LINE
  8
1
 62
3
 10
427.2928212468017
 20
138.7929977377577
 30
0
 11
426.8528728995718
 21
138.3530493905279
 31
0
  0
LINE
  8
1
 62
3
 10
425.8652589609451
 20
137.365435451901
 30
0
 11
426.3052073081749
 21
137.805383799131
 31
0
  0
LINE
  8
1
 62
3
 10
426.9160747537855
 20
137.365435451901
 30
0
 11
426.4761264065556
 21
137.805383799131
 31
0
  0
LINE
  8
1
 62
3
 10
460.6885093725911
 20
138.7929977377577
 30
0
 11
461.1284577198209
 21
138.3530493905279
 31
0
  0
LINE
  8
1
 62
3
 10
460.6885093725911
 20
137.7421819449171
 30
0
 11
461.1284577198209
 21
138.1821302921471
 31
0
  0
LINE
  8
1
 62
3
 10
462.1160716584477
 20
139.169744230774
 30
0
 11
461.6761233112176
 21
138.729795883544
 31
0
  0
LINE
  8
1
 62
3
 10
461.500787048967
 20
138.7342130474144
 30
0
 11
461.0652558656073
 21
139.169744230774
 31
0
  0
LINE
  8
1
 62
3
 10
461.5052042128372
 20
138.729795883544
 30
0
 11
461.500787048967
 21
138.7342130474144
 31
0
  0
LINE
  8
1
 62
3
 10
462.4928181514638
 20
137.7421819449171
 30
0
 11
462.0528698042339
 21
138.1821302921471
 31
0
  0
LINE
  8
1
 62
3
 10
462.4928181514638
 20
138.7929977377577
 30
0
 11
462.0528698042339
 21
138.3530493905279
 31
0
  0
LINE
  8
1
 62
3
 10
461.0652558656073
 20
137.365435451901
 30
0
 11
461.5052042128372
 21
137.805383799131
 31
0
  0
LINE
  8
1
 62
3
 10
462.1160716584477
 20
137.365435451901
 30
0
 11
461.6761233112177
 21
137.805383799131
 31
0
  0
LINE
  8
1
 62
3
 10
429.990665309696
 20
133.9675898413372
 30
0
 11
429.990665309696
 21
143.9675898413372
 31
0
  0
LINE
  8
1
 62
3
 10
457.990665309696
 20
133.9675898413372
 30
0
 11
429.990665309696
 21
133.9675898413372
 31
0
  0
LINE
  8
1
 62
3
 10
457.990665309696
 20
143.9675898413372
 30
0
 11
457.990665309696
 21
133.9675898413372
 31
0
  0
LINE
  8
1
 62
3
 10
429.990665309696
 20
138.6358597904821
 30
0
 11
429.990665309696
 21
135.6675898413373
 31
0
  0
LINE
  8
1
 62
3
 10
457.990665309696
 20
135.6675898413373
 30
0
 11
457.990665309696
 21
138.6358597904821
 31
0
  0
LINE
  8
1
 62
3
 10
455.990665309696
 20
143.9675898413372
 30
0
 11
455.990665309696
 21
141.9675898413372
 31
0
  0
LINE
  8
1
 62
3
 10
455.990665309696
 20
143.9675898413372
 30
0
 11
457.990665309696
 21
143.9675898413372
 31
0
  0
LINE
  8
1
 62
3
 10
455.990665309696
 20
141.9675898413372
 30
0
 11
431.990665309696
 21
141.9675898413372
 31
0
  0
LINE
  8
1
 62
3
 10
429.990665309696
 20
143.9675898413372
 30
0
 11
431.990665309696
 21
143.9675898413372
 31
0
  0
LINE
  8
1
 62
3
 10
431.990665309696
 20
141.9675898413372
 30
0
 11
431.990665309696
 21
143.9675898413372
 31
0
  0
LINE
  8
1
 62
3
 10
457.9898469460521
 20
135.6675898413373
 30
0
 11
457.9898469460521
 21
138.6358597904821
 31
0
  0
LINE
  8
1
 62
3
 10
429.9898469460521
 20
138.6358597904821
 30
0
 11
429.9898469460521
 21
135.6675898413373
 31
0
  0
LINE
  8
1
 62
3
 10
457.9898469460521
 20
143.9675898413372
 30
0
 11
457.9898469460521
 21
133.9675898413372
 31
0
  0
LINE
  8
1
 62
3
 10
457.9898469460521
 20
133.9675898413372
 30
0
 11
429.9898469460521
 21
133.9675898413372
 31
0
  0
LINE
  8
1
 62
3
 10
429.9898469460521
 20
133.9675898413372
 30
0
 11
429.9898469460521
 21
143.9675898413372
 31
0
  0
LINE
  8
1
 62
3
 10
429.990665309696
 20
134.2675898413371
 30
0
 11
425.4906653096969
 21
134.2675898413371
 31
0
  0
LINE
  8
1
 62
3
 10
462.4906653096954
 20
134.2675898413371
 30
0
 11
457.990665309696
 21
134.2675898413371
 31
0
  0
LINE
  8
1
 62
3
 10
463.4906653096954
 20
135.2675898413371
 30
0
 11
463.4906653096954
 21
137.6675898413374
 31
0
  0
LINE
  8
1
 62
3
 10
424.4906653096969
 20
137.6675898413374
 30
0
 11
424.4906653096969
 21
135.2675898413371
 31
0
  0
LINE
  8
1
 62
3
 10
424.4906653096962
 20
141.2675410235739
 30
0
 11
424.4906653096967
 21
138.867603406784
 31
0
  0
LINE
  8
1
 62
3
 10
461.790665309696
 20
150.8208308872487
 30
0
 11
461.790665309696
 21
144.5675513561838
 31
0
  0
LINE
  8
1
 62
3
 10
426.190665309696
 20
150.8054811687826
 30
0
 11
426.190665309696
 21
144.5675513561838
 31
0
  0
LINE
  8
1
 62
3
 10
461.790665309696
 20
144.5675513561838
 30
0
 11
463.4906653096957
 21
141.2675410235739
 31
0
  0
LINE
  8
1
 62
3
 10
463.4906653096957
 20
138.8676034067872
 30
0
 11
463.4906653096957
 21
141.2675410235739
 31
0
  0
LINE
  8
1
 62
3
 10
424.4906653096962
 20
141.2675410235739
 30
0
 11
426.190665309696
 21
144.5675513561838
 31
0
  0
LINE
  8
1
 62
3
 10
318.0775318141696
 20
199.2675898413374
 30
0
 11
334.6775318141689
 21
199.2675898413375
 31
0
  0
LINE
  8
1
 62
3
 10
316.3775318141695
 20
144.0175898413375
 30
0
 11
317.6445191122774
 21
144.0175898413375
 31
0
  0
LINE
  8
1
 62
3
 10
316.3775318141695
 20
144.0175898413375
 30
0
 11
316.3775318141695
 21
144.4675898413375
 31
0
  0
LINE
  8
1
 62
3
 10
316.3775318141695
 20
199.0675898413374
 30
0
 11
316.3775318141696
 21
199.5175898413375
 31
0
  0
LINE
  8
1
 62
3
 10
316.3775318141696
 20
199.5175898413375
 30
0
 11
317.6445191122773
 21
199.5175898413375
 31
0
  0
LINE
  8
1
 62
3
 10
314.1764205203699
 20
140.6942340940048
 30
0
 11
312.8775318141695
 21
140.6942340940048
 31
0
  0
LINE
  8
1
 62
3
 10
312.8775318141695
 20
135.8409007606714
 30
0
 11
314.1764205203699
 21
135.8409007606714
 31
0
  0
LINE
  8
1
 62
3
 10
314.9456517865853
 20
138.5817340940046
 30
0
 11
314.7939851199188
 21
138.5817340940047
 31
0
  0
LINE
  8
1
 62
3
 10
314.7939851199188
 20
138.5817340940047
 30
0
 11
314.7939851199186
 21
137.9534007606713
 31
0
  0
LINE
  8
1
 62
3
 10
314.7939851199186
 20
137.9534007606713
 30
0
 11
314.9456517865853
 21
137.9534007606713
 31
0
  0
LINE
  8
1
 62
3
 10
315.5575318141694
 20
135.4189474076432
 30
0
 11
315.5575318141694
 21
139.2675674273383
 31
0
  0
LINE
  8
1
 62
3
 10
315.5575318141694
 20
139.2675674273383
 30
0
 11
314.8355511306166
 21
139.2675674273382
 31
0
  0
LINE
  8
1
 62
3
 10
315.8975318141696
 20
135.1189474076432
 30
0
 11
315.8575318141694
 21
135.1189474076432
 31
0
  0
LINE
  8
1
 62
3
 10
311.2775318141693
 20
199.7675898413378
 30
0
 11
312.2775318141692
 21
199.7675898413378
 31
0
  0
LINE
  8
1
 62
3
 10
311.2775318141693
 20
193.2675898413378
 30
0
 11
312.2775318141692
 21
193.2675898413378
 31
0
  0
LINE
  8
1
 62
3
 10
312.2775318141692
 20
199.7675898413378
 30
0
 11
312.2775318141692
 21
193.2675898413378
 31
0
  0
LINE
  8
1
 62
3
 10
311.2775318141693
 20
150.2675898413377
 30
0
 11
312.2775318141692
 21
150.2675898413377
 31
0
  0
LINE
  8
1
 62
3
 10
311.2775318141693
 20
143.7675898413377
 30
0
 11
312.2775318141692
 21
143.7675898413377
 31
0
  0
LINE
  8
1
 62
3
 10
312.2775318141692
 20
150.2675898413377
 30
0
 11
312.2775318141692
 21
143.7675898413377
 31
0
  0
LINE
  8
1
 62
3
 10
311.2775318141688
 20
133.7771144582882
 30
0
 11
311.2775318141688
 21
134.267567427338
 31
0
  0
LINE
  8
1
 62
1
 10
213.5354210752048
 20
171.7675898413379
 30
0
 11
142.5354210752047
 21
171.7675898413378
 31
0
  0
LINE
  8
1
 62
3
 10
175.3896697641401
 20
174.7675898413378
 30
0
 11
180.664688333284
 21
174.7675898413378
 31
0
  0
LINE
  8
1
 62
3
 10
176.2054210752047
 20
165.0675898413377
 30
0
 11
177.0354210752047
 21
165.0675898413377
 31
0
  0
LINE
  8
1
 62
3
 10
181.5354210752047
 20
166.7375898413378
 30
0
 11
181.5354210752047
 21
168.6307124130661
 31
0
  0
LINE
  8
1
 62
3
 10
176.2254210752048
 20
167.4553504941031
 30
0
 11
177.0354210752047
 21
167.4553504941031
 31
0
  0
LINE
  8
1
 62
3
 10
180.5354210752047
 20
166.7653504941031
 30
0
 11
180.5354210752047
 21
166.7575898413377
 31
0
  0
LINE
  8
1
 62
3
 10
179.8454210752048
 20
166.0675898413377
 30
0
 11
179.0354210752047
 21
166.0675898413377
 31
0
  0
LINE
  8
1
 62
3
 10
175.5354210752047
 20
166.7575898413377
 30
0
 11
175.5354210752047
 21
166.7653504941031
 31
0
  0
LINE
  8
1
 62
3
 10
174.5354210752047
 20
168.6307124130661
 30
0
 11
174.5354210752047
 21
166.7375898413378
 31
0
  0
LINE
  8
1
 62
3
 10
177.0354210752047
 20
167.8946064951303
 30
0
 11
177.0354210752047
 21
167.4553504941031
 31
0
  0
LINE
  8
1
 62
3
 10
179.0354210752047
 20
167.8946064951303
 30
0
 11
179.0354210752047
 21
167.4553504941031
 31
0
  0
LINE
  8
1
 62
3
 10
177.0354210752047
 20
166.0675898413377
 30
0
 11
177.0354210752047
 21
165.0675898413377
 31
0
  0
LINE
  8
1
 62
3
 10
179.0354210752047
 20
166.0675898413377
 30
0
 11
179.0354210752047
 21
165.0675898413377
 31
0
  0
LINE
  8
1
 62
3
 10
179.0354210752047
 20
167.4553504941031
 30
0
 11
179.8454210752048
 21
167.4553504941031
 31
0
  0
LINE
  8
1
 62
3
 10
177.0354210752047
 20
166.0675898413377
 30
0
 11
176.2254210752048
 21
166.0675898413377
 31
0
  0
LINE
  8
1
 62
3
 10
179.0354210752047
 20
165.0675898413377
 30
0
 11
179.8654210752048
 21
165.0675898413377
 31
0
  0
LINE
  8
1
 62
1
 10
156.1730396890297
 20
196.5175898413378
 30
0
 11
150.3552920732195
 21
196.5175898413378
 31
0
  0
LINE
  8
1
 62
1
 10
153.2854210752047
 20
193.3544824464768
 30
0
 11
153.2854210752047
 21
199.7969546384817
 31
0
  0
LINE
  8
1
 62
1
 10
205.9158973838125
 20
196.5175898413378
 30
0
 11
199.3392395588785
 21
196.5175898413378
 31
0
  0
LINE
  8
1
 62
1
 10
202.7854210752046
 20
193.3626354740549
 30
0
 11
202.7854210752046
 21
199.9801421053547
 31
0
  0
LINE
  8
1
 62
1
 10
153.2854210752047
 20
143.9260287912318
 30
0
 11
153.2854210752047
 21
150.2334959209759
 31
0
  0
LINE
  8
1
 62
1
 10
156.4723846078265
 20
147.0175898413378
 30
0
 11
149.9165920005337
 21
147.0175898413378
 31
0
  0
LINE
  8
1
 62
1
 10
206.1463023513664
 20
147.0175898413377
 30
0
 11
199.1405592063614
 21
147.0175898413377
 31
0
  0
LINE
  8
1
 62
1
 10
202.7854210752046
 20
143.6890072783278
 30
0
 11
202.7854210752046
 21
150.3260270999117
 31
0
  0
LINE
  8
1
 62
1
 10
178.0354210752047
 20
207.2675898413377
 30
0
 11
178.0354210752047
 21
128.767589841338
 31
0
  0
LINE
  8
1
 62
3
 10
203.0354210752063
 20
141.2675898413377
 30
0
 11
203.0354210752032
 21
141.2675898413377
 31
0
  0
LINE
  8
1
 62
3
 10
147.5354210752047
 20
196.7675898413383
 30
0
 11
147.5354210752047
 21
171.7675898413378
 31
0
  0
LINE
  8
1
 62
3
 10
178.0354210752047
 20
202.2675898413377
 30
0
 11
153.0354210752048
 21
202.2675898413382
 31
0
  0
LINE
  8
1
 62
3
 10
203.0354210752049
 20
202.2675898413379
 30
0
 11
178.0354210752047
 21
202.2675898413377
 31
0
  0
LINE
  8
1
 62
3
 10
208.5354210752048
 20
171.7675898413379
 30
0
 11
208.5354210752049
 21
196.7675898413379
 31
0
  0
LINE
  8
1
 62
3
 10
208.5354210752048
 20
146.7675898413378
 30
0
 11
208.5354210752048
 21
171.7675898413379
 31
0
  0
LINE
  8
1
 62
3
 10
147.5354210752047
 20
171.7675898413378
 30
0
 11
147.5354210752047
 21
146.7675898413379
 31
0
  0
LINE
  8
1
 62
3
 10
178.0354210752047
 20
141.2675898413378
 30
0
 11
202.984069681307
 21
141.2675898413378
 31
0
  0
LINE
  8
1
 62
3
 10
178.0354210752047
 20
141.2675898413378
 30
0
 11
153.0354210752045
 21
141.267589841338
 31
0
  0
LINE
  8
1
 62
3
 10
336.8775318141689
 20
195.8675898413374
 30
0
 11
336.8775318141689
 21
179.2675898413375
 31
0
  0
LINE
  8
1
 62
3
 10
336.8775318141689
 20
197.0675898413374
 30
0
 11
336.8775318141689
 21
195.8675898413374
 31
0
  0
LINE
  8
1
 62
3
 10
334.6775318141689
 20
144.2675898413375
 30
0
 11
318.0775318141695
 21
144.2675898413374
 31
0
  0
LINE
  8
1
 62
3
 10
336.8775318141689
 20
165.7675898413375
 30
0
 11
336.8775318141689
 21
147.7675898413375
 31
0
  0
LINE
  8
1
 62
3
 10
336.8775318141689
 20
147.7675898413375
 30
0
 11
336.8775318141689
 21
146.4675898413374
 31
0
  0
LINE
  8
1
 62
3
 10
337.277531814169
 20
167.7872928504583
 30
0
 11
337.277531814169
 21
165.7872928504583
 31
0
  0
LINE
  8
1
 62
3
 10
337.277531814169
 20
175.7872928504583
 30
0
 11
337.277531814169
 21
167.7872928504583
 31
0
  0
LINE
  8
1
 62
3
 10
337.277531814169
 20
177.7872928504583
 30
0
 11
337.277531814169
 21
175.7872928504583
 31
0
  0
LINE
  8
1
 62
3
 10
336.8775318141689
 20
179.2675898413375
 30
0
 11
336.8775318141689
 21
177.7675898413375
 31
0
  0
LINE
  8
1
 62
3
 10
337.277531814169
 20
165.7872928504583
 30
0
 11
336.8775318141689
 21
165.7872928504583
 31
0
  0
LINE
  8
1
 62
3
 10
316.3775318141689
 20
144.2675898413375
 30
0
 11
316.3775318141689
 21
145.4675898413374
 31
0
  0
LINE
  8
1
 62
3
 10
316.3775318141695
 20
145.4675898413391
 30
0
 11
316.3775318141689
 21
199.2675898413375
 31
0
  0
LINE
  8
1
 62
3
 10
315.8775318141689
 20
198.0875898413375
 30
0
 11
315.8775318141689
 21
195.2376122553368
 31
0
  0
LINE
  8
1
 62
3
 10
315.8775318141689
 20
195.2376122553368
 30
0
 11
315.8775318141689
 21
184.767589841338
 31
0
  0
LINE
  8
1
 62
3
 10
315.8775318141689
 20
145.4875898413375
 30
0
 11
316.3775318141695
 21
145.4875898413391
 31
0
  0
LINE
  8
1
 62
3
 10
315.8775318141689
 20
145.4875898413375
 30
0
 11
315.8775318141689
 21
148.3375674273382
 31
0
  0
LINE
  8
1
 62
3
 10
315.8775318141689
 20
148.3375674273382
 30
0
 11
315.8775318141689
 21
158.7675898413376
 31
0
  0
LINE
  8
1
 62
3
 10
316.3775318141689
 20
198.0875898413375
 30
0
 11
315.8775318141689
 21
198.0875898413375
 31
0
  0
LINE
  8
1
 62
3
 10
336.8775318141689
 20
177.7675898413375
 30
0
 11
336.8775318141689
 21
165.7675898413375
 31
0
  0
LINE
  8
1
 62
3
 10
336.8775318141689
 20
177.7872928504583
 30
0
 11
337.277531814169
 21
177.7872928504583
 31
0
  0
LINE
  8
1
 62
3
 10
318.8775318141692
 20
141.9675898413375
 30
0
 11
318.8775318141692
 21
138.9175898413376
 31
0
  0
LINE
  8
1
 62
3
 10
318.8775318141692
 20
143.9675898413375
 30
0
 11
318.8775318141692
 21
141.9675898413375
 31
0
  0
LINE
  8
1
 62
3
 10
312.8775318141692
 20
143.9675898413375
 30
0
 11
318.8775318141692
 21
143.9675898413375
 31
0
  0
LINE
  8
1
 62
3
 10
318.8775318141692
 20
138.9175898413376
 30
0
 11
318.8775318141692
 21
134.2675898413376
 31
0
  0
LINE
  8
1
 62
3
 10
318.8775318141692
 20
134.2675898413376
 30
0
 11
317.662099068904
 21
134.2675898413376
 31
0
  0
LINE
  8
1
 62
3
 10
317.662099068904
 20
134.2675898413376
 30
0
 11
317.662099068904
 21
138.9175898413376
 31
0
  0
LINE
  8
1
 62
3
 10
317.662099068904
 20
139.2675898413376
 30
0
 11
316.1975318141692
 21
139.2675898413376
 31
0
  0
LINE
  8
1
 62
3
 10
316.1975318141695
 20
135.4189698216425
 30
0
 11
316.1975318141692
 21
139.2675898413376
 31
0
  0
LINE
  8
1
 62
3
 10
315.5575318141691
 20
135.4189698216426
 30
0
 11
315.5575318141691
 21
139.2675898413376
 31
0
  0
LINE
  8
1
 62
3
 10
315.5575318141691
 20
139.2675898413376
 30
0
 11
314.8547046939842
 21
139.2675898413376
 31
0
  0
LINE
  8
1
 62
3
 10
316.1975318141692
 20
139.2675898413376
 30
0
 11
315.5575318141691
 21
139.2675898413376
 31
0
  0
LINE
  8
1
 62
3
 10
317.662099068904
 20
138.9175898413376
 30
0
 11
317.662099068904
 21
139.2675898413376
 31
0
  0
LINE
  8
1
 62
3
 10
315.8975318141693
 20
135.1189698216426
 30
0
 11
315.8575318141691
 21
135.1189698216426
 31
0
  0
LINE
  8
1
 62
3
 10
312.8775318141692
 20
141.9675898413375
 30
0
 11
312.8775318141692
 21
134.2675898413375
 31
0
  0
LINE
  8
1
 62
3
 10
312.8775318141692
 20
134.2675898413375
 30
0
 11
311.2775318141693
 21
134.2675898413375
 31
0
  0
LINE
  8
1
 62
3
 10
311.2775318141693
 20
134.2675898413375
 30
0
 11
311.2775318141693
 21
141.2675898413377
 31
0
  0
LINE
  8
1
 62
3
 10
311.2775318141688
 20
133.7771144582882
 30
0
 11
305.2775318141695
 21
133.7675898413378
 31
0
  0
LINE
  8
1
 62
3
 10
305.2775318141693
 20
141.2675898413377
 30
0
 11
305.2775318141695
 21
133.7675898413378
 31
0
  0
LINE
  8
1
 62
3
 10
304.2775318141693
 20
141.2675898413375
 30
0
 11
305.2775318141693
 21
141.2675898413377
 31
0
  0
LINE
  8
1
 62
3
 10
304.2775318141693
 20
144.7675898413375
 30
0
 11
304.2775318141693
 21
141.2675898413375
 31
0
  0
LINE
  8
1
 62
3
 10
304.2775318141693
 20
144.7675898413375
 30
0
 11
301.6275318141692
 21
144.7675898413375
 31
0
  0
LINE
  8
1
 62
3
 10
301.6275318141692
 20
144.7675898413375
 30
0
 11
301.2775318141693
 21
145.1175898413373
 31
0
  0
LINE
  8
1
 62
3
 10
301.2775318141693
 20
147.7675898413375
 30
0
 11
301.2775318141693
 21
145.1175898413373
 31
0
  0
LINE
  8
1
 62
3
 10
301.2775318141693
 20
167.7478868322171
 30
0
 11
301.2775318141693
 21
147.7675898413375
 31
0
  0
LINE
  8
1
 62
3
 10
301.2775318141693
 20
195.767589841337
 30
0
 11
301.2775318141693
 21
167.7478868322171
 31
0
  0
LINE
  8
1
 62
3
 10
301.2775318141693
 20
198.4175898413372
 30
0
 11
301.2775318141693
 21
195.767589841337
 31
0
  0
LINE
  8
1
 62
3
 10
301.6275318141692
 20
198.767589841337
 30
0
 11
304.2775318141692
 21
198.767589841337
 31
0
  0
LINE
  8
1
 62
3
 10
304.2775318141693
 20
202.2675898413377
 30
0
 11
304.2775318141692
 21
198.767589841337
 31
0
  0
LINE
  8
1
 62
3
 10
311.2775318141693
 20
202.2675898413378
 30
0
 11
304.2775318141693
 21
202.2675898413377
 31
0
  0
LINE
  8
1
 62
3
 10
311.2775318141693
 20
198.8092244073176
 30
0
 11
311.2775318141693
 21
202.0682985650433
 31
0
  0
LINE
  8
1
 62
3
 10
311.2775318141693
 20
202.2675898413378
 30
0
 11
311.2775318141693
 21
198.8092244073176
 31
0
  0
LINE
  8
1
 62
3
 10
311.2775318141693
 20
158.7675898413377
 30
0
 11
311.2775318141693
 21
200.7675898413377
 31
0
  0
LINE
  8
1
 62
3
 10
312.8775318141692
 20
200.7675898413377
 30
0
 11
311.2775318141693
 21
200.7675898413377
 31
0
  0
LINE
  8
1
 62
3
 10
312.8775318141692
 20
200.7675898413377
 30
0
 11
312.8775318141692
 21
200.3333035555091
 31
0
  0
LINE
  8
1
 62
3
 10
315.3775318141692
 20
198.8092244073176
 30
0
 11
315.3775318141692
 21
200.3333035555091
 31
0
  0
LINE
  8
1
 62
3
 10
315.3775318141692
 20
200.3333035555091
 30
0
 11
311.2775318141693
 21
200.3333035555091
 31
0
  0
LINE
  8
1
 62
3
 10
315.3775318141692
 20
160.7675898413377
 30
0
 11
315.3775318141692
 21
184.767589841338
 31
0
  0
LINE
  8
1
 62
3
 10
311.2775318141693
 20
150.4456732937893
 30
0
 11
315.3775318141692
 21
150.4456732937893
 31
0
  0
LINE
  8
1
 62
3
 10
315.3775318141692
 20
152.8930037531609
 30
0
 11
315.3775318141692
 21
150.4456732937893
 31
0
  0
LINE
  8
1
 62
3
 10
315.3775318141692
 20
160.7675898413377
 30
0
 11
315.3775318141692
 21
159.4675898413378
 31
0
  0
LINE
  8
1
 62
3
 10
312.8775318141692
 20
150.4456732937893
 30
0
 11
312.8775318141692
 21
141.9675898413375
 31
0
  0
LINE
  8
1
 62
3
 10
315.8775318141689
 20
184.767589841338
 30
0
 11
315.3775318141692
 21
184.767589841338
 31
0
  0
LINE
  8
1
 62
3
 10
315.8775318141689
 20
184.767589841338
 30
0
 11
315.8775318141689
 21
159.4675898413378
 31
0
  0
LINE
  8
1
 62
3
 10
315.3775318141692
 20
184.767589841338
 30
0
 11
315.3775318141692
 21
198.8092244073176
 31
0
  0
LINE
  8
1
 62
3
 10
315.8775318141689
 20
159.4675898413378
 30
0
 11
315.3775318141692
 21
159.4675898413378
 31
0
  0
LINE
  8
1
 62
3
 10
315.3775318141692
 20
159.4675898413378
 30
0
 11
315.3775318141692
 21
152.8930037531609
 31
0
  0
LINE
  8
1
 62
3
 10
315.8775318141689
 20
159.4675898413378
 30
0
 11
315.8775318141689
 21
158.7675898413376
 31
0
  0
LINE
  8
1
 62
3
 10
301.6275318141692
 20
198.767589841337
 30
0
 11
301.2775318141693
 21
198.4175898413372
 31
0
  0
LINE
  8
1
 62
3
 10
304.2775318141692
 20
198.767589841337
 30
0
 11
304.2775318141693
 21
144.7675898413375
 31
0
  0
LINE
  8
1
 62
3
 10
305.2775318141693
 20
141.2675898413377
 30
0
 11
311.2775318141693
 21
141.2675898413377
 31
0
  0
LINE
  8
1
 62
3
 10
311.2775318141693
 20
141.2675898413377
 30
0
 11
311.2775318141693
 21
158.7675898413377
 31
0
  0
LINE
  8
1
 62
3
 10
280.7888905453324
 20
167.7675898413375
 30
0
 11
301.2775318141693
 21
167.7675898413375
 31
0
  0
LINE
  8
1
 62
3
 10
301.2775318141693
 20
175.7675898413374
 30
0
 11
296.2775318141693
 21
175.7675898413374
 31
0
  0
LINE
  8
1
 62
3
 10
280.2775318141693
 20
174.7675898413376
 30
0
 11
280.2775318141686
 21
168.2675898413376
 31
0
  0
LINE
  8
1
 62
3
 10
280.7888905453324
 20
167.7675898413375
 30
0
 11
280.2775318141686
 21
168.2675898413376
 31
0
  0
LINE
  8
1
 62
3
 10
280.7888905453324
 20
174.7675898413376
 30
0
 11
280.2775318141693
 21
174.7675898413376
 31
0
  0
LINE
  8
1
 62
2
 10
280.7888905453324
 20
174.7675898413376
 30
0
 11
280.7888905453324
 21
167.7675898413375
 31
0
  0
LINE
  8
1
 62
3
 10
296.2775318141693
 20
174.7675898413375
 30
0
 11
280.7888905453324
 21
174.7675898413376
 31
0
  0
LINE
  8
1
 62
1
 10
275.2775318141689
 20
171.7675898413375
 30
0
 11
342.277531814169
 21
171.7675898413375
 31
0
  0
LINE
  8
1
 62
3
 10
199.535421075205
 20
135.7675898413381
 30
0
 11
199.5354210752049
 21
137.4175898413375
 31
0
  0
LINE
  8
1
 62
3
 10
199.535421075205
 20
138.2675898413376
 30
0
 11
199.535421075205
 21
135.7675898413381
 31
0
  0
LINE
  8
1
 62
3
 10
197.5354210752047
 20
133.767589841338
 30
0
 11
158.5354210752045
 21
133.7675898413381
 31
0
  0
LINE
  8
1
 62
3
 10
156.5354210752047
 20
135.767589841338
 30
0
 11
156.5354210752047
 21
138.2675898413378
 31
0
  0
LINE
  8
1
 62
3
 10
296.2775318141693
 20
174.7675898413375
 30
0
 11
296.2775318141693
 21
175.7675898413374
 31
0
  0
LINE
  8
1
 62
3
 10
351.3099549497616
 20
270.3904375283049
 30
0
 11
351.3099549497616
 21
278.8027814250403
 31
0
  0
LINE
  8
1
 62
3
 10
351.3099549497616
 20
267.8904375283049
 30
0
 11
351.3099549497616
 21
278.8027814250403
 31
0
  0
LINE
  8
1
 62
3
 10
351.3099549497616
 20
278.8027814250403
 30
0
 11
351.3099549497616
 21
279.917911002622
 31
0
  0
LINE
  8
1
 62
3
 10
351.3099549497616
 20
278.8027814250403
 30
0
 11
351.3099549497616
 21
279.917911002622
 31
0
  0
LINE
  8
1
 62
3
 10
351.3099549497616
 20
279.917911002622
 30
0
 11
351.3099549497616
 21
293.3904375283049
 31
0
  0
LINE
  8
1
 62
3
 10
351.3099549497616
 20
279.917911002622
 30
0
 11
351.3099549497616
 21
290.8904375283049
 31
0
  0
LINE
  8
1
 62
3
 10
351.3099549497616
 20
289.8904375283049
 30
0
 11
351.3099549497616
 21
288.8904375283049
 31
0
  0
LINE
  8
1
 62
3
 10
351.3099549497616
 20
294.8904375283049
 30
0
 11
351.3099549497616
 21
293.8904375283049
 31
0
  0
LINE
  8
1
 62
3
 10
351.3099549497616
 20
295.8904375283049
 30
0
 11
351.3099549497616
 21
287.840437528305
 31
0
  0
LINE
  8
1
 62
3
 10
273.8956758130718
 20
281.2753079507234
 30
0
 11
273.8956758130718
 21
270.3904375283049
 31
0
  0
LINE
  8
1
 62
3
 10
273.8956758130718
 20
281.2753079507234
 30
0
 11
273.8956758130718
 21
270.3904375283049
 31
0
  0
LINE
  8
1
 62
3
 10
273.8956758130718
 20
282.3904375283049
 30
0
 11
273.8956758130718
 21
281.2753079507234
 31
0
  0
LINE
  8
1
 62
3
 10
273.8956758130718
 20
282.3904375283049
 30
0
 11
273.8956758130718
 21
281.2753079507234
 31
0
  0
LINE
  8
1
 62
3
 10
351.3099549497616
 20
270.3904375283049
 30
0
 11
351.3099549497616
 21
293.3904375283049
 31
0
  0
LINE
  8
1
 62
3
 10
351.3099549497616
 20
267.8904375283049
 30
0
 11
351.3099549497616
 21
290.8904375283049
 31
0
  0
LINE
  8
1
 62
3
 10
351.3099549497616
 20
294.8904375283049
 30
0
 11
351.3099549497616
 21
293.8904375283049
 31
0
  0
LINE
  8
1
 62
3
 10
351.3099549497616
 20
295.8904375283049
 30
0
 11
351.3099549497616
 21
287.840437528305
 31
0
  0
LINE
  8
1
 62
3
 10
331.3099549497616
 20
281.3904375283049
 30
0
 11
311.9953426630841
 21
281.3441952272868
 31
0
  0
LINE
  8
1
 62
3
 10
273.8956758130718
 20
293.3904375283049
 30
0
 11
273.8956758130718
 21
282.3904375283049
 31
0
  0
LINE
  8
1
 62
3
 10
331.3099549497616
 20
282.3904375283049
 30
0
 11
311.2923375300221
 21
282.3904375283049
 31
0
  0
LINE
  8
1
 62
3
 10
273.8956758130718
 20
290.8904375283049
 30
0
 11
273.8956758130718
 21
282.3904375283049
 31
0
  0
LINE
  8
1
 62
3
 10
273.8956758130718
 20
288.8904375283049
 30
0
 11
273.8956758130718
 21
289.8904375283049
 31
0
  0
LINE
  8
1
 62
3
 10
273.8956758130718
 20
291.3904375283049
 30
0
 11
273.8956758130718
 21
292.3904375283049
 31
0
  0
LINE
  8
1
 62
3
 10
273.8956758130718
 20
287.840437528305
 30
0
 11
273.8956758130718
 21
293.3904375283049
 31
0
  0
LINE
  8
1
 62
3
 10
270.1485054958528
 20
291.3904375283049
 30
0
 11
265.9956758130717
 21
291.3904375283049
 31
0
  0
LINE
  8
1
 62
3
 10
270.1485054958528
 20
292.3904375283049
 30
0
 11
270.1485054958528
 21
291.3904375283049
 31
0
  0
LINE
  8
1
 62
3
 10
265.9956758130717
 20
292.3904375283049
 30
0
 11
265.9956758130717
 21
291.3904375283049
 31
0
  0
LINE
  8
1
 62
3
 10
265.9956758130717
 20
292.3904375283049
 30
0
 11
270.1485054958528
 21
292.3904375283049
 31
0
  0
LINE
  8
1
 62
3
 10
270.1485054958528
 20
288.8904375283049
 30
0
 11
265.9956758130717
 21
288.8904375283049
 31
0
  0
LINE
  8
1
 62
3
 10
270.1485054958528
 20
289.8904375283049
 30
0
 11
270.1485054958528
 21
288.8904375283049
 31
0
  0
LINE
  8
1
 62
3
 10
265.9956758130717
 20
289.8904375283049
 30
0
 11
265.9956758130717
 21
288.8904375283049
 31
0
  0
LINE
  8
1
 62
3
 10
265.9956758130717
 20
289.8904375283049
 30
0
 11
270.1485054958528
 21
289.8904375283049
 31
0
  0
LINE
  8
1
 62
3
 10
270.1485054958528
 20
286.3904375283049
 30
0
 11
265.9956758130717
 21
286.3904375283049
 31
0
  0
LINE
  8
1
 62
3
 10
270.1485054958528
 20
287.3904375283049
 30
0
 11
270.1485054958528
 21
286.3904375283049
 31
0
  0
LINE
  8
1
 62
3
 10
265.9956758130717
 20
287.3904375283049
 30
0
 11
265.9956758130717
 21
286.3904375283049
 31
0
  0
LINE
  8
1
 62
3
 10
265.9956758130717
 20
287.3904375283049
 30
0
 11
270.1485054958528
 21
287.3904375283049
 31
0
  0
LINE
  8
1
 62
3
 10
270.1485054958528
 20
283.8904375283049
 30
0
 11
265.9956758130717
 21
283.8904375283049
 31
0
  0
LINE
  8
1
 62
3
 10
270.1485054958528
 20
284.8904375283049
 30
0
 11
270.1485054958528
 21
283.8904375283049
 31
0
  0
LINE
  8
1
 62
3
 10
265.9956758130717
 20
284.8904375283049
 30
0
 11
265.9956758130717
 21
283.8904375283049
 31
0
  0
LINE
  8
1
 62
3
 10
265.9956758130717
 20
284.8904375283049
 30
0
 11
270.1485054958528
 21
284.8904375283049
 31
0
  0
LINE
  8
1
 62
3
 10
270.1485054958528
 20
281.3904375283049
 30
0
 11
265.9956758130717
 21
281.3904375283049
 31
0
  0
LINE
  8
1
 62
3
 10
270.1485054958528
 20
282.3904375283049
 30
0
 11
270.1485054958528
 21
281.3904375283049
 31
0
  0
LINE
  8
1
 62
3
 10
265.9956758130717
 20
282.3904375283049
 30
0
 11
265.9956758130717
 21
281.3904375283049
 31
0
  0
LINE
  8
1
 62
3
 10
265.9956758130717
 20
282.3904375283049
 30
0
 11
270.1485054958528
 21
282.3904375283049
 31
0
  0
LINE
  8
1
 62
3
 10
270.1485054958528
 20
278.8904375283049
 30
0
 11
265.9956758130717
 21
278.8904375283049
 31
0
  0
LINE
  8
1
 62
3
 10
270.1485054958528
 20
279.8904375283049
 30
0
 11
270.1485054958528
 21
278.8904375283049
 31
0
  0
LINE
  8
1
 62
3
 10
265.9956758130717
 20
279.8904375283049
 30
0
 11
265.9956758130717
 21
278.8904375283049
 31
0
  0
LINE
  8
1
 62
3
 10
265.9956758130717
 20
279.8904375283049
 30
0
 11
270.1485054958528
 21
279.8904375283049
 31
0
  0
LINE
  8
1
 62
3
 10
270.1485054958528
 20
276.3904375283049
 30
0
 11
265.9956758130717
 21
276.3904375283049
 31
0
  0
LINE
  8
1
 62
3
 10
270.1485054958528
 20
277.3904375283049
 30
0
 11
270.1485054958528
 21
276.3904375283049
 31
0
  0
LINE
  8
1
 62
3
 10
265.9956758130717
 20
277.3904375283049
 30
0
 11
265.9956758130717
 21
276.3904375283049
 31
0
  0
LINE
  8
1
 62
3
 10
265.9956758130717
 20
277.3904375283049
 30
0
 11
270.1485054958528
 21
277.3904375283049
 31
0
  0
LINE
  8
1
 62
3
 10
270.1485054958528
 20
273.8904375283049
 30
0
 11
265.9956758130717
 21
273.8904375283049
 31
0
  0
LINE
  8
1
 62
3
 10
270.1485054958528
 20
274.8904375283049
 30
0
 11
270.1485054958528
 21
273.8904375283049
 31
0
  0
LINE
  8
1
 62
3
 10
265.9956758130717
 20
274.8904375283049
 30
0
 11
265.9956758130717
 21
273.8904375283049
 31
0
  0
LINE
  8
1
 62
3
 10
265.9956758130717
 20
274.8904375283049
 30
0
 11
270.1485054958528
 21
274.8904375283049
 31
0
  0
LINE
  8
1
 62
3
 10
270.1485054958528
 20
271.3904375283049
 30
0
 11
265.9956758130717
 21
271.3904375283049
 31
0
  0
LINE
  8
1
 62
3
 10
270.1485054958528
 20
272.3904375283049
 30
0
 11
270.1485054958528
 21
271.3904375283049
 31
0
  0
LINE
  8
1
 62
3
 10
265.9956758130717
 20
272.3904375283049
 30
0
 11
265.9956758130717
 21
271.3904375283049
 31
0
  0
LINE
  8
1
 62
3
 10
265.9956758130717
 20
272.3904375283049
 30
0
 11
270.1485054958528
 21
272.3904375283049
 31
0
  0
LINE
  8
1
 62
3
 10
354.4652902787227
 20
289.840437528305
 30
0
 11
353.9045720502228
 21
289.840437528305
 31
0
  0
LINE
  8
1
 62
3
 10
354.4652902787227
 20
287.840437528305
 30
0
 11
359.2099549497617
 21
287.840437528305
 31
0
  0
LINE
  8
1
 62
3
 10
354.4652902787227
 20
287.840437528305
 30
0
 11
354.4652902787227
 21
289.840437528305
 31
0
  0
LINE
  8
1
 62
3
 10
354.4652902787227
 20
275.9404375283049
 30
0
 11
353.9045720502228
 21
275.9404375283049
 31
0
  0
LINE
  8
1
 62
3
 10
354.4652902787227
 20
273.9404375283049
 30
0
 11
359.2099549497617
 21
273.9404375283049
 31
0
  0
LINE
  8
1
 62
3
 10
354.4652902787227
 20
273.9404375283049
 30
0
 11
354.4652902787227
 21
275.9404375283049
 31
0
  0
LINE
  8
1
 62
3
 10
355.8110140271217
 20
295.8904375283049
 30
0
 11
355.3624394443218
 21
295.8904375283049
 31
0
  0
LINE
  8
1
 62
3
 10
355.8110140271217
 20
292.8904375283049
 30
0
 11
355.3624394443218
 21
292.8904375283049
 31
0
  0
LINE
  8
1
 62
3
 10
355.8110140271217
 20
292.8904375283049
 30
0
 11
355.8110140271217
 21
295.8904375283049
 31
0
  0
LINE
  8
1
 62
3
 10
357.0819753450546
 20
292.8904375283049
 30
0
 11
355.8110140271217
 21
292.8904375283049
 31
0
  0
LINE
  8
1
 62
3
 10
357.0819753450546
 20
295.8904375283049
 30
0
 11
355.8110140271217
 21
295.8904375283049
 31
0
  0
LINE
  8
1
 62
3
 10
357.0819753450546
 20
295.8904375283049
 30
0
 11
357.0819753450546
 21
292.8904375283049
 31
0
  0
LINE
  8
1
 62
3
 10
355.8110140271217
 20
270.8904375283049
 30
0
 11
355.3624394443218
 21
270.8904375283049
 31
0
  0
LINE
  8
1
 62
3
 10
355.8110140271217
 20
267.8904375283049
 30
0
 11
357.0819753450546
 21
267.8904375283049
 31
0
  0
LINE
  8
1
 62
3
 10
355.8110140271217
 20
267.8904375283049
 30
0
 11
355.8110140271217
 21
270.8904375283049
 31
0
  0
LINE
  8
1
 62
3
 10
357.0819753450546
 20
267.8904375283049
 30
0
 11
358.0912681563548
 21
267.8904375283049
 31
0
  0
LINE
  8
1
 62
3
 10
357.0819753450546
 20
270.8904375283049
 30
0
 11
355.8110140271217
 21
270.8904375283049
 31
0
  0
LINE
  8
1
 62
3
 10
357.0819753450546
 20
270.8904375283049
 30
0
 11
357.0819753450546
 21
267.8904375283049
 31
0
  0
LINE
  8
1
 62
3
 10
355.3624394443218
 20
295.8904375283049
 30
0
 11
351.3099549497616
 21
295.8904375283049
 31
0
  0
LINE
  8
1
 62
3
 10
355.3624394443218
 20
292.8904375283049
 30
0
 11
355.3624394443218
 21
295.8904375283049
 31
0
  0
LINE
  8
1
 62
3
 10
358.0912681563548
 20
292.8904375283049
 30
0
 11
357.0819753450546
 21
292.8904375283049
 31
0
  0
LINE
  8
1
 62
3
 10
358.0912681563548
 20
295.8904375283049
 30
0
 11
357.0819753450546
 21
295.8904375283049
 31
0
  0
LINE
  8
1
 62
3
 10
358.0912681563548
 20
295.8904375283049
 30
0
 11
358.0912681563548
 21
292.8904375283049
 31
0
  0
LINE
  8
1
 62
3
 10
355.3624394443218
 20
267.8904375283049
 30
0
 11
355.8110140271217
 21
267.8904375283049
 31
0
  0
LINE
  8
1
 62
3
 10
355.3624394443218
 20
270.8904375283049
 30
0
 11
355.3624394443218
 21
267.8904375283049
 31
0
  0
LINE
  8
1
 62
3
 10
358.0912681563548
 20
270.8904375283049
 30
0
 11
357.0819753450546
 21
270.8904375283049
 31
0
  0
LINE
  8
1
 62
3
 10
358.0912681563548
 20
267.8904375283049
 30
0
 11
359.2099549497617
 21
267.8904375283049
 31
0
  0
LINE
  8
1
 62
3
 10
358.0912681563548
 20
267.8904375283049
 30
0
 11
358.0912681563548
 21
270.8904375283049
 31
0
  0
LINE
  8
1
 62
3
 10
359.2099549497617
 20
273.9404375283049
 30
0
 11
359.2099549497617
 21
275.9404375283049
 31
0
  0
LINE
  8
1
 62
3
 10
353.9045720502228
 20
273.9404375283049
 30
0
 11
354.4652902787227
 21
273.9404375283049
 31
0
  0
LINE
  8
1
 62
3
 10
353.9045720502228
 20
275.9404375283049
 30
0
 11
353.9045720502228
 21
273.9404375283049
 31
0
  0
LINE
  8
1
 62
3
 10
359.2099549497617
 20
275.9404375283049
 30
0
 11
354.4652902787227
 21
275.9404375283049
 31
0
  0
LINE
  8
1
 62
3
 10
359.2099549497617
 20
275.9404375283049
 30
0
 11
359.2099549497617
 21
287.840437528305
 31
0
  0
LINE
  8
1
 62
3
 10
359.2099549497617
 20
287.840437528305
 30
0
 11
359.2099549497617
 21
275.9404375283049
 31
0
  0
LINE
  8
1
 62
3
 10
359.2099549497617
 20
287.840437528305
 30
0
 11
359.2099549497617
 21
289.840437528305
 31
0
  0
LINE
  8
1
 62
3
 10
353.9045720502228
 20
287.840437528305
 30
0
 11
354.4652902787227
 21
287.840437528305
 31
0
  0
LINE
  8
1
 62
3
 10
353.9045720502228
 20
289.840437528305
 30
0
 11
353.9045720502228
 21
287.840437528305
 31
0
  0
LINE
  8
1
 62
3
 10
359.2099549497617
 20
289.840437528305
 30
0
 11
359.2099549497617
 21
295.8904375283049
 31
0
  0
LINE
  8
1
 62
3
 10
359.2099549497617
 20
289.840437528305
 30
0
 11
354.4652902787227
 21
289.840437528305
 31
0
  0
LINE
  8
1
 62
3
 10
359.2099549497617
 20
295.8904375283049
 30
0
 11
358.0912681563548
 21
295.8904375283049
 31
0
  0
LINE
  8
1
 62
3
 10
359.2099549497617
 20
267.8904375283049
 30
0
 11
359.2099549497617
 21
273.9404375283049
 31
0
  0
LINE
  8
1
 62
3
 10
351.3099549497616
 20
267.8904375283049
 30
0
 11
355.3624394443218
 21
267.8904375283049
 31
0
  0
LINE
  8
1
 62
3
 10
351.3099549497616
 20
295.8904375283049
 30
0
 11
351.3099549497616
 21
267.8904375283049
 31
0
  0
LINE
  8
1
 62
3
 10
273.8956758130718
 20
293.3904375283049
 30
0
 11
265.9956758130717
 21
293.3904375283049
 31
0
  0
LINE
  8
1
 62
3
 10
265.9956758130717
 20
270.3904375283049
 30
0
 11
273.8956758130718
 21
270.3904375283049
 31
0
  0
LINE
  8
1
 62
3
 10
265.9956758130717
 20
293.3904375283049
 30
0
 11
265.9956758130717
 21
270.3904375283049
 31
0
  0
LINE
  8
1
 62
3
 10
331.3099549497616
 20
277.3904375283049
 30
0
 11
312.1387945288419
 21
277.3904375283049
 31
0
  0
LINE
  8
1
 62
3
 10
331.3099549497616
 20
278.3904375283049
 30
0
 11
312.6640254343847
 21
278.3904375283049
 31
0
  0
LINE
  8
1
 62
3
 10
331.3099549497616
 20
279.3904375283049
 30
0
 11
312.8923975071529
 21
279.3904375283049
 31
0
  0
LINE
  8
1
 62
3
 10
331.3099549497616
 20
280.3904375283049
 30
0
 11
312.5996959957974
 21
280.3904375283049
 31
0
  0
LINE
  8
1
 62
3
 10
331.3099549497616
 20
283.3904375283049
 30
0
 11
310.9186754210999
 21
283.3904375283049
 31
0
  0
LINE
  8
1
 62
3
 10
331.3099549497616
 20
284.3904375283049
 30
0
 11
311.0794280914978
 21
284.3904375283049
 31
0
  0
LINE
  8
1
 62
3
 10
331.3099549497616
 20
285.3904375283049
 30
0
 11
311.6508832065774
 21
285.3904375283049
 31
0
  0
LINE
  8
1
 62
3
 10
331.3099549497616
 20
286.3904375283049
 30
0
 11
312.4258813777219
 21
286.3904375283049
 31
0
  0
LINE
  8
1
 62
3
 10
311.564620831081
 20
286.3904375283049
 30
0
 11
293.8956758130717
 21
286.3904375283049
 31
0
  0
LINE
  8
1
 62
3
 10
311.313419838311
 20
277.3904375283049
 30
0
 11
293.8956758130717
 21
277.3904375283049
 31
0
  0
LINE
  8
1
 62
3
 10
310.9687945738098
 20
285.3904375283049
 30
0
 11
293.8956758130717
 21
285.3904375283049
 31
0
  0
LINE
  8
1
 62
3
 10
310.4779647904472
 20
284.3904375283049
 30
0
 11
293.8956758130717
 21
284.3904375283049
 31
0
  0
LINE
  8
1
 62
3
 10
310.2093018687394
 20
283.3904375283049
 30
0
 11
293.8956758130717
 21
283.3904375283049
 31
0
  0
LINE
  8
1
 62
3
 10
310.3086158672289
 20
282.3904375283049
 30
0
 11
290.2221227566428
 21
282.3904375283049
 31
0
  0
LINE
  8
1
 62
3
 10
310.9056532646588
 20
281.341586334888
 30
0
 11
289.2000025053719
 21
281.2896195016268
 31
0
  0
LINE
  8
1
 62
3
 10
311.5741000973204
 20
280.3904375283049
 30
0
 11
293.8956758130717
 21
280.3904375283049
 31
0
  0
LINE
  8
1
 62
3
 10
311.9593652482919
 20
279.3904375283049
 30
0
 11
293.8956758130717
 21
279.3904375283049
 31
0
  0
LINE
  8
1
 62
3
 10
311.7862562656868
 20
278.3904375283049
 30
0
 11
293.8956758130717
 21
278.3904375283049
 31
0
  0
LINE
  8
1
 62
3
 10
315.3775318141692
 20
74.75608661350421
 30
0
 11
314.7939851199187
 21
74.75608661350421
 31
0
  0
LINE
  8
1
 62
3
 10
315.3775318141692
 20
39.5560866135042
 30
0
 11
314.7939851199187
 21
39.5560866135042
 31
0
  0
ARC
  8
1
 62
3
 10
310.7975318141693
 20
74.7560866135041
 30
0
 40
4.160000000000133
 50
4.331148730792145
 51
17.58277600842675
  0
ARC
  8
1
 62
3
 10
310.7975318141693
 20
74.7560866135041
 30
0
 40
4.160000000000084
 50
324.3146652873501
 51
342.417223991579
  0
ARC
  8
1
 62
3
 10
310.7975318141693
 20
74.7560866135041
 30
0
 40
4.160000000000133
 50
342.417223991579
 51
355.6688512692153
  0
ARC
  8
1
 62
3
 10
310.7975318141693
 20
74.7560866135041
 30
0
 40
4.160000000000144
 50
17.58277600842675
 51
35.68533471265249
  0
ARC
  8
1
 62
3
 10
310.7975318141693
 20
39.55608661350431
 30
0
 40
4.160000000000144
 50
342.4172239915733
 51
355.6688512692079
  0
ARC
  8
1
 62
3
 10
310.7975318141693
 20
39.55608661350431
 30
0
 40
4.160000000000133
 50
17.58277600842105
 51
35.68533471264986
  0
ARC
  8
1
 62
3
 10
310.7975318141693
 20
39.55608661350431
 30
0
 40
4.160000000000091
 50
4.331148730784631
 51
17.58277600842105
  0
ARC
  8
1
 62
3
 10
310.7975318141693
 20
39.55608661350431
 30
0
 40
4.16000000000022
 50
324.3146652873475
 51
342.4172239915733
  0
ARC
  8
1
 62
3
 10
443.990665309696
 20
171.7675898413375
 30
0
 40
28.85000000000009
 50
102.6323888992594
 51
180
  0
ARC
  8
1
 62
3
 10
443.990665309696
 20
171.7675898413375
 30
0
 40
28.84999999999991
 50
180
 51
227.1840121926644
  0
ARC
  8
1
 62
3
 10
443.990665309696
 20
171.7675898413375
 30
0
 40
28.84999999999999
 50
312.8159878073358
 51
77.36761110073987
  0
ARC
  8
1
 62
3
 10
426.3906668573652
 20
138.2675898413375
 30
0
 40
0.4571999999999119
 50
172.5415509436758
 51
187.4584490563242
  0
ARC
  8
1
 62
3
 10
426.3906668573652
 20
138.2675898413375
 30
0
 40
1.04400000000008
 50
120.2161982852443
 51
149.7838017147493
  0
ARC
  8
1
 62
3
 10
426.3906668573652
 20
138.2675898413375
 30
0
 40
0.4571999999999341
 50
82.54155094365466
 51
97.45844905628884
  0
ARC
  8
1
 62
3
 10
426.3906668573652
 20
138.2675898413375
 30
0
 40
1.044000000000098
 50
30.21619828524915
 51
59.7838017147476
  0
ARC
  8
1
 62
3
 10
426.3906668573652
 20
138.2675898413375
 30
0
 40
0.457200000000081
 50
352.5415509436786
 51
7.458449056321385
  0
ARC
  8
1
 62
3
 10
426.3906668573652
 20
138.2675898413375
 30
0
 40
1.044000000000166
 50
300.2161982852524
 51
329.7838017147414
  0
ARC
  8
1
 62
3
 10
426.3906668573652
 20
138.2675898413375
 30
0
 40
0.457199999999875
 50
262.5415509437112
 51
277.4584490563453
  0
ARC
  8
1
 62
3
 10
426.3906668573652
 20
138.2675898413375
 30
0
 40
1.044000000000149
 50
210.2161982852602
 51
239.7838017147557
  0
ARC
  8
1
 62
3
 10
461.5906637620273
 20
138.2675898413375
 30
0
 40
0.4571999999999119
 50
172.5415509436758
 51
187.4584490563242
  0
ARC
  8
1
 62
3
 10
461.5906637620273
 20
138.2675898413375
 30
0
 40
1.044000000000023
 50
120.2161982852389
 51
149.783801714743
  0
ARC
  8
1
 62
3
 10
461.5906637620273
 20
138.2675898413375
 30
0
 40
0.4571999999999266
 50
82.54155094366172
 51
97.45844905628884
  0
ARC
  8
1
 62
3
 10
461.5906637620273
 20
138.2675898413375
 30
0
 40
1.044000000000098
 50
30.21619828524915
 51
59.7838017147422
  0
ARC
  8
1
 62
3
 10
461.5906637620273
 20
138.2675898413375
 30
0
 40
0.4572000000001937
 50
352.5415509436805
 51
7.458449056319535
  0
ARC
  8
1
 62
3
 10
461.5906637620273
 20
138.2675898413375
 30
0
 40
1.044000000000223
 50
300.2161982852578
 51
329.7838017147414
  0
ARC
  8
1
 62
3
 10
461.5906637620273
 20
138.2675898413375
 30
0
 40
0.457199999999875
 50
262.5415509437112
 51
277.4584490563382
  0
ARC
  8
1
 62
3
 10
461.5906637620273
 20
138.2675898413375
 30
0
 40
1.043999999999953
 50
210.2161982852664
 51
239.7838017147611
  0
ARC
  8
1
 62
3
 10
443.990665309696
 20
171.7675898413375
 30
0
 40
6.000000000000036
 50
44.36151156291598
 51
135.6384884370833
  0
ARC
  8
1
 62
3
 10
443.990665309696
 20
171.7675898413375
 30
0
 40
5.999999999999986
 50
284.361511562916
 51
0
  0
ARC
  8
1
 62
3
 10
438.7945128869893
 20
174.7675898413375
 30
0
 40
1.500000000000046
 50
52.81924421853817
 51
180
  0
ARC
  8
1
 62
3
 10
438.7945128869893
 20
174.7675898413375
 30
0
 40
1.5
 50
180
 51
247.1807557814593
  0
ARC
  8
1
 62
3
 10
443.990665309696
 20
165.7675898413375
 30
0
 40
1.500000000000025
 50
299.9999999999994
 51
7.180755781458561
  0
ARC
  8
1
 62
3
 10
449.1868177324026
 20
174.7675898413375
 30
0
 40
1.500000000000049
 50
60.00000000000109
 51
127.1807557814549
  0
ARC
  8
1
 62
3
 10
443.990665309696
 20
165.7675898413375
 30
0
 40
1.499999999999942
 50
172.8192442185414
 51
299.9999999999994
  0
ARC
  8
1
 62
3
 10
449.1868177324026
 20
174.7675898413375
 30
0
 40
1.499999999999982
 50
292.8192442185448
 51
60.00000000000109
  0
ARC
  8
1
 62
3
 10
443.990665309696
 20
171.7675898413375
 30
0
 40
6.000000000000023
 50
164.3615115629162
 51
255.638488437084
  0
ARC
  8
1
 62
3
 10
443.990665309696
 20
171.7675898413375
 30
0
 40
6
 50
0
 51
15.63848843708385
  0
ARC
  8
1
 62
3
 10
310.7975318141693
 20
138.2675674273382
 30
0
 40
4.160000000000144
 50
342.4172239915733
 51
355.6688512692079
  0
ARC
  8
1
 62
3
 10
310.7975318141693
 20
138.2675674273382
 30
0
 40
4.160000000000133
 50
17.58277600842105
 51
35.68533471264995
  0
ARC
  8
1
 62
3
 10
310.7975318141693
 20
138.2675674273382
 30
0
 40
4.160000000000093
 50
4.331148730784729
 51
17.58277600842105
  0
ARC
  8
1
 62
3
 10
310.7975318141693
 20
138.2675674273382
 30
0
 40
4.160000000000217
 50
324.3146652873475
 51
342.4172239915733
  0
ARC
  8
1
 62
3
 10
178.1167900688584
 20
172.2614701677203
 30
0
 40
4.806808424543316
 50
90.96994142320899
 51
185.8973193016921
  0
ARC
  8
1
 62
3
 10
177.9540520815511
 20
172.2614701677203
 30
0
 40
4.806808424543211
 50
354.102680698309
 51
89.03005857679203
  0
ARC
  8
1
 62
3
 10
178.0354210752047
 20
171.7675898413379
 30
0
 40
4.700000000000102
 50
180
 51
221.8683062262943
  0
ARC
  8
1
 62
3
 10
178.0354210752047
 20
171.7675898413379
 30
0
 40
4.700000000000109
 50
318.1316937737057
 51
0
  0
ARC
  8
1
 62
3
 10
178.0354210752047
 20
171.7675898413379
 30
0
 40
4
 50
0
 51
255.5224878140707
  0
ARC
  8
1
 62
3
 10
178.0354210752047
 20
171.7675898413379
 30
0
 40
4.000000000000181
 50
284.4775121859293
 51
0
  0
ARC
  8
1
 62
3
 10
178.0354210752047
 20
171.7675898413379
 30
0
 40
4.000000000000181
 50
255.5224878140707
 51
284.4775121859293
  0
CIRCLE
  8
1
 62
3
 10
315.847628581054
 20
67.15608661350419
 30
0
 40
0.3499999999997954
  0
CIRCLE
  8
1
 62
3
 10
315.847628581054
 20
64.6560866135042
 30
0
 40
0.3499999999996817
  0
CIRCLE
  8
1
 62
3
 10
315.847628581054
 20
62.1560866135042
 30
0
 40
0.3499999999996817
  0
CIRCLE
  8
1
 62
3
 10
315.847628581054
 20
59.6560866135042
 30
0
 40
0.3499999999996817
  0
CIRCLE
  8
1
 62
3
 10
315.847628581054
 20
47.1560866135042
 30
0
 40
0.3499999999996817
  0
CIRCLE
  8
1
 62
3
 10
315.847628581054
 20
49.6560866135042
 30
0
 40
0.3499999999996817
  0
CIRCLE
  8
1
 62
3
 10
315.847628581054
 20
52.1560866135042
 30
0
 40
0.3499999999996817
  0
CIRCLE
  8
1
 62
3
 10
315.847628581054
 20
54.6560866135042
 30
0
 40
0.3499999999996817
  0
CIRCLE
  8
1
 62
3
 10
315.847628581054
 20
57.1560866135042
 30
0
 40
0.3499999999996817
  0
CIRCLE
  8
1
 62
3
 10
315.847628581054
 20
44.6560866135042
 30
0
 40
0.3499999999996675
  0
CIRCLE
  8
1
 62
3
 10
315.847628581054
 20
69.65608661350419
 30
0
 40
0.3499999999997954
  0
CIRCLE
  8
1
 62
3
 10
443.990665309696
 20
171.7675898413375
 30
0
 40
27.5
  0
CIRCLE
  8
1
 62
3
 10
419.240665309696
 20
147.0175898413376
 30
0
 40
2.25
  0
CIRCLE
  8
1
 62
3
 10
468.740665309696
 20
196.5175898413375
 30
0
 40
3.25
  0
CIRCLE
  8
1
 62
3
 10
419.240665309696
 20
196.5175898413375
 30
0
 40
2.25
  0
CIRCLE
  8
1
 62
3
 10
468.740665309696
 20
196.5175898413375
 30
0
 40
2.25
  0
CIRCLE
  8
1
 62
3
 10
468.740665309696
 20
147.0175898413376
 30
0
 40
2.25
  0
CIRCLE
  8
1
 62
3
 10
419.240665309696
 20
147.0175898413376
 30
0
 40
3.25
  0
CIRCLE
  8
1
 62
3
 10
419.240665309696
 20
196.5175898413375
 30
0
 40
3.25
  0
CIRCLE
  8
1
 62
3
 10
468.740665309696
 20
147.0175898413376
 30
0
 40
3.25
  0
CIRCLE
  8
1
 62
3
 10
426.3906668573652
 20
138.2675898413375
 30
0
 40
2.015999999999679
  0
CIRCLE
  8
1
 62
3
 10
461.5906637620273
 20
138.2675898413375
 30
0
 40
2.015999999999679
  0
CIRCLE
  8
1
 62
3
 10
443.990665309696
 20
171.7675898413375
 30
0
 40
4
  0
CIRCLE
  8
1
 62
3
 10
443.990665309696
 20
171.7675898413375
 30
0
 40
6
  0
CIRCLE
  8
1
 62
3
 10
178.0354210752047
 20
171.7675898413379
 30
0
 40
9.5
  0
CIRCLE
  8
1
 62
3
 10
178.0354210752047
 20
171.7675898413379
 30
0
 40
27.25
  0
CIRCLE
  8
1
 62
3
 10
202.7854210752047
 20
147.0175898413379
 30
0
 40
2.250000000000114
  0
CIRCLE
  8
1
 62
3
 10
153.2854210752049
 20
147.0175898413379
 30
0
 40
2.250000000000199
  0
CIRCLE
  8
1
 62
3
 10
202.7854210752047
 20
196.5175898413379
 30
0
 40
2.250000000000114
  0
CIRCLE
  8
1
 62
3
 10
153.2854210752049
 20
196.517589841338
 30
0
 40
2.250000000000199
  0
CIRCLE
  8
1
 62
3
 10
178.0354210752047
 20
171.7675898413379
 30
0
 40
23.99999999999992
  0
CIRCLE
  8
1
 62
3
 10
195.6354210752047
 20
138.2676034067873
 30
0
 40
1.299999999999983
  0
CIRCLE
  8
1
 62
3
 10
160.4354210752047
 20
138.2676034067873
 30
0
 40
1.300000000000011
  0
POLYLINE
  8
1
 62
3
 66
1
  0
VERTEX
  8
1
 10
336.0056282574615
 20
281.2896195016268
 30
0
 42
-0.00115442049058275
  0
VERTEX
  8
1
 10
336.7372199083173
 20
281.2110044769829
 30
0
 42
-0.003468734099836474
  0
VERTEX
  8
1
 10
337.467476976272
 20
281.1256983299595
 30
0
 42
-0.00579654717656703
  0
VERTEX
  8
1
 10
338.1950648784247
 20
281.0270099381775
 30
0
 42
-0.008136977558729172
  0
VERTEX
  8
1
 10
338.9186490318742
 20
280.9082481792575
 30
0
 42
-0.01756846700860507
  0
VERTEX
  8
1
 10
340.1148022193505
 20
280.6482264045638
 30
0
 42
-0.003142605947052018
  0
VERTEX
  8
1
 10
340.5909132721581
 20
280.5246717218406
 30
0
 42
-5.55977317682186e-005
  0
VERTEX
  8
1
 10
341.0664280111775
 20
280.3980211645171
 30
0
 42
0.003030683839691277
  0
VERTEX
  8
1
 10
341.542546435444
 20
280.27423801446
 30
0
 42
0.006125008534128098
  0
VERTEX
  8
1
 10
342.0204685439927
 20
280.1592855535359
 30
0
 42
0.009595418813623812
  0
VERTEX
  8
1
 10
342.668786660593
 20
280.0247560857507
 30
0
 42
0.003443420274293328
  0
VERTEX
  8
1
 10
343.3206813062856
 20
279.9071244846849
 30
0
 42
0.001921277062089552
  0
VERTEX
  8
1
 10
343.9742725374115
 20
279.7964139797831
 30
0
 42
-0.003059807641698949
  0
VERTEX
  8
1
 10
344.6276804103119
 20
279.6826478004903
 30
0
 42
-0.006880434131554881
  0
VERTEX
  8
1
 10
345.2790249813277
 20
279.5558491762509
 30
0
 42
-0.005683946695118057
  0
VERTEX
  8
1
 10
345.8645487609462
 20
279.4248125279171
 30
0
 42
-0.001199148557900889
  0
VERTEX
  8
1
 10
346.4484161106977
 20
279.2856835909565
 30
0
 42
0.003285732452838536
  0
VERTEX
  8
1
 10
347.032188213623
 20
279.1491451562961
 30
0
 42
0.00779946278753738
  0
VERTEX
  8
1
 10
347.6174262527622
 20
279.0258800148628
 30
0
 42
0.01237618344521113
  0
VERTEX
  8
1
 10
348.2056914111556
 20
278.9265709575836
 30
0
 42
0.01495152526739051
  0
VERTEX
  8
1
 10
348.8206139615475
 20
278.8570439914636
 30
0
 42
0.009328849676412541
  0
VERTEX
  8
1
 10
349.4394899501589
 20
278.8173630650844
 30
0
 42
0.008782865383099116
  0
VERTEX
  8
1
 10
350.061331017435
 20
278.800066668511
 30
0
 42
0.003218905574645354
  0
VERTEX
  8
1
 10
350.6851488038208
 20
278.797693291808
 30
0
 42
0.002755082482974772
  0
VERTEX
  8
1
 10
351.3099549497616
 20
278.8027814250403
 30
0
  0
SEQEND
  8
1
  0
POLYLINE
  8
1
 62
3
 66
1
  0
VERTEX
  8
1
 10
334.9835080061906
 20
282.3904375283049
 30
0
 42
-7.052380730833306e-005
  0
VERTEX
  8
1
 10
335.2740083686523
 20
282.3670622500586
 30
0
 42
-0.000211504498508833
  0
VERTEX
  8
1
 10
335.5645414533309
 20
282.3435193800787
 30
0
 42
-0.000352283904727677
  0
VERTEX
  8
1
 10
335.8551399824436
 20
282.3196413266313
 30
0
 42
-0.0004927261341891312
  0
VERTEX
  8
1
 10
336.1458366782073
 20
282.2952604979828
 30
0
 42
-0.000632692768140442
  0
VERTEX
  8
1
 10
336.4366642628392
 20
282.2702093023997
 30
0
 42
-0.002829224898148349
  0
VERTEX
  8
1
 10
337.1062741723155
 20
282.2083712060828
 30
0
 42
-0.005262177555072429
  0
VERTEX
  8
1
 10
337.7749607613366
 20
282.1356913329539
 30
0
 42
-0.007717915863717177
  0
VERTEX
  8
1
 10
338.4409341822534
 20
282.0457659549639
 30
0
 42
-0.01019790816415971
  0
VERTEX
  8
1
 10
339.1024045874166
 20
281.9321913440634
 30
0
 42
-0.02165487244667709
  0
VERTEX
  8
1
 10
340.2232843438266
 20
281.6652159158254
 30
0
 42
-0.003174607387859642
  0
VERTEX
  8
1
 10
340.6866413130275
 20
281.5316374839686
 30
0
 42
0.001341736710739231
  0
VERTEX
  8
1
 10
341.1494701801577
 20
281.3963721606858
 30
0
 42
0.005867617843817132
  0
VERTEX
  8
1
 10
341.613588088596
 20
281.2679636300302
 30
0
 42
0.01043616403255707
  0
VERTEX
  8
1
 10
342.0808121817207
 20
281.154955576055
 30
0
 42
0.01572676402650347
  0
VERTEX
  8
1
 10
342.7219503323402
 20
281.0349790468945
 30
0
 42
0.004938296709337557
  0
VERTEX
  8
1
 10
343.3687592849274
 20
280.9414115583608
 30
0
 42
0.001884020283012997
  0
VERTEX
  8
1
 10
344.0178376240519
 20
280.8565402423382
 30
0
 42
-0.006909369922400392
  0
VERTEX
  8
1
 10
344.6657839342835
 20
280.7626522307108
 30
0
 42
-0.01379629701627128
  0
VERTEX
  8
1
 10
345.3091968001917
 20
280.642034655363
 30
0
 42
-0.0122455014736483
  0
VERTEX
  8
1
 10
345.9091340046065
 20
280.4937354883667
 30
0
 42
-0.004376625229297751
  0
VERTEX
  8
1
 10
346.5049158542003
 20
280.3252889156194
 30
0
 42
0.003443735131200739
  0
VERTEX
  8
1
 10
347.0994301083422
 20
280.155995376958
 30
0
 42
0.01135075693036213
  0
VERTEX
  8
1
 10
347.695564526402
 20
280.0051553122189
 30
0
 42
0.01951810480740972
  0
VERTEX
  8
1
 10
348.2962068677488
 20
279.8920691612387
 30
0
 42
0.02289053426963744
  0
VERTEX
  8
1
 10
348.8904571916715
 20
279.8316693242558
 30
0
 42
0.01385585263738145
  0
VERTEX
  8
1
 10
349.4903737105808
 20
279.8149816241127
 30
0
 42
0.01336861782346263
  0
VERTEX
  8
1
 10
350.09453987573
 20
279.8310780265992
 30
0
 42
0.004535915094003841
  0
VERTEX
  8
1
 10
350.7015391383725
 20
279.8690304975057
 30
0
 42
0.004326632835551353
  0
VERTEX
  8
1
 10
351.3099549497616
 20
279.917911002622
 30
0
  0
SEQEND
  8
1
  0
POLYLINE
  8
1
 62
3
 66
1
  0
VERTEX
  8
1
 10
351.3099549497616
 20
268.8904375283049
 30
0
 42
-0.001607743817705666
  0
VERTEX
  8
1
 10
350.4018260308264
 20
268.8941029411527
 30
0
 42
-0.004839459238669171
  0
VERTEX
  8
1
 10
349.4953432185134
 20
268.9094422089042
 30
0
 42
-0.008112118624388485
  0
VERTEX
  8
1
 10
348.5921526194449
 20
268.9481291864631
 30
0
 42
-0.01142630948599819
  0
VERTEX
  8
1
 10
347.693900340243
 20
269.0218377287331
 30
0
 42
-0.01474034783442753
  0
VERTEX
  8
1
 10
346.8022324875299
 20
269.1422416906179
 30
0
 42
-0.01091907975214294
  0
VERTEX
  8
1
 10
346.188097421926
 20
269.2583956312815
 30
0
 42
-0.01003733773333167
  0
VERTEX
  8
1
 10
345.5782380042456
 20
269.4004421240889
 30
0
 42
-0.009167219348214215
  0
VERTEX
  8
1
 10
344.9729655397018
 20
269.5661594052778
 30
0
 42
-0.008316733795459962
  0
VERTEX
  8
1
 10
344.3725913335074
 20
269.753325711086
 30
0
 42
-0.02049271564576442
  0
VERTEX
  8
1
 10
342.7588421368625
 20
270.3603989233999
 30
0
 42
-0.01613454575085373
  0
VERTEX
  8
1
 10
341.7664989061329
 20
270.8204396709998
 30
0
 42
-0.01882779289654683
  0
VERTEX
  8
1
 10
340.8100000885856
 20
271.347953183149
 30
0
 42
-0.02154182287543163
  0
VERTEX
  8
1
 10
339.8989487741195
 20
271.9510511224459
 30
0
 42
-0.02412403713677383
  0
VERTEX
  8
1
 10
339.0429480526336
 20
272.6378451514889
 30
0
 42
-0.01837071847585446
  0
VERTEX
  8
1
 10
338.2253630273195
 20
273.4257978101049
 30
0
 42
-0.003824838419059628
  0
VERTEX
  8
1
 10
337.4400750300583
 20
274.2525840129243
 30
0
 42
0.01068385427301981
  0
VERTEX
  8
1
 10
336.6515045528664
 20
275.0606531241173
 30
0
 42
0.02605597401752198
  0
VERTEX
  8
1
 10
335.8240720877603
 20
275.7924545078541
 30
0
 42
0.04330280254886312
  0
VERTEX
  8
1
 10
334.9221981267567
 20
276.3904375283049
 30
0
 42
0.03453843384914705
  0
VERTEX
  8
1
 10
334.2594590454146
 20
276.6942954935519
 30
0
 42
0.01926728948018707
  0
VERTEX
  8
1
 10
333.5569135947011
 20
276.9289148153008
 30
0
 42
0.01966704674586351
  0
VERTEX
  8
1
 10
332.8245133669593
 20
277.1116051544263
 30
0
 42
0.005391877216905289
  0
VERTEX
  8
1
 10
332.0722099545318
 20
277.2596761718029
 30
0
 42
0.006832092944405259
  0
VERTEX
  8
1
 10
331.3099549497616
 20
277.3904375283049
 30
0
  0
SEQEND
  8
1
  0
POLYLINE
  8
1
 62
3
 66
1
  0
VERTEX
  8
1
 10
351.3099549497616
 20
269.8904375283049
 30
0
 42
-0.0016077438178309
  0
VERTEX
  8
1
 10
350.4018260308264
 20
269.8941029411527
 30
0
 42
-0.004839459238669171
  0
VERTEX
  8
1
 10
349.4953432185134
 20
269.9094422089042
 30
0
 42
-0.008112118624388485
  0
VERTEX
  8
1
 10
348.5921526194449
 20
269.9481291864631
 30
0
 42
-0.01142630948593523
  0
VERTEX
  8
1
 10
347.693900340243
 20
270.0218377287332
 30
0
 42
-0.0147403478344905
  0
VERTEX
  8
1
 10
346.8022324875299
 20
270.1422416906179
 30
0
 42
-0.01091907975214294
  0
VERTEX
  8
1
 10
346.188097421926
 20
270.2583956312815
 30
0
 42
-0.01003733773333167
  0
VERTEX
  8
1
 10
345.5782380042456
 20
270.4004421240889
 30
0
 42
-0.009167219348214215
  0
VERTEX
  8
1
 10
344.9729655397018
 20
270.5661594052778
 30
0
 42
-0.008316733795459962
  0
VERTEX
  8
1
 10
344.3725913335074
 20
270.753325711086
 30
0
 42
-0.02049271564586877
  0
VERTEX
  8
1
 10
342.7588421368625
 20
271.3603989233999
 30
0
 42
-0.01613454575085373
  0
VERTEX
  8
1
 10
341.7664989061329
 20
271.8204396709998
 30
0
 42
-0.01882779289654683
  0
VERTEX
  8
1
 10
340.8100000885856
 20
272.347953183149
 30
0
 42
-0.02154182287543163
  0
VERTEX
  8
1
 10
339.8989487741195
 20
272.9510511224459
 30
0
 42
-0.02412403713677383
  0
VERTEX
  8
1
 10
339.0429480526336
 20
273.6378451514889
 30
0
 42
-0.01837071847585446
  0
VERTEX
  8
1
 10
338.2253630273195
 20
274.4257978101049
 30
0
 42
-0.003824838419059628
  0
VERTEX
  8
1
 10
337.4400750300583
 20
275.2525840129243
 30
0
 42
0.01068385427301981
  0
VERTEX
  8
1
 10
336.6515045528664
 20
276.0606531241173
 30
0
 42
0.02605597401752198
  0
VERTEX
  8
1
 10
335.8240720877603
 20
276.7924545078541
 30
0
 42
0.04330280254886312
  0
VERTEX
  8
1
 10
334.9221981267567
 20
277.3904375283049
 30
0
 42
0.03453843384914705
  0
VERTEX
  8
1
 10
334.2594590454146
 20
277.6942954935519
 30
0
 42
0.01926728948018707
  0
VERTEX
  8
1
 10
333.5569135947011
 20
277.9289148153008
 30
0
 42
0.01966704674586351
  0
VERTEX
  8
1
 10
332.8245133669593
 20
278.1116051544263
 30
0
 42
0.005391877216905289
  0
VERTEX
  8
1
 10
332.0722099545318
 20
278.2596761718029
 30
0
 42
0.006832092944405259
  0
VERTEX
  8
1
 10
331.3099549497616
 20
278.3904375283049
 30
0
  0
SEQEND
  8
1
  0
POLYLINE
  8
1
 62
3
 66
1
  0
VERTEX
  8
1
 10
351.3099549497616
 20
271.3904375283049
 30
0
 42
-0.001902789264414824
  0
VERTEX
  8
1
 10
350.567889114084
 20
271.3446431679399
 30
0
 42
-0.005745277525821986
  0
VERTEX
  8
1
 10
349.8275994911247
 20
271.3102973976661
 30
0
 42
-0.009686512557303987
  0
VERTEX
  8
1
 10
349.0908622936018
 20
271.2988488075749
 30
0
 42
-0.01374928444268895
  0
VERTEX
  8
1
 10
348.3594537342338
 20
271.3217459877574
 30
0
 42
-0.0178829513067107
  0
VERTEX
  8
1
 10
347.6351500257388
 20
271.3904375283049
 30
0
 42
-0.01866086244718143
  0
VERTEX
  8
1
 10
346.8751935054706
 20
271.5214443102738
 30
0
 42
-0.0135331706972317
  0
VERTEX
  8
1
 10
346.1217262435641
 20
271.7019431609019
 30
0
 42
-0.008418840654008336
  0
VERTEX
  8
1
 10
345.3712324613391
 20
271.9169386205455
 30
0
 42
-0.003422876774860712
  0
VERTEX
  8
1
 10
344.6201963801153
 20
272.1514352295611
 30
0
 42
0.001454396476879261
  0
VERTEX
  8
1
 10
343.8651022212127
 20
272.3904375283049
 30
0
 42
0.002341100075057514
  0
VERTEX
  8
1
 10
343.0217240582066
 20
272.6503567568942
 30
0
 42
-0.008094591874646102
  0
VERTEX
  8
1
 10
342.1850662507038
 20
272.9227451251222
 30
0
 42
-0.01670365432653974
  0
VERTEX
  8
1
 10
341.3711738616671
 20
273.2329864664294
 30
0
 42
-0.02578314228298114
  0
VERTEX
  8
1
 10
340.5960919540592
 20
273.6064646142561
 30
0
 42
-0.0727643893375607
  0
VERTEX
  8
1
 10
339.1615614932645
 20
274.6888975529307
 30
0
 42
-0.01438878185770276
  0
VERTEX
  8
1
 10
338.497152303614
 20
275.385313107058
 30
0
 42
0.002813176268245463
  0
VERTEX
  8
1
 10
337.8479605944353
 20
276.097903569683
 30
0
 42
0.02037324986594072
  0
VERTEX
  8
1
 10
337.1793089382722
 20
276.7667624460639
 30
0
 42
0.04059420823341997
  0
VERTEX
  8
1
 10
336.4565199076687
 20
277.3319832414589
 30
0
 42
0.057104259166085
  0
VERTEX
  8
1
 10
335.5589033974894
 20
277.7861814817844
 30
0
 42
0.03290429397088741
  0
VERTEX
  8
1
 10
334.5734892330419
 20
278.0787081334723
 30
0
 42
0.03065123788441182
  0
VERTEX
  8
1
 10
333.5222268278935
 20
278.2499810936822
 30
0
 42
0.008913767507588124
  0
VERTEX
  8
1
 10
332.4270655956111
 20
278.3404182595733
 30
0
 42
0.009909907619669993
  0
VERTEX
  8
1
 10
331.3099549497616
 20
278.3904375283049
 30
0
  0
SEQEND
  8
1
  0
POLYLINE
  8
1
 62
3
 66
1
  0
VERTEX
  8
1
 10
351.3099549497616
 20
272.3904375283049
 30
0
 42
-0.001829921716712605
  0
VERTEX
  8
1
 10
350.5687399034345
 20
272.3465107631918
 30
0
 42
-0.005521412245434472
  0
VERTEX
  8
1
 10
349.8290883724879
 20
272.3135656893568
 30
0
 42
-0.009297014988717338
  0
VERTEX
  8
1
 10
349.0925638723027
 20
272.3025839980785
 30
0
 42
-0.01317426561356663
  0
VERTEX
  8
1
 10
348.3607299182594
 20
272.3245473806351
 30
0
 42
-0.01710602726125005
  0
VERTEX
  8
1
 10
347.6351500257388
 20
272.3904375283049
 30
0
 42
-0.01816776250885657
  0
VERTEX
  8
1
 10
346.8729082271242
 20
272.516427821778
 30
0
 42
-0.01395037294199399
  0
VERTEX
  8
1
 10
346.1171279665119
 20
272.6918493340518
 30
0
 42
-0.009739958315201372
  0
VERTEX
  8
1
 10
345.3654638247544
 20
272.9042756995891
 30
0
 42
-0.0056238984749146
  0
VERTEX
  8
1
 10
344.6155703827039
 20
273.1412805528526
 30
0
 42
-0.00160791771388136
  0
VERTEX
  8
1
 10
343.8651022212127
 20
273.3904375283049
 30
0
 42
-0.003035046830089511
  0
VERTEX
  8
1
 10
343.017823145946
 20
273.6770673274203
 30
0
 42
-0.01003263971680863
  0
VERTEX
  8
1
 10
342.1810439924918
 20
273.9846777695396
 30
0
 42
-0.01731546574567985
  0
VERTEX
  8
1
 10
341.3689807136341
 20
274.3345984868489
 30
0
 42
-0.02487359489825578
  0
VERTEX
  8
1
 10
340.5958492621564
 20
274.7481591115338
 30
0
 42
-0.03223808317301223
  0
VERTEX
  8
1
 10
339.8758655908428
 20
275.2466892757803
 30
0
 42
-0.02888700042272133
  0
VERTEX
  8
1
 10
339.1699102846816
 20
275.8865617342917
 30
0
 42
-0.01142416437677724
  0
VERTEX
  8
1
 10
338.5082838684313
 20
276.5905976040756
 30
0
 42
0.005159818166489438
  0
VERTEX
  8
1
 10
337.8577005369442
 20
277.3004852280087
 30
0
 42
0.022413174706524
  0
VERTEX
  8
1
 10
337.1848744850726
 20
277.9579129489677
 30
0
 42
0.04260597243966664
  0
VERTEX
  8
1
 10
336.4565199076687
 20
278.5045691098293
 30
0
 42
0.05849288245843674
  0
VERTEX
  8
1
 10
335.5575126771253
 20
278.9298166925221
 30
0
 42
0.0336391002893649
  0
VERTEX
  8
1
 10
334.5716349392232
 20
279.1896816758832
 30
0
 42
0.03098575730238058
  0
VERTEX
  8
1
 10
333.520604320802
 20
279.3255097097454
 30
0
 42
0.009028684575018004
  0
VERTEX
  8
1
 10
332.4261384487016
 20
279.3786464439416
 30
0
 42
0.009946353456119801
  0
VERTEX
  8
1
 10
331.3099549497616
 20
279.3904375283049
 30
0
  0
SEQEND
  8
1
  0
POLYLINE
  8
1
 62
3
 66
1
  0
VERTEX
  8
1
 10
351.3099549497616
 20
273.8904375283049
 30
0
 42
-0.001399310508318251
  0
VERTEX
  8
1
 10
350.6777754600563
 20
273.8702886412589
 30
0
 42
-0.004208486187272332
  0
VERTEX
  8
1
 10
350.0462032556776
 20
273.8572432216593
 30
0
 42
-0.007044180568835053
  0
VERTEX
  8
1
 10
349.4158456219519
 20
273.8584047369526
 30
0
 42
-0.009906475772712127
  0
VERTEX
  8
1
 10
348.7873098442058
 20
273.8808766545851
 30
0
 42
-0.01276798874511718
  0
VERTEX
  8
1
 10
348.1612032077658
 20
273.9317624420033
 30
0
 42
-0.01604707638822694
  0
VERTEX
  8
1
 10
347.4107169791203
 20
274.0378080401328
 30
0
 42
-0.01397860901119636
  0
VERTEX
  8
1
 10
346.6659390965523
 20
274.1890987234574
 30
0
 42
-0.01197752447280495
  0
VERTEX
  8
1
 10
345.9281671008882
 20
274.3792860178612
 30
0
 42
-0.01006527445220504
  0
VERTEX
  8
1
 10
345.1986985329546
 20
274.602021449228
 30
0
 42
-0.008241774927397173
  0
VERTEX
  8
1
 10
344.4788309335777
 20
274.8509565434418
 30
0
 42
-0.003838553973978337
  0
VERTEX
  8
1
 10
344.0126854898221
 20
275.024907400441
 30
0
 42
-0.001856704054748552
  0
VERTEX
  8
1
 10
343.5492448913784
 20
275.2038923150452
 30
0
 42
0.0001371936477944106
  0
VERTEX
  8
1
 10
343.0865368594175
 20
275.3844261546852
 30
0
 42
0.002130188906047493
  0
VERTEX
  8
1
 10
342.6225891151098
 20
275.5630237867916
 30
0
 42
0.004105463467909225
  0
VERTEX
  8
1
 10
342.1554293796256
 20
275.7362000787953
 30
0
 42
0.004136423690069483
  0
VERTEX
  8
1
 10
341.5766644669432
 20
275.9399622095034
 30
0
 42
-0.004610467601255435
  0
VERTEX
  8
1
 10
340.9984038390749
 20
276.1461556624031
 30
0
 42
-0.01190343574346243
  0
VERTEX
  8
1
 10
340.4289639704668
 20
276.3706329459645
 30
0
 42
-0.01931776423065112
  0
VERTEX
  8
1
 10
339.8766613355651
 20
276.6292465686576
 30
0
 42
-0.02658956512585347
  0
VERTEX
  8
1
 10
339.3498124088158
 20
276.9378490389524
 30
0
 42
-0.02465029267628963
  0
VERTEX
  8
1
 10
338.791491228394
 20
277.3541900309477
 30
0
 42
-0.007303506873474077
  0
VERTEX
  8
1
 10
338.2553174777416
 20
277.8097201967337
 30
0
 42
0.009583372171350019
  0
VERTEX
  8
1
 10
337.7205431911162
 20
278.259996026106
 30
0
 42
0.02737041927792505
  0
VERTEX
  8
1
 10
337.1664204027757
 20
278.66057400886
 30
0
 42
0.04757618206175049
  0
VERTEX
  8
1
 10
336.5722011469777
 20
278.9670106347913
 30
0
 42
0.03703160076214102
  0
VERTEX
  8
1
 10
336.1580948392377
 20
279.09829887964
 30
0
 42
0.019807148619489
  0
VERTEX
  8
1
 10
335.7244398099846
 20
279.1832189816989
 30
0
 42
0.0208625784405548
  0
VERTEX
  8
1
 10
335.2772124175027
 20
279.2335410633167
 30
0
 42
0.004976522058602182
  0
VERTEX
  8
1
 10
334.8223890200763
 20
279.2610352468423
 30
0
 42
0.00721492084093477
  0
VERTEX
  8
1
 10
334.3659459759899
 20
279.2774716546246
 30
0
 42
-0.0005860077342092338
  0
VERTEX
  8
1
 10
333.7448983650797
 20
279.2984543967003
 30
0
 42
-0.000465506874652563
  0
VERTEX
  8
1
 10
333.1304170246125
 20
279.3205107605496
 30
0
 42
-0.000337858555805935
  0
VERTEX
  8
1
 10
332.5208603869776
 20
279.343372340729
 30
0
 42
-0.0002048992798118701
  0
VERTEX
  8
1
 10
331.9145868845642
 20
279.3667707317953
 30
0
 42
-6.866814283980644e-005
  0
VERTEX
  8
1
 10
331.3099549497616
 20
279.3904375283049
 30
0
  0
SEQEND
  8
1
  0
POLYLINE
  8
1
 62
3
 66
1
  0
VERTEX
  8
1
 10
351.3099549497616
 20
274.8904375283049
 30
0
 42
-0.001437466414931773
  0
VERTEX
  8
1
 10
350.6773704200348
 20
274.8694784573922
 30
0
 42
-0.004324802430707339
  0
VERTEX
  8
1
 10
350.0454944356399
 20
274.8558253998926
 30
0
 42
-0.007243808653219224
  0
VERTEX
  8
1
 10
349.4150355419088
 20
274.8567843692192
 30
0
 42
-0.01019656978470315
  0
VERTEX
  8
1
 10
348.7867022841734
 20
274.879661378785
 30
0
 42
-0.01315520811085545
  0
VERTEX
  8
1
 10
348.1612032077658
 20
274.9317624420033
 30
0
 42
-0.01633930251827368
  0
VERTEX
  8
1
 10
347.4119875157022
 20
275.0403494389722
 30
0
 42
-0.01378166540676114
  0
VERTEX
  8
1
 10
346.6685302689439
 20
275.194281732434
 30
0
 42
-0.01127931597967917
  0
VERTEX
  8
1
 10
345.9314436407987
 20
275.3858399375552
 30
0
 42
-0.008860671032268159
  0
VERTEX
  8
1
 10
345.2013398045741
 20
275.6073046695023
 30
0
 42
-0.006521860467700253
  0
VERTEX
  8
1
 10
344.4788309335777
 20
275.8509565434418
 30
0
 42
-0.003263998879529828
  0
VERTEX
  8
1
 10
344.0097879519439
 20
276.0191115819608
 30
0
 42
-0.002743206220257177
  0
VERTEX
  8
1
 10
343.543596695631
 20
276.1925944757525
 30
0
 42
-0.002214346597044311
  0
VERTEX
  8
1
 10
343.0795867747399
 20
276.37052420382
 30
0
 42
-0.001680038634001491
  0
VERTEX
  8
1
 10
342.6170877993712
 20
276.5520197451665
 30
0
 42
-0.001142648290422337
  0
VERTEX
  8
1
 10
342.1554293796256
 20
276.7362000787953
 30
0
 42
-0.003025283606018331
  0
VERTEX
  8
1
 10
341.5760194524111
 20
276.9719861684149
 30
0
 42
-0.006884513991943226
  0
VERTEX
  8
1
 10
341.0013156986727
 20
277.2192406151372
 30
0
 42
-0.01075366762058843
  0
VERTEX
  8
1
 10
340.4357552114607
 20
277.4865795004391
 30
0
 42
-0.01459082984937074
  0
VERTEX
  8
1
 10
339.883775083825
 20
277.7826189057979
 30
0
 42
-0.01827915716380044
  0
VERTEX
  8
1
 10
339.3498124088158
 20
278.1159749126902
 30
0
 42
-0.01457721295487337
  0
VERTEX
  8
1
 10
338.8013235530772
 20
278.5154441442234
 30
0
 42
-0.001460479569505959
  0
VERTEX
  8
1
 10
338.2638727461942
 20
278.9337739744872
 30
0
 42
0.01170481162222466
  0
VERTEX
  8
1
 10
337.7229052409967
 20
279.3374727611946
 30
0
 42
0.02559818686921331
  0
VERTEX
  8
1
 10
337.1638662903147
 20
279.6930488620584
 30
0
 42
0.0408622263180289
  0
VERTEX
  8
1
 10
336.5722011469777
 20
279.9670106347913
 30
0
 42
0.03180568557287667
  0
VERTEX
  8
1
 10
336.1534492230021
 20
280.0912294875553
 30
0
 42
0.01804985857842358
  0
VERTEX
  8
1
 10
335.7185620596702
 20
280.1742746093183
 30
0
 42
0.01830108516224288
  0
VERTEX
  8
1
 10
335.2724253412273
 20
280.2262564066827
 30
0
 42
0.005464783304101367
  0
VERTEX
  8
1
 10
334.8199247519188
 20
280.2572852862506
 30
0
 42
0.006549699692875448
  0
VERTEX
  8
1
 10
334.3659459759899
 20
280.2774716546246
 30
0
 42
0.0004093587786474518
  0
VERTEX
  8
1
 10
333.7470442940619
 20
280.3017199297516
 30
0
 42
0.0003245172122972165
  0
VERTEX
  8
1
 10
333.1332782632555
 20
280.324864804618
 30
0
 42
0.0002340549039435195
  0
VERTEX
  8
1
 10
332.5233639707902
 20
280.3471821292889
 30
0
 42
0.000142288352651089
  0
VERTEX
  8
1
 10
331.9160175038857
 20
280.3689477538295
 30
0
 42
4.708687556103651e-005
  0
VERTEX
  8
1
 10
331.3099549497616
 20
280.3904375283049
 30
0
  0
SEQEND
  8
1
  0
POLYLINE
  8
1
 62
3
 66
1
  0
VERTEX
  8
1
 10
351.3099549497616
 20
276.3904375283049
 30
0
 42
-0.001358152087960781
  0
VERTEX
  8
1
 10
350.6780387060942
 20
276.3652217746774
 30
0
 42
-0.00408450956631864
  0
VERTEX
  8
1
 10
350.0466639362438
 20
276.3469044671526
 30
0
 42
-0.006836327826035709
  0
VERTEX
  8
1
 10
349.4163721140276
 20
276.3423840518335
 30
0
 42
-0.009614512800574959
  0
VERTEX
  8
1
 10
348.7877047132625
 20
276.3585589748229
 30
0
 42
-0.01239487570150791
  0
VERTEX
  8
1
 10
348.1612032077658
 20
276.4023276822235
 30
0
 42
-0.01720460201208683
  0
VERTEX
  8
1
 10
347.333746833275
 20
276.5110068362678
 30
0
 42
-0.0150626821293959
  0
VERTEX
  8
1
 10
346.5126706696211
 20
276.6732744440004
 30
0
 42
-0.0129892933947431
  0
VERTEX
  8
1
 10
345.6995826195843
 20
276.8819191403968
 30
0
 42
-0.01101450300649302
  0
VERTEX
  8
1
 10
344.8960905859448
 20
277.1297295604326
 30
0
 42
-0.009143100764581455
  0
VERTEX
  8
1
 10
344.1038024714827
 20
277.4094943390833
 30
0
 42
-0.003751510980209632
  0
VERTEX
  8
1
 10
343.6681322490074
 20
277.5760681423541
 30
0
 42
-0.002072865825113658
  0
VERTEX
  8
1
 10
343.2351362360334
 20
277.7474288150454
 30
0
 42
-0.0003846956453636735
  0
VERTEX
  8
1
 10
342.8035219069483
 20
277.920702419097
 30
0
 42
0.001309348898479633
  0
VERTEX
  8
1
 10
342.3719967361395
 20
278.0930150164485
 30
0
 42
0.003005986051769728
  0
VERTEX
  8
1
 10
341.9392681979945
 20
278.2614926690395
 30
0
 42
0.003951844711863215
  0
VERTEX
  8
1
 10
341.475257148839
 20
278.4347536147847
 30
0
 42
0.001611805709890886
  0
VERTEX
  8
1
 10
341.0091005030549
 20
278.6029296804455
 30
0
 42
0.001288536037274729
  0
VERTEX
  8
1
 10
340.5414927826498
 20
278.7685701367282
 30
0
 42
-0.0005425218248008392
  0
VERTEX
  8
1
 10
340.0731285096312
 20
278.9342242543386
 30
0
 42
-0.001862584056885517
  0
VERTEX
  8
1
 10
339.6047022060067
 20
279.1024413039829
 30
0
 42
-0.00145249694821243
  0
VERTEX
  8
1
 10
338.951793993279
 20
279.3431488301245
 30
0
 42
0.00265623682446455
  0
VERTEX
  8
1
 10
338.2981772020488
 20
279.5823324796102
 30
0
 42
0.006791582524777611
  0
VERTEX
  8
1
 10
337.6419123139198
 20
279.8085191270166
 30
0
 42
0.01103558094094948
  0
VERTEX
  8
1
 10
336.9810598104951
 20
280.0102356469201
 30
0
 42
0.01535980820476329
  0
VERTEX
  8
1
 10
336.3136801733788
 20
280.1760089138973
 30
0
 42
0.02443126801006725
  0
VERTEX
  8
1
 10
335.3342017060004
 20
280.3379953234596
 30
0
 42
0.01606205456705138
  0
VERTEX
  8
1
 10
334.340545520392
 20
280.4205812752347
 30
0
 42
0.01393493870878146
  0
VERTEX
  8
1
 10
333.3362560461111
 20
280.4436168836694
 30
0
 42
0.005770450064374249
  0
VERTEX
  8
1
 10
332.3248777127151
 20
280.4269522632105
 30
0
 42
0.003972978688752215
  0
VERTEX
  8
1
 10
331.3099549497616
 20
280.3904375283049
 30
0
  0
SEQEND
  8
1
  0
POLYLINE
  8
1
 62
3
 66
1
  0
VERTEX
  8
1
 10
351.3099549497616
 20
277.3904375283049
 30
0
 42
-0.001362471609848782
  0
VERTEX
  8
1
 10
350.678010948253
 20
277.365131348012
 30
0
 42
-0.004097610774240308
  0
VERTEX
  8
1
 10
350.0466153600218
 20
277.3467462204882
 30
0
 42
-0.006858595752738217
  0
VERTEX
  8
1
 10
349.4163165983453
 20
277.3422031985027
 30
0
 42
-0.00964643736449935
  0
VERTEX
  8
1
 10
348.7876630765009
 20
277.3584233348248
 30
0
 42
-0.0124367996036227
  0
VERTEX
  8
1
 10
348.1612032077658
 20
277.4023276822235
 30
0
 42
-0.01723934499791669
  0
VERTEX
  8
1
 10
347.3338450043618
 20
277.5113266480274
 30
0
 42
-0.01504120646977816
  0
VERTEX
  8
1
 10
346.5128730496727
 20
277.673933737103
 30
0
 42
-0.01291158192504473
  0
VERTEX
  8
1
 10
345.6998401230574
 20
277.8827580089627
 30
0
 42
-0.01088102849124378
  0
VERTEX
  8
1
 10
344.8962990038745
 20
278.1304085231187
 30
0
 42
-0.008953596705558791
  0
VERTEX
  8
1
 10
344.1038024714827
 20
278.4094943390833
 30
0
 42
-0.003703781418728906
  0
VERTEX
  8
1
 10
343.6679419874155
 20
278.5754483275345
 30
0
 42
-0.002172491294315998
  0
VERTEX
  8
1
 10
343.2347700788562
 20
278.7462359855181
 30
0
 42
-0.0006319289788979135
  0
VERTEX
  8
1
 10
342.8030749849818
 20
278.9192464822718
 30
0
 42
0.0009139763723677013
  0
VERTEX
  8
1
 10
342.3716449449689
 20
279.0918689870331
 30
0
 42
0.002461932441413266
  0
VERTEX
  8
1
 10
341.9392681979945
 20
279.2614926690395
 30
0
 42
0.00347315035366958
  0
VERTEX
  8
1
 10
341.4759299772663
 20
279.4369454866499
 30
0
 42
0.002008603979792595
  0
VERTEX
  8
1
 10
341.0104699336921
 20
279.6073908719815
 30
0
 42
0.002047564780723879
  0
VERTEX
  8
1
 10
340.5432224012832
 20
279.7742047120024
 30
0
 42
0.000582476922348954
  0
VERTEX
  8
1
 10
340.074521714051
 20
279.9387628936802
 30
0
 42
0.0006242501454072823
  0
VERTEX
  8
1
 10
339.6047022060067
 20
280.1024413039829
 30
0
 42
0.0003363676656540882
  0
VERTEX
  8
1
 10
338.9534120410942
 20
280.3279392845317
 30
0
 42
0.005230759131689998
  0
VERTEX
  8
1
 10
338.2996430831515
 20
280.5461747020904
 30
0
 42
0.006236406618411202
  0
VERTEX
  8
1
 10
337.6424170044022
 20
280.7489360876982
 30
0
 42
0.01123059924268906
  0
VERTEX
  8
1
 10
336.98075547707
 20
280.9280119723945
 30
0
 42
0.012350244036071
  0
VERTEX
  8
1
 10
336.3136801733788
 20
281.075190887219
 30
0
 42
0.02178204566560096
  0
VERTEX
  8
1
 10
335.329275333156
 20
281.2228594101698
 30
0
 42
0.01290993169261668
  0
VERTEX
  8
1
 10
334.3339770232661
 20
281.3021748442849
 30
0
 42
0.01287933557225265
  0
VERTEX
  8
1
 10
333.3305086111259
 20
281.3302254617732
 30
0
 42
0.004130453162820239
  0
VERTEX
  8
1
 10
332.3215934641521
 20
281.3240995348438
 30
0
 42
0.004305287326066215
  0
VERTEX
  8
1
 10
331.3099549497616
 20
281.3008853357054
 30
0
  0
SEQEND
  8
1
  0
POLYLINE
  8
1
 62
3
 66
1
  0
VERTEX
  8
1
 10
351.3099549497616
 20
281.3904375283049
 30
0
 42
-0.001888937841192617
  0
VERTEX
  8
1
 10
350.6761889572506
 20
281.3517408991909
 30
0
 42
-0.005694027757107544
  0
VERTEX
  8
1
 10
350.0434268757676
 20
281.3227184273553
 30
0
 42
-0.009568406319992036
  0
VERTEX
  8
1
 10
349.4126726163405
 20
281.3130442700768
 30
0
 42
-0.01351495323541659
  0
VERTEX
  8
1
 10
348.7849300899973
 20
281.3323925846338
 30
0
 42
-0.04014634871256267
  0
VERTEX
  8
1
 10
347.3473707900552
 20
281.5324503559087
 30
0
 42
-0.009124304351102199
  0
VERTEX
  8
1
 10
346.5384709828726
 20
281.7226650879669
 30
0
 42
0.001534250010517213
  0
VERTEX
  8
1
 10
345.7307473109171
 20
281.9255515246153
 30
0
 42
0.01220105072964397
  0
VERTEX
  8
1
 10
344.9204432988876
 20
282.1055794659897
 30
0
 42
0.02318308017390971
  0
VERTEX
  8
1
 10
344.1038024714827
 20
282.227218712226
 30
0
 42
0.01529747283851475
  0
VERTEX
  8
1
 10
343.6734479784683
 20
282.2577877807931
 30
0
 42
0.005656696756987896
  0
VERTEX
  8
1
 10
343.2410770195661
 20
282.2703332394976
 30
0
 42
0.006368138960235792
  0
VERTEX
  8
1
 10
342.8074298798223
 20
282.2724832713177
 30
0
 42
-0.0006029030482146672
  0
VERTEX
  8
1
 10
342.3732468442831
 20
282.2718660592313
 30
0
 42
-0.005000141994920279
  0
VERTEX
  8
1
 10
341.9392681979945
 20
282.2761097862166
 30
0
 42
-0.006579526751762781
  0
VERTEX
  8
1
 10
341.4713884734599
 20
282.2925923582804
 30
0
 42
-0.004151305535255969
  0
VERTEX
  8
1
 10
341.0043014537081
 20
282.3190951643373
 30
0
 42
-0.001715361460799326
  0
VERTEX
  8
1
 10
340.5376976970248
 20
282.3510674458545
 30
0
 42
0.0007228359941892941
  0
VERTEX
  8
1
 10
340.0712677616958
 20
282.3839584442987
 30
0
 42
0.003162479870929043
  0
VERTEX
  8
1
 10
339.6047022060067
 20
282.4132174011369
 30
0
 42
0.006187227354288807
  0
VERTEX
  8
1
 10
338.94741571333
 20
282.4421106524325
 30
0
 42
0.003818458239110622
  0
VERTEX
  8
1
 10
338.289458963748
 20
282.4578512727089
 30
0
 42
0.003855524038851894
  0
VERTEX
  8
1
 10
337.6310432572416
 20
282.4634947156756
 30
0
 42
0.001491465786028985
  0
VERTEX
  8
1
 10
336.9723798937915
 20
282.4620964350418
 30
0
 42
0.001534251241659524
  0
VERTEX
  8
1
 10
336.3136801733788
 20
282.4567118845168
 30
0
 42
0.0004844600512775992
  0
VERTEX
  8
1
 10
335.3124498362236
 20
282.4460391000209
 30
0
 42
0.000377064025224799
  0
VERTEX
  8
1
 10
334.3115430273563
 20
282.4336449243607
 30
0
 42
0.0002694207363405852
  0
VERTEX
  8
1
 10
333.3108788647048
 20
282.4199597053272
 30
0
 42
0.0001617307302767258
  0
VERTEX
  8
1
 10
332.3103764661972
 20
282.4054137907116
 30
0
 42
5.389327205884389e-005
  0
VERTEX
  8
1
 10
331.3099549497616
 20
282.3904375283049
 30
0
  0
SEQEND
  8
1
  0
POLYLINE
  8
1
 62
3
 66
1
  0
VERTEX
  8
1
 10
351.3099549497616
 20
282.3904375283049
 30
0
 42
-0.001888937841192617
  0
VERTEX
  8
1
 10
350.6761889572506
 20
282.3517408991909
 30
0
 42
-0.005694027757107544
  0
VERTEX
  8
1
 10
350.0434268757676
 20
282.3227184273553
 30
0
 42
-0.009568406319992036
  0
VERTEX
  8
1
 10
349.4126726163405
 20
282.3130442700768
 30
0
 42
-0.01351495323541659
  0
VERTEX
  8
1
 10
348.7849300899973
 20
282.3323925846338
 30
0
 42
-0.0401463487125391
  0
VERTEX
  8
1
 10
347.3473707900552
 20
282.5324503559087
 30
0
 42
-0.009124304351168873
  0
VERTEX
  8
1
 10
346.5384709828726
 20
282.7226650879669
 30
0
 42
0.001534250010517213
  0
VERTEX
  8
1
 10
345.7307473109171
 20
282.9255515246153
 30
0
 42
0.01220105072964397
  0
VERTEX
  8
1
 10
344.9204432988876
 20
283.1055794659897
 30
0
 42
0.02318308017390971
  0
VERTEX
  8
1
 10
344.1038024714827
 20
283.227218712226
 30
0
 42
0.01529747283851475
  0
VERTEX
  8
1
 10
343.6734479784683
 20
283.2577877807931
 30
0
 42
0.005656696757053402
  0
VERTEX
  8
1
 10
343.2410770195661
 20
283.2703332394976
 30
0
 42
0.006368138960105224
  0
VERTEX
  8
1
 10
342.8074298798223
 20
283.2724832713176
 30
0
 42
-0.0006029030480836608
  0
VERTEX
  8
1
 10
342.3732468442831
 20
283.2718660592313
 30
0
 42
-0.005000141994789324
  0
VERTEX
  8
1
 10
341.9392681979945
 20
283.2761097862165
 30
0
 42
-0.006579526751762892
  0
VERTEX
  8
1
 10
341.4713884734599
 20
283.2925923582803
 30
0
 42
-0.004151305535377152
  0
VERTEX
  8
1
 10
341.0043014537081
 20
283.3190951643373
 30
0
 42
-0.001715361460799326
  0
VERTEX
  8
1
 10
340.5376976970248
 20
283.3510674458544
 30
0
 42
0.0007228359943105305
  0
VERTEX
  8
1
 10
340.0712677616958
 20
283.3839584442986
 30
0
 42
0.003162479870807805
  0
VERTEX
  8
1
 10
339.6047022060067
 20
283.4132174011369
 30
0
 42
0.006187227354470668
  0
VERTEX
  8
1
 10
338.94741571333
 20
283.4421106524325
 30
0
 42
0.003818458238928321
  0
VERTEX
  8
1
 10
338.289458963748
 20
283.4578512727089
 30
0
 42
0.003855524039033751
  0
VERTEX
  8
1
 10
337.6310432572416
 20
283.4634947156756
 30
0
 42
0.001491465785846685
  0
VERTEX
  8
1
 10
336.9723798937915
 20
283.4620964350418
 30
0
 42
0.001534251241841601
  0
VERTEX
  8
1
 10
336.3136801733788
 20
283.4567118845168
 30
0
 42
0.0004844600513342206
  0
VERTEX
  8
1
 10
335.3124498362236
 20
283.4460391000209
 30
0
 42
0.0003770640251397559
  0
VERTEX
  8
1
 10
334.3115430273563
 20
283.4336449243606
 30
0
 42
0.0002694207363974286
  0
VERTEX
  8
1
 10
333.3108788647048
 20
283.4199597053272
 30
0
 42
0.0001617307302485261
  0
VERTEX
  8
1
 10
332.3103764661972
 20
283.4054137907116
 30
0
 42
5.389327208704356e-005
  0
VERTEX
  8
1
 10
331.3099549497616
 20
283.3904375283049
 30
0
  0
SEQEND
  8
1
  0
POLYLINE
  8
1
 62
3
 66
1
  0
VERTEX
  8
1
 10
351.3099549497616
 20
283.8904375283049
 30
0
 42
-0.001012204111016456
  0
VERTEX
  8
1
 10
350.6787151088599
 20
283.871118522032
 30
0
 42
-0.003041506933751228
  0
VERTEX
  8
1
 10
350.0478476410839
 20
283.8569272483958
 30
0
 42
-0.005083541123615373
  0
VERTEX
  8
1
 10
349.4177249195591
 20
283.852991440033
 30
0
 42
-0.007140173251192887
  0
VERTEX
  8
1
 10
348.7887193174112
 20
283.8644388295803
 30
0
 42
-0.02015103824151497
  0
VERTEX
  8
1
 10
347.4241326289812
 20
283.9638568683218
 30
0
 42
-0.005713191267326058
  0
VERTEX
  8
1
 10
346.6885028568278
 20
284.0544815781831
 30
0
 42
-0.001504699509094893
  0
VERTEX
  8
1
 10
345.9531711466481
 20
284.1558596959225
 30
0
 42
0.002686391856224292
  0
VERTEX
  8
1
 10
345.2169947537839
 20
284.2555796382046
 30
0
 42
0.006874857216582777
  0
VERTEX
  8
1
 10
344.4788309335777
 20
284.3412298216937
 30
0
 42
0.006540794941127826
  0
VERTEX
  8
1
 10
344.0147962507314
 20
284.3824904749798
 30
0
 42
0.006046787787648736
  0
VERTEX
  8
1
 10
343.5499853979352
 20
284.4120499534031
 30
0
 42
0.00791531474319585
  0
VERTEX
  8
1
 10
343.084851731167
 20
284.4286089056259
 30
0
 42
0.007448605158127362
  0
VERTEX
  8
1
 10
342.6198486064045
 20
284.4308679803102
 30
0
 42
0.01990100913006135
  0
VERTEX
  8
1
 10
341.5920052386406
 20
284.379602397573
 30
0
 42
0.006705255688111587
  0
VERTEX
  8
1
 10
341.0299230573243
 20
284.3214781136918
 30
0
 42
0.006951790059381627
  0
VERTEX
  8
1
 10
340.4689912494196
 20
284.2479401151589
 30
0
 42
0.002464144041407855
  0
VERTEX
  8
1
 10
339.9090182286691
 20
284.1637735426589
 30
0
 42
0.002737693092510973
  0
VERTEX
  8
1
 10
339.3498124088158
 20
284.0737635368761
 30
0
 42
-0.0001339878579161982
  0
VERTEX
  8
1
 10
338.7949275864689
 20
283.9829931099714
 30
0
 42
-0.001401259120632585
  0
VERTEX
  8
1
 10
338.2401673224796
 20
283.8939906294443
 30
0
 42
-0.002671166501038903
  0
VERTEX
  8
1
 10
337.6850883434801
 20
283.8095680250443
 30
0
 42
-0.003942555142908807
  0
VERTEX
  8
1
 10
337.1292473761021
 20
283.7325372265207
 30
0
 42
-0.005212195614843951
  0
VERTEX
  8
1
 10
336.5722011469777
 20
283.6657101636229
 30
0
 42
-0.004276427742336219
  0
VERTEX
  8
1
 10
336.1321859957755
 20
283.6216602820272
 30
0
 42
-0.003618960281181653
  0
VERTEX
  8
1
 10
335.6913500651683
 20
283.5845484113123
 30
0
 42
-0.002963333241686203
  0
VERTEX
  8
1
 10
335.2498961930634
 20
283.5532308052314
 30
0
 42
-0.002309907759201878
  0
VERTEX
  8
1
 10
334.8080272173681
 20
283.526563717538
 30
0
 42
-0.001658437888787065
  0
VERTEX
  8
1
 10
334.3659459759899
 20
283.5034034019853
 30
0
 42
-0.001659181814355756
  0
VERTEX
  8
1
 10
333.7547693895697
 20
283.4753915742431
 30
0
 42
-0.001291066999856474
  0
VERTEX
  8
1
 10
333.1435783905992
 20
283.4509921818383
 30
0
 42
-0.000922466005806251
  0
VERTEX
  8
1
 10
332.532376582216
 20
283.4293021159366
 30
0
 42
-0.0005535777014124884
  0
VERTEX
  8
1
 10
331.9211675675576
 20
283.4094182677036
 30
0
 42
-0.00018454104708409
  0
VERTEX
  8
1
 10
331.3099549497616
 20
283.3904375283049
 30
0
  0
SEQEND
  8
1
  0
POLYLINE
  8
1
 62
3
 66
1
  0
VERTEX
  8
1
 10
351.3099549497616
 20
284.8904375283049
 30
0
 42
-0.001012204111016456
  0
VERTEX
  8
1
 10
350.6787151088599
 20
284.871118522032
 30
0
 42
-0.003041506933841323
  0
VERTEX
  8
1
 10
350.0478476410839
 20
284.8569272483959
 30
0
 42
-0.005083541123705525
  0
VERTEX
  8
1
 10
349.4177249195591
 20
284.852991440033
 30
0
 42
-0.007140173251192887
  0
VERTEX
  8
1
 10
348.7887193174112
 20
284.8644388295803
 30
0
 42
-0.02015103824163226
  0
VERTEX
  8
1
 10
347.4241326289812
 20
284.9638568683218
 30
0
 42
-0.005713191267326058
  0
VERTEX
  8
1
 10
346.6885028568278
 20
285.0544815781831
 30
0
 42
-0.001504699509094893
  0
VERTEX
  8
1
 10
345.9531711466481
 20
285.1558596959225
 30
0
 42
0.002686391856224292
  0
VERTEX
  8
1
 10
345.2169947537839
 20
285.2555796382046
 30
0
 42
0.006874857216582777
  0
VERTEX
  8
1
 10
344.4788309335777
 20
285.3412298216937
 30
0
 42
0.006540794941127826
  0
VERTEX
  8
1
 10
344.0147962507314
 20
285.3824904749798
 30
0
 42
0.006046787787648736
  0
VERTEX
  8
1
 10
343.5499853979352
 20
285.4120499534031
 30
0
 42
0.00791531474319585
  0
VERTEX
  8
1
 10
343.084851731167
 20
285.4286089056259
 30
0
 42
0.007448605158127362
  0
VERTEX
  8
1
 10
342.6198486064045
 20
285.4308679803102
 30
0
 42
0.01990100913006135
  0
VERTEX
  8
1
 10
341.5920052386406
 20
285.379602397573
 30
0
 42
0.006705255688111587
  0
VERTEX
  8
1
 10
341.0299230573243
 20
285.3214781136918
 30
0
 42
0.006951790059331665
  0
VERTEX
  8
1
 10
340.4689912494196
 20
285.247940115159
 30
0
 42
0.002464144041556626
  0
VERTEX
  8
1
 10
339.9090182286691
 20
285.1637735426589
 30
0
 42
0.00273769309231313
  0
VERTEX
  8
1
 10
339.3498124088158
 20
285.0737635368761
 30
0
 42
-0.0001339878579161982
  0
VERTEX
  8
1
 10
338.7949275864689
 20
284.9829931099714
 30
0
 42
-0.001401259120532721
  0
VERTEX
  8
1
 10
338.2401673224796
 20
284.8939906294442
 30
0
 42
-0.002671166500838784
  0
VERTEX
  8
1
 10
337.6850883434801
 20
284.8095680250443
 30
0
 42
-0.003942555143009339
  0
VERTEX
  8
1
 10
337.1292473761021
 20
284.7325372265207
 30
0
 42
-0.005212195614843951
  0
VERTEX
  8
1
 10
336.5722011469777
 20
284.6657101636229
 30
0
 42
-0.004276427742336219
  0
VERTEX
  8
1
 10
336.1321859957755
 20
284.6216602820272
 30
0
 42
-0.003618960281181653
  0
VERTEX
  8
1
 10
335.6913500651683
 20
284.5845484113123
 30
0
 42
-0.002963333241686203
  0
VERTEX
  8
1
 10
335.2498961930634
 20
284.5532308052314
 30
0
 42
-0.002309907759201878
  0
VERTEX
  8
1
 10
334.8080272173681
 20
284.526563717538
 30
0
 42
-0.001658437888530603
  0
VERTEX
  8
1
 10
334.3659459759899
 20
284.5034034019853
 30
0
 42
-0.001659181814448571
  0
VERTEX
  8
1
 10
333.7547693895697
 20
284.4753915742431
 30
0
 42
-0.001291066999949345
  0
VERTEX
  8
1
 10
333.1435783905992
 20
284.4509921818383
 30
0
 42
-0.000922466005806251
  0
VERTEX
  8
1
 10
332.532376582216
 20
284.4293021159366
 30
0
 42
-0.0005535777015982842
  0
VERTEX
  8
1
 10
331.9211675675576
 20
284.4094182677036
 30
0
 42
-0.00018454104708409
  0
VERTEX
  8
1
 10
331.3099549497616
 20
284.3904375283049
 30
0
  0
SEQEND
  8
1
  0
POLYLINE
  8
1
 62
3
 66
1
  0
VERTEX
  8
1
 10
351.3099549497616
 20
288.8904375283049
 30
0
 42
0.002401515546166598
  0
VERTEX
  8
1
 10
350.5654778877828
 20
288.9487457088574
 30
0
 42
0.007248840753388542
  0
VERTEX
  8
1
 10
349.8233798450975
 20
288.9924768442718
 30
0
 42
0.01229879808575086
  0
VERTEX
  8
1
 10
349.0860398409994
 20
289.0070538894099
 30
0
 42
0.01753962731828092
  0
VERTEX
  8
1
 10
348.3558368947819
 20
288.9778997991336
 30
0
 42
0.02289826929954405
  0
VERTEX
  8
1
 10
347.6351500257388
 20
288.8904375283049
 30
0
 42
0.02623792913375057
  0
VERTEX
  8
1
 10
346.8654768864118
 20
288.7191143852883
 30
0
 42
0.01533451021649156
  0
VERTEX
  8
1
 10
346.1067256072744
 20
288.482614999902
 30
0
 42
0.01262719634039273
  0
VERTEX
  8
1
 10
345.355806117348
 20
288.2016189081076
 30
0
 42
0.002243745492190676
  0
VERTEX
  8
1
 10
344.6096283456537
 20
287.8968056458666
 30
0
 42
-0.002052424584043014
  0
VERTEX
  8
1
 10
343.8651022212127
 20
287.5888547491406
 30
0
 42
-0.004718784384160623
  0
VERTEX
  8
1
 10
343.0685604282107
 20
287.2744218266273
 30
0
 42
-0.002952234778354546
  0
VERTEX
  8
1
 10
342.270871012229
 20
286.9736123380909
 30
0
 42
-0.001148070354362229
  0
VERTEX
  8
1
 10
341.4725288297112
 20
286.6800193108113
 30
0
 42
0.0006697605108317323
  0
VERTEX
  8
1
 10
340.6740287371013
 20
286.3872357720679
 30
0
 42
0.002482044596652846
  0
VERTEX
  8
1
 10
339.8758655908428
 20
286.0888547491406
 30
0
 42
0.001978882975154496
  0
VERTEX
  8
1
 10
339.1985210174606
 20
285.8287289536823
 30
0
 42
-0.002424872975837953
  0
VERTEX
  8
1
 10
338.5198450544965
 20
285.5701613497004
 30
0
 42
-0.00596540268817621
  0
VERTEX
  8
1
 10
337.8379068099061
 20
285.3233620609751
 30
0
 42
-0.009563208241478466
  0
VERTEX
  8
1
 10
337.1507753916449
 20
285.0985412112869
 30
0
 42
-0.01321986738222986
  0
VERTEX
  8
1
 10
336.4565199076687
 20
284.9059089244159
 30
0
 42
-0.01938778054341456
  0
VERTEX
  8
1
 10
335.4494121468909
 20
284.6988414796996
 30
0
 42
-0.01499239441264295
  0
VERTEX
  8
1
 10
334.4275008989107
 20
284.5610894786461
 30
0
 42
-0.01059728124980586
  0
VERTEX
  8
1
 10
333.3944870355286
 20
284.4753240603396
 30
0
 42
-0.006296230251570135
  0
VERTEX
  8
1
 10
332.3540714285454
 20
284.4242163638644
 30
0
 42
-0.002086734309588006
  0
VERTEX
  8
1
 10
331.3099549497616
 20
284.3904375283049
 30
0
  0
SEQEND
  8
1
  0
POLYLINE
  8
1
 62
3
 66
1
  0
VERTEX
  8
1
 10
351.3099549497616
 20
289.8904375283049
 30
0
 42
0.002401515546318256
  0
VERTEX
  8
1
 10
350.5654778877828
 20
289.9487457088574
 30
0
 42
0.007248840753236878
  0
VERTEX
  8
1
 10
349.8233798450975
 20
289.9924768442718
 30
0
 42
0.01229879808590254
  0
VERTEX
  8
1
 10
349.0860398409994
 20
290.0070538894099
 30
0
 42
0.01753962731808901
  0
VERTEX
  8
1
 10
348.3558368947819
 20
289.9778997991337
 30
0
 42
0.02289826929981331
  0
VERTEX
  8
1
 10
347.6351500257388
 20
289.8904375283049
 30
0
 42
0.02623792913344327
  0
VERTEX
  8
1
 10
346.8654768864118
 20
289.7191143852883
 30
0
 42
0.01533451021679628
  0
VERTEX
  8
1
 10
346.1067256072744
 20
289.482614999902
 30
0
 42
0.01262719634008737
  0
VERTEX
  8
1
 10
345.355806117348
 20
289.2016189081076
 30
0
 42
0.002243745492495989
  0
VERTEX
  8
1
 10
344.6096283456537
 20
288.8968056458666
 30
0
 42
-0.002052424584173355
  0
VERTEX
  8
1
 10
343.8651022212127
 20
288.5888547491406
 30
0
 42
-0.004718784384160623
  0
VERTEX
  8
1
 10
343.0685604282107
 20
288.2744218266273
 30
0
 42
-0.002952234778229756
  0
VERTEX
  8
1
 10
342.270871012229
 20
287.9736123380909
 30
0
 42
-0.001148070354362229
  0
VERTEX
  8
1
 10
341.4725288297112
 20
287.6800193108113
 30
0
 42
0.0006697605109574097
  0
VERTEX
  8
1
 10
340.6740287371013
 20
287.3872357720679
 30
0
 42
0.00248204459652739
  0
VERTEX
  8
1
 10
339.8758655908428
 20
287.0888547491406
 30
0
 42
0.001978882975279951
  0
VERTEX
  8
1
 10
339.1985210174606
 20
286.8287289536823
 30
0
 42
-0.002424872975837953
  0
VERTEX
  8
1
 10
338.5198450544965
 20
286.5701613497004
 30
0
 42
-0.00596540268817621
  0
VERTEX
  8
1
 10
337.8379068099061
 20
286.3233620609751
 30
0
 42
-0.009563208241627916
  0
VERTEX
  8
1
 10
337.1507753916449
 20
286.0985412112869
 30
0
 42
-0.01321986738238187
  0
VERTEX
  8
1
 10
336.4565199076687
 20
285.9059089244159
 30
0
 42
-0.01938778054352291
  0
VERTEX
  8
1
 10
335.4494121468909
 20
285.6988414796996
 30
0
 42
-0.01499239441264295
  0
VERTEX
  8
1
 10
334.4275008989107
 20
285.5610894786461
 30
0
 42
-0.01059728124980586
  0
VERTEX
  8
1
 10
333.3944870355286
 20
285.4753240603396
 30
0
 42
-0.006296230251624594
  0
VERTEX
  8
1
 10
332.3540714285454
 20
285.4242163638645
 30
0
 42
-0.002086734309642407
  0
VERTEX
  8
1
 10
331.3099549497616
 20
285.3904375283049
 30
0
  0
SEQEND
  8
1
  0
POLYLINE
  8
1
 62
3
 66
1
  0
VERTEX
  8
1
 10
351.3099549497616
 20
293.8904375283049
 30
0
 42
0.004358729398469334
  0
VERTEX
  8
1
 10
350.3408408990885
 20
293.8859103431188
 30
0
 42
0.01337584483503479
  0
VERTEX
  8
1
 10
349.388619237972
 20
293.8476686429577
 30
0
 42
0.0238356399021728
  0
VERTEX
  8
1
 10
348.470182355969
 20
293.7419979128467
 30
0
 42
0.03589190169524167
  0
VERTEX
  8
1
 10
347.602422642636
 20
293.5351836378106
 30
0
 42
0.04895632414660234
  0
VERTEX
  8
1
 10
346.8022324875298
 20
293.1935113028745
 30
0
 42
0.04576326853644235
  0
VERTEX
  8
1
 10
346.1444490401666
 20
292.7503670906127
 30
0
 42
0.02110922930115643
  0
VERTEX
  8
1
 10
345.5344930504538
 20
292.2083107321292
 30
0
 42
0.01598160533304375
  0
VERTEX
  8
1
 10
344.9509482047571
 20
291.6066296033042
 30
0
 42
-0.001092134691159321
  0
VERTEX
  8
1
 10
344.3723981894424
 20
290.9846110800178
 30
0
 42
-0.0136980471198675
  0
VERTEX
  8
1
 10
343.7774266908757
 20
290.3815425381504
 30
0
 42
-0.02555441647285254
  0
VERTEX
  8
1
 10
342.9215029357041
 20
289.6485709373659
 30
0
 42
-0.02143501595986536
  0
VERTEX
  8
1
 10
342.0083981988902
 20
289.0049387031908
 30
0
 42
-0.01692967819391831
  0
VERTEX
  8
1
 10
341.0498074758378
 20
288.4339759941238
 30
0
 42
-0.01233822321846516
  0
VERTEX
  8
1
 10
340.057425761951
 20
287.9190129686638
 30
0
 42
-0.007800748263471239
  0
VERTEX
  8
1
 10
339.0429480526336
 20
287.4433797853093
 30
0
 42
-0.005362192224365345
  0
VERTEX
  8
1
 10
338.2360758089374
 20
287.0886040321888
 30
0
 42
-0.007366627213728838
  0
VERTEX
  8
1
 10
337.4216674980941
 20
286.7549748389675
 30
0
 42
-0.009412356290909814
  0
VERTEX
  8
1
 10
336.5986203165111
 20
286.449623021322
 30
0
 42
-0.01149368119270535
  0
VERTEX
  8
1
 10
335.7658314605962
 20
286.1796793949286
 30
0
 42
-0.02517093435358488
  0
VERTEX
  8
1
 10
334.209726364709
 20
285.7984293104008
 30
0
 42
-0.008504618118955191
  0
VERTEX
  8
1
 10
333.4906033537604
 20
285.6722358557586
 30
0
 42
-0.006047552492686811
  0
VERTEX
  8
1
 10
332.7664919061362
 20
285.566781408932
 30
0
 42
-0.00361433953040838
  0
VERTEX
  8
1
 10
332.0390548340615
 20
285.4751529673159
 30
0
 42
-0.001202089796665019
  0
VERTEX
  8
1
 10
331.3099549497616
 20
285.3904375283049
 30
0
  0
SEQEND
  8
1
  0
POLYLINE
  8
1
 62
3
 66
1
  0
VERTEX
  8
1
 10
351.3099549497616
 20
294.8904375283049
 30
0
 42
0.004358729398586799
  0
VERTEX
  8
1
 10
350.3408408990885
 20
294.8859103431188
 30
0
 42
0.0133758448349173
  0
VERTEX
  8
1
 10
349.388619237972
 20
294.8476686429577
 30
0
 42
0.02383563990228922
  0
VERTEX
  8
1
 10
348.470182355969
 20
294.7419979128467
 30
0
 42
0.03589190169509382
  0
VERTEX
  8
1
 10
347.602422642636
 20
294.5351836378106
 30
0
 42
0.04895632414680978
  0
VERTEX
  8
1
 10
346.8022324875298
 20
294.1935113028745
 30
0
 42
0.04576326853620271
  0
VERTEX
  8
1
 10
346.1444490401666
 20
293.7503670906127
 30
0
 42
0.02110922930142545
  0
VERTEX
  8
1
 10
345.5344930504538
 20
293.2083107321291
 30
0
 42
0.01598160533272436
  0
VERTEX
  8
1
 10
344.9509482047571
 20
292.6066296033042
 30
0
 42
-0.001092134691204951
  0
VERTEX
  8
1
 10
344.3723981894424
 20
291.9846110800178
 30
0
 42
-0.01369804711991525
  0
VERTEX
  8
1
 10
343.7774266908757
 20
291.3815425381504
 30
0
 42
-0.02555441647277588
  0
VERTEX
  8
1
 10
342.9215029357041
 20
290.6485709373659
 30
0
 42
-0.02143501595986536
  0
VERTEX
  8
1
 10
342.0083981988902
 20
290.0049387031908
 30
0
 42
-0.01692967819391831
  0
VERTEX
  8
1
 10
341.0498074758378
 20
289.4339759941238
 30
0
 42
-0.01233822321846516
  0
VERTEX
  8
1
 10
340.057425761951
 20
288.9190129686638
 30
0
 42
-0.007800748263379419
  0
VERTEX
  8
1
 10
339.0429480526336
 20
288.4433797853093
 30
0
 42
-0.005362192224365345
  0
VERTEX
  8
1
 10
338.2360758089374
 20
288.0886040321888
 30
0
 42
-0.007366627213728838
  0
VERTEX
  8
1
 10
337.4216674980941
 20
287.7549748389675
 30
0
 42
-0.009412356290849301
  0
VERTEX
  8
1
 10
336.5986203165111
 20
287.4496230213219
 30
0
 42
-0.0114936811926434
  0
VERTEX
  8
1
 10
335.7658314605962
 20
287.1796793949286
 30
0
 42
-0.02517093435367115
  0
VERTEX
  8
1
 10
334.209726364709
 20
286.7984293104008
 30
0
 42
-0.008504618118801858
  0
VERTEX
  8
1
 10
333.4906033537604
 20
286.6722358557586
 30
0
 42
-0.006047552492609814
  0
VERTEX
  8
1
 10
332.7664919061362
 20
286.5667814089319
 30
0
 42
-0.00361433953025439
  0
VERTEX
  8
1
 10
332.0390548340615
 20
286.4751529673158
 30
0
 42
-0.00120208979658808
  0
VERTEX
  8
1
 10
331.3099549497616
 20
286.3904375283049
 30
0
  0
SEQEND
  8
1
  0
POLYLINE
  8
1
 62
3
 66
1
  0
VERTEX
  8
1
 10
289.2000025053719
 20
281.2896195016268
 30
0
 42
-0.000294362523579963
  0
VERTEX
  8
1
 10
288.4770208846533
 20
281.1777729408964
 30
0
 42
-0.0008817296300372539
  0
VERTEX
  8
1
 10
287.7532213393013
 20
281.0675431418081
 30
0
 42
-0.001464990072465994
  0
VERTEX
  8
1
 10
287.0277859446829
 20
280.9605468660045
 30
0
 42
-0.002041299421599613
  0
VERTEX
  8
1
 10
286.2998967761648
 20
280.8584008751277
 30
0
 42
-0.002607663119941601
  0
VERTEX
  8
1
 10
285.5687359091137
 20
280.7627219308201
 30
0
 42
-0.003565789052186368
  0
VERTEX
  8
1
 10
285.091273048298
 20
280.705772203299
 30
0
 42
-0.006974058786498789
  0
VERTEX
  8
1
 10
284.6131322763024
 20
280.6589299119213
 30
0
 42
-0.01046734541293011
  0
VERTEX
  8
1
 10
284.1353655656874
 20
280.6288830950483
 30
0
 42
-0.01406324816676209
  0
VERTEX
  8
1
 10
283.6590248890133
 20
280.622319791041
 30
0
 42
-0.04238687832031686
  0
VERTEX
  8
1
 10
282.5302554577818
 20
280.7345333267223
 30
0
 42
-0.0127565571105245
  0
VERTEX
  8
1
 10
281.8795726228175
 20
280.8696675077365
 30
0
 42
-0.003311590302355088
  0
VERTEX
  8
1
 10
281.2304875246493
 20
281.0263314456131
 30
0
 42
0.006018803926409791
  0
VERTEX
  8
1
 10
280.5803739739783
 20
281.179526004662
 30
0
 42
0.01543555656003222
  0
VERTEX
  8
1
 10
279.9266057815058
 20
281.3042520491929
 30
0
 42
0.01835179206118583
  0
VERTEX
  8
1
 10
279.3461375597063
 20
281.3748021380164
 30
0
 42
0.0105686144598732
  0
VERTEX
  8
1
 10
278.7620165795312
 20
281.4117155302172
 30
0
 42
0.01150728188685631
  0
VERTEX
  8
1
 10
278.1754630672729
 20
281.4228384214135
 30
0
 42
0.003776246101009376
  0
VERTEX
  8
1
 10
277.5876972492243
 20
281.4160170072238
 30
0
 42
0.00481053892154904
  0
VERTEX
  8
1
 10
276.9999393516778
 20
281.3990974832665
 30
0
 42
0.0009324995728375706
  0
VERTEX
  8
1
 10
276.3774276819732
 20
281.3773814280899
 30
0
 42
0.0007280294780126821
  0
VERTEX
  8
1
 10
275.7560219869242
 20
281.3536374720253
 30
0
 42
0.000520975588958573
  0
VERTEX
  8
1
 10
275.1354457728669
 20
281.3283725902948
 30
0
 42
0.0003134104114316366
  0
VERTEX
  8
1
 10
274.5154225461374
 20
281.3020937581201
 30
0
 42
0.0001042969047684638
  0
VERTEX
  8
1
 10
273.8956758130718
 20
281.2753079507234
 30
0
  0
SEQEND
  8
1
  0
POLYLINE
  8
1
 62
3
 66
1
  0
VERTEX
  8
1
 10
290.2221227566428
 20
282.3904375283049
 30
0
 42
0.000314870099992934
  0
VERTEX
  8
1
 10
289.9309355408329
 20
282.3693009426212
 30
0
 42
0.0009449789263778134
  0
VERTEX
  8
1
 10
289.639887316143
 20
282.3474370920631
 30
0
 42
0.001576883993240041
  0
VERTEX
  8
1
 10
289.3491170736933
 20
282.3241187117563
 30
0
 42
0.002211090620216704
  0
VERTEX
  8
1
 10
289.0587638046037
 20
282.2986185368266
 30
0
 42
0.002848557154021625
  0
VERTEX
  8
1
 10
288.7689664999944
 20
282.2702093023997
 30
0
 42
0.006756412269518085
  0
VERTEX
  8
1
 10
288.1043368631284
 20
282.192138775566
 30
0
 42
0.003949607809800152
  0
VERTEX
  8
1
 10
287.4416590756762
 20
282.0998741403986
 30
0
 42
0.00281968120053994
  0
VERTEX
  8
1
 10
286.7792043200233
 20
281.9984802156284
 30
0
 42
0.0004244089955996883
  0
VERTEX
  8
1
 10
286.1152437785551
 20
281.8930218199863
 30
0
 42
-0.001526779813953636
  0
VERTEX
  8
1
 10
285.4480486336568
 20
281.7885637722031
 30
0
 42
-0.003828713700293283
  0
VERTEX
  8
1
 10
284.9827170087465
 20
281.7204474575137
 30
0
 42
-0.008077299980130057
  0
VERTEX
  8
1
 10
284.5163624880914
 20
281.6634713374999
 30
0
 42
-0.01246650744808689
  0
VERTEX
  8
1
 10
284.0503507746371
 20
281.6258568036884
 30
0
 42
-0.01702945909602552
  0
VERTEX
  8
1
 10
283.586047571329
 20
281.6158252476062
 30
0
 42
-0.05240043144343799
  0
VERTEX
  8
1
 10
282.4749471220446
 20
281.7467178931885
 30
0
 42
-0.01461122410700369
  0
VERTEX
  8
1
 10
281.8306237098148
 20
281.9076154675005
 30
0
 42
-0.002053019632278308
  0
VERTEX
  8
1
 10
281.1883975652721
 20
282.0908370723607
 30
0
 42
0.01039734553726221
  0
VERTEX
  8
1
 10
280.5448179092649
 20
282.262928996414
 30
0
 42
0.02316068791097059
  0
VERTEX
  8
1
 10
279.8964339626417
 20
282.3904375283049
 30
0
 42
0.02682260581799976
  0
VERTEX
  8
1
 10
279.3057445304714
 20
282.4462650594791
 30
0
 42
0.01284867864455832
  0
VERTEX
  8
1
 10
278.7100236975206
 20
282.4551445084944
 30
0
 42
0.01264018664596807
  0
VERTEX
  8
1
 10
278.1109465738993
 20
282.4335260077843
 30
0
 42
0.002393804698136238
  0
VERTEX
  8
1
 10
277.5101882697174
 20
282.3978596897821
 30
0
 42
-0.004389826407038032
  0
VERTEX
  8
1
 10
276.9094238950847
 20
282.3645956869215
 30
0
 42
-0.007114942061618592
  0
VERTEX
  8
1
 10
276.3046354165983
 20
282.3467343205026
 30
0
 42
-0.005563552051046735
  0
VERTEX
  8
1
 10
275.7012061795012
 20
282.3442261105474
 30
0
 42
-0.003986604090354091
  0
VERTEX
  8
1
 10
275.0987963734459
 20
282.35323276794
 30
0
 42
-0.002396062566237812
  0
VERTEX
  8
1
 10
274.4970661880852
 20
282.3699160035645
 30
0
 42
-0.0007992743058781212
  0
VERTEX
  8
1
 10
273.8956758130718
 20
282.3904375283049
 30
0
  0
SEQEND
  8
1
  0
POLYLINE
  8
1
 62
3
 66
1
  0
VERTEX
  8
1
 10
273.8956758130718
 20
271.3904375283049
 30
0
 42
0.0001520563532039313
  0
VERTEX
  8
1
 10
274.7961065251079
 20
271.4363488618639
 30
0
 42
0.0004559430651299526
  0
VERTEX
  8
1
 10
275.6968156822464
 20
271.4833725701486
 30
0
 42
0.0007586958598977125
  0
VERTEX
  8
1
 10
276.5980817295903
 20
271.5326210278853
 30
0
 42
0.001059843562869672
  0
VERTEX
  8
1
 10
277.5001831122418
 20
271.5852066097997
 30
0
 42
0.001358440646316797
  0
VERTEX
  8
1
 10
278.4033982753037
 20
271.6422416906179
 30
0
 42
0.001876121247472552
  0
VERTEX
  8
1
 10
279.0131902223003
 20
271.6847102756088
 30
0
 42
0.005028464223905331
  0
VERTEX
  8
1
 10
279.6220912442758
 20
271.7355746318206
 30
0
 42
0.006786548223878018
  0
VERTEX
  8
1
 10
280.2285768724184
 20
271.8006995536526
 30
0
 42
0.01000373869109275
  0
VERTEX
  8
1
 10
280.8311226379164
 20
271.8859498355042
 30
0
 42
0.01181943118257289
  0
VERTEX
  8
1
 10
281.4282040719577
 20
271.9971902717746
 30
0
 42
0.0226029610317874
  0
VERTEX
  8
1
 10
282.418633868102
 20
272.2532889194156
 30
0
 42
0.01776829577902696
  0
VERTEX
  8
1
 10
283.388260991587
 20
272.5894915846594
 30
0
 42
0.01769407885017997
  0
VERTEX
  8
1
 10
284.3361210808242
 20
272.995479271214
 30
0
 42
0.01304024145642315
  0
VERTEX
  8
1
 10
285.2612497742247
 20
273.4609329827871
 30
0
 42
0.01325209981377437
  0
VERTEX
  8
1
 10
286.1626827101997
 20
273.9755337230866
 30
0
 42
0.00650722546812463
  0
VERTEX
  8
1
 10
286.9817385250846
 20
274.4870362806028
 30
0
 42
0.0003492312932115787
  0
VERTEX
  8
1
 10
287.7913847530396
 20
275.0082292688427
 30
0
 42
-0.006990503468444429
  0
VERTEX
  8
1
 10
288.6035780661399
 20
275.5151613588463
 30
0
 42
-0.01414273780460283
  0
VERTEX
  8
1
 10
289.4302751364605
 20
275.9838812216537
 30
0
 42
-0.02139598757928001
  0
VERTEX
  8
1
 10
290.2834326360767
 20
276.3904375283049
 30
0
 42
-0.0175698636519159
  0
VERTEX
  8
1
 10
290.977491637442
 20
276.6540750747643
 30
0
 42
-0.01351685745491969
  0
VERTEX
  8
1
 10
291.6904770614964
 20
276.8752875902507
 30
0
 42
-0.00952874576613685
  0
VERTEX
  8
1
 10
292.4176573025677
 20
277.0646813325074
 30
0
 42
-0.005654478827427882
  0
VERTEX
  8
1
 10
293.1543007549835
 20
277.2328625592778
 30
0
 42
-0.001873214916075527
  0
VERTEX
  8
1
 10
293.8956758130717
 20
277.3904375283049
 30
0
  0
SEQEND
  8
1
  0
POLYLINE
  8
1
 62
3
 66
1
  0
VERTEX
  8
1
 10
273.8956758130718
 20
272.3904375283049
 30
0
 42
0.0001520563532039313
  0
VERTEX
  8
1
 10
274.7961065251079
 20
272.4363488618639
 30
0
 42
0.0004559430651299526
  0
VERTEX
  8
1
 10
275.6968156822464
 20
272.4833725701486
 30
0
 42
0.0007586958598977125
  0
VERTEX
  8
1
 10
276.5980817295903
 20
272.5326210278853
 30
0
 42
0.001059843562901091
  0
VERTEX
  8
1
 10
277.5001831122418
 20
272.5852066097998
 30
0
 42
0.001358440646222705
  0
VERTEX
  8
1
 10
278.4033982753037
 20
272.6422416906179
 30
0
 42
0.001876121247597841
  0
VERTEX
  8
1
 10
279.0131902223003
 20
272.6847102756088
 30
0
 42
0.005028464223780039
  0
VERTEX
  8
1
 10
279.6220912442758
 20
272.7355746318206
 30
0
 42
0.006786548224003979
  0
VERTEX
  8
1
 10
280.2285768724184
 20
272.8006995536526
 30
0
 42
0.01000373869096595
  0
VERTEX
  8
1
 10
280.8311226379164
 20
272.8859498355042
 30
0
 42
0.0118194311827002
  0
VERTEX
  8
1
 10
281.4282040719577
 20
272.9971902717746
 30
0
 42
0.02260296103166044
  0
VERTEX
  8
1
 10
282.418633868102
 20
273.2532889194156
 30
0
 42
0.01776829577915401
  0
VERTEX
  8
1
 10
283.388260991587
 20
273.5894915846594
 30
0
 42
0.01769407885002693
  0
VERTEX
  8
1
 10
284.3361210808242
 20
273.9954792712139
 30
0
 42
0.01304024145662602
  0
VERTEX
  8
1
 10
285.2612497742247
 20
274.4609329827871
 30
0
 42
0.01325209981354674
  0
VERTEX
  8
1
 10
286.1626827101997
 20
274.9755337230866
 30
0
 42
0.006507225468352124
  0
VERTEX
  8
1
 10
286.9817385250846
 20
275.4870362806028
 30
0
 42
0.000349231292984427
  0
VERTEX
  8
1
 10
287.7913847530396
 20
276.0082292688427
 30
0
 42
-0.006990503468393135
  0
VERTEX
  8
1
 10
288.6035780661399
 20
276.5151613588463
 30
0
 42
-0.01414273780455197
  0
VERTEX
  8
1
 10
289.4302751364605
 20
276.9838812216537
 30
0
 42
-0.02139598757928001
  0
VERTEX
  8
1
 10
290.2834326360767
 20
277.3904375283049
 30
0
 42
-0.01756986365205916
  0
VERTEX
  8
1
 10
290.977491637442
 20
277.6540750747643
 30
0
 42
-0.01351685745477423
  0
VERTEX
  8
1
 10
291.6904770614964
 20
277.8752875902507
 30
0
 42
-0.00952874576613685
  0
VERTEX
  8
1
 10
292.4176573025677
 20
278.0646813325074
 30
0
 42
-0.005654478827501381
  0
VERTEX
  8
1
 10
293.1543007549835
 20
278.2328625592778
 30
0
 42
-0.001873214916149024
  0
VERTEX
  8
1
 10
293.8956758130717
 20
278.3904375283049
 30
0
  0
SEQEND
  8
1
  0
POLYLINE
  8
1
 62
3
 66
1
  0
VERTEX
  8
1
 10
273.8956758130718
 20
273.8904375283049
 30
0
 42
0.001250144812358223
  0
VERTEX
  8
1
 10
274.6337585783032
 20
273.8607373687457
 30
0
 42
0.003757595866991758
  0
VERTEX
  8
1
 10
275.3710608984279
 20
273.8384622490763
 30
0
 42
0.006297950553665786
  0
VERTEX
  8
1
 10
276.1068023283391
 20
273.8310372091865
 30
0
 42
0.00887090099123331
  0
VERTEX
  8
1
 10
276.8402024229304
 20
273.8458872889661
 30
0
 42
0.01147156471205397
  0
VERTEX
  8
1
 10
277.5704807370947
 20
273.8904375283049
 30
0
 42
0.01254792155287679
  0
VERTEX
  8
1
 10
278.3256316559777
 20
273.9730502336993
 30
0
 42
0.007042539110108523
  0
VERTEX
  8
1
 10
279.0783904839556
 20
274.085390722795
 30
0
 42
0.005557307952601709
  0
VERTEX
  8
1
 10
279.8305786329448
 20
274.2171001335404
 30
0
 42
9.171228507388237e-005
  0
VERTEX
  8
1
 10
280.5840175148611
 20
274.3578196038841
 30
0
 42
-0.002321053770403826
  0
VERTEX
  8
1
 10
281.3405285416208
 20
274.4971902717746
 30
0
 42
-0.001201310525961045
  0
VERTEX
  8
1
 10
282.1575643646522
 20
274.6390676082808
 30
0
 42
0.005027277254699083
  0
VERTEX
  8
1
 10
282.9726301097721
 20
274.7870230091542
 30
0
 42
0.01135044803566846
  0
VERTEX
  8
1
 10
283.7781016064133
 20
274.9606617589713
 30
0
 42
0.01794427143883808
  0
VERTEX
  8
1
 10
284.5663546840086
 20
275.1795891423089
 30
0
 42
0.04827825323418762
  0
VERTEX
  8
1
 10
286.0275184886364
 20
275.8030090063973
 30
0
 42
0.008490223132811279
  0
VERTEX
  8
1
 10
286.7071708134022
 20
276.1892130144424
 30
0
 42
0.003152034215364597
  0
VERTEX
  8
1
 10
287.3798810481625
 20
276.5924750209322
 30
0
 42
-0.009118567119183801
  0
VERTEX
  8
1
 10
288.0568080947919
 20
276.9832475789199
 30
0
 42
-0.01940348389047204
  0
VERTEX
  8
1
 10
288.7491108551648
 20
277.3319832414589
 30
0
 42
-0.03006721513016771
  0
VERTEX
  8
1
 10
289.7205278072354
 20
277.6998644117132
 30
0
 42
-0.02315593798540603
  0
VERTEX
  8
1
 10
290.7305421189798
 20
277.9636187067108
 30
0
 42
-0.01618042258607579
  0
VERTEX
  8
1
 10
291.7695044504796
 20
278.1492778452658
 30
0
 42
-0.009504695469799068
  0
VERTEX
  8
1
 10
292.8277654618165
 20
278.2828735461924
 30
0
 42
-0.003129060246778163
  0
VERTEX
  8
1
 10
293.8956758130717
 20
278.3904375283049
 30
0
  0
SEQEND
  8
1
  0
POLYLINE
  8
1
 62
3
 66
1
  0
VERTEX
  8
1
 10
273.8956758130718
 20
274.8904375283049
 30
0
 42
0.001152801735499782
  0
VERTEX
  8
1
 10
274.6331223596659
 20
274.8631038778438
 30
0
 42
0.003463756523333836
  0
VERTEX
  8
1
 10
275.3699475158126
 20
274.842603639998
 30
0
 42
0.005799164164920589
  0
VERTEX
  8
1
 10
276.1055298910646
 20
274.8357702273826
 30
0
 42
0.008158172994379667
  0
VERTEX
  8
1
 10
276.8392480949744
 20
274.8494370526133
 30
0
 42
0.01053592694594233
  0
VERTEX
  8
1
 10
277.5704807370947
 20
274.8904375283049
 30
0
 42
0.01177436222933185
  0
VERTEX
  8
1
 10
278.3272973548949
 20
274.9668544207959
 30
0
 42
0.007768041546078176
  0
VERTEX
  8
1
 10
279.0817348128541
 20
275.0729509979877
 30
0
 42
0.006923755484837459
  0
VERTEX
  8
1
 10
279.8347687423658
 20
275.2015144032811
 30
0
 42
0.002936010792504537
  0
VERTEX
  8
1
 10
280.5873747748236
 20
275.3453317800766
 30
0
 42
0.0021371604040316
  0
VERTEX
  8
1
 10
281.3405285416208
 20
275.4971902717746
 30
0
 42
0.000515232584575112
  0
VERTEX
  8
1
 10
282.1595949860033
 20
275.6668652393622
 30
0
 42
0.008980172020453968
  0
VERTEX
  8
1
 10
282.9742563493596
 20
275.8518279360119
 30
0
 42
0.009777534548780539
  0
VERTEX
  8
1
 10
283.7783081535617
 20
276.0663877534386
 30
0
 42
0.01845505424887219
  0
VERTEX
  8
1
 10
284.5655459204815
 20
276.3248540833567
 30
0
 42
0.03922143116260763
  0
VERTEX
  8
1
 10
286.0229632822449
 20
276.9977435635001
 30
0
 42
0.006762279807604887
  0
VERTEX
  8
1
 10
286.7009658538674
 20
277.3899746187119
 30
0
 42
-0.001664850240995314
  0
VERTEX
  8
1
 10
287.3743039386804
 20
277.790405330149
 30
0
 42
-0.01113972042391877
  0
VERTEX
  8
1
 10
288.0535085885056
 20
278.171211544844
 30
0
 42
-0.02096863254672242
  0
VERTEX
  8
1
 10
288.7491108551648
 20
278.5045691098293
 30
0
 42
-0.03144394759790959
  0
VERTEX
  8
1
 10
289.7203030502841
 20
278.844205902987
 30
0
 42
-0.02411662718852649
  0
VERTEX
  8
1
 10
290.7302424430447
 20
279.075533956503
 30
0
 42
-0.01677980776418281
  0
VERTEX
  8
1
 10
291.7692422340365
 20
279.2256304552877
 30
0
 42
-0.009824377807826962
  0
VERTEX
  8
1
 10
292.8276156238489
 20
279.3215725842516
 30
0
 42
-0.003228644692583996
  0
VERTEX
  8
1
 10
293.8956758130717
 20
279.3904375283049
 30
0
  0
SEQEND
  8
1
  0
POLYLINE
  8
1
 62
3
 66
1
  0
VERTEX
  8
1
 10
273.8956758130718
 20
276.3904375283049
 30
0
 42
-0.0006197544448362954
  0
VERTEX
  8
1
 10
274.524553031208
 20
276.4111592646781
 30
0
 42
-0.001858534659346949
  0
VERTEX
  8
1
 10
275.1536485319099
 20
276.4287668126428
 30
0
 42
-0.003094675196062794
  0
VERTEX
  8
1
 10
275.7831805977432
 20
276.4401459837909
 30
0
 42
-0.004324913475718733
  0
VERTEX
  8
1
 10
276.413367511274
 20
276.4421825897138
 30
0
 42
-0.005543773682363837
  0
VERTEX
  8
1
 10
277.0444275550677
 20
276.4317624420033
 30
0
 42
-0.004520796364545251
  0
VERTEX
  8
1
 10
277.7835248422617
 20
276.4030578026301
 30
0
 42
0.0007805678300558392
  0
VERTEX
  8
1
 10
278.5227127283312
 20
276.368815683336
 30
0
 42
0.006092705141485534
  0
VERTEX
  8
1
 10
279.2605891982225
 20
276.3447933923586
 30
0
 42
0.01150964957842369
  0
VERTEX
  8
1
 10
279.9957522368819
 20
276.3467482379357
 30
0
 42
0.01700876146744394
  0
VERTEX
  8
1
 10
280.7267998292556
 20
276.3904375283049
 30
0
 42
0.01240697077932149
  0
VERTEX
  8
1
 10
281.1918268979406
 20
276.4458113517534
 30
0
 42
0.006037178883233662
  0
VERTEX
  8
1
 10
281.655638620803
 20
276.5184761016911
 30
0
 42
0.005589350942232619
  0
VERTEX
  8
1
 10
282.1192769647181
 20
276.6022015857154
 30
0
 42
0.0007533041593570384
  0
VERTEX
  8
1
 10
282.5837838965612
 20
276.6907576114234
 30
0
 42
-0.002573584257684542
  0
VERTEX
  8
1
 10
283.0502013832078
 20
276.7779139864121
 30
0
 42
-0.001804763929005352
  0
VERTEX
  8
1
 10
283.6249710782404
 20
276.878132584689
 30
0
 42
0.004933510209103586
  0
VERTEX
  8
1
 10
284.1985486251854
 20
276.981837195198
 30
0
 42
0.01176870411058792
  0
VERTEX
  8
1
 10
284.765303021695
 20
277.1039846220336
 30
0
 42
0.01888827476040816
  0
VERTEX
  8
1
 10
285.3196032654217
 20
277.2595316692903
 30
0
 42
0.05449544957783992
  0
VERTEX
  8
1
 10
286.4181743115927
 20
277.7504365050212
 30
0
 42
0.005924946793800475
  0
VERTEX
  8
1
 10
286.9646402654984
 20
278.0787257852142
 30
0
 42
5.930991554408106e-005
  0
VERTEX
  8
1
 10
287.5076893668006
 20
278.4138719328005
 30
0
 42
-0.01842206213847302
  0
VERTEX
  8
1
 10
288.0597947665645
 20
278.7214438989398
 30
0
 42
-0.03355665101487894
  0
VERTEX
  8
1
 10
288.6334296158557
 20
278.9670106347913
 30
0
 42
-0.02601541318563311
  0
VERTEX
  8
1
 10
289.0564117218164
 20
279.087828064311
 30
0
 42
-0.01999312491777789
  0
VERTEX
  8
1
 10
289.4924208356321
 20
279.1699710432186
 30
0
 42
-0.01415542656701375
  0
VERTEX
  8
1
 10
289.9375644135662
 20
279.2227514093498
 30
0
 42
-0.008632739803966172
  0
VERTEX
  8
1
 10
290.3879499118822
 20
279.2554810005399
 30
0
 42
-0.003342474864370107
  0
VERTEX
  8
1
 10
290.8396847868434
 20
279.2774716546246
 30
0
 42
-0.0009058135989685668
  0
VERTEX
  8
1
 10
291.4566324394971
 20
279.3032911341625
 30
0
 42
-0.0007135431988534148
  0
VERTEX
  8
1
 10
292.069747127212
 20
279.3269597438326
 30
0
 42
-0.0005145810279825482
  0
VERTEX
  8
1
 10
292.679987091223
 20
279.3490152011016
 30
0
 42
-0.0003107331200494301
  0
VERTEX
  8
1
 10
293.2883105727647
 20
279.3699952234368
 30
0
 42
-0.0001039106373799773
  0
VERTEX
  8
1
 10
293.8956758130717
 20
279.3904375283049
 30
0
  0
SEQEND
  8
1
  0
POLYLINE
  8
1
 62
3
 66
1
  0
VERTEX
  8
1
 10
273.8956758130718
 20
277.3904375283049
 30
0
 42
-0.0005686270056098892
  0
VERTEX
  8
1
 10
274.5248742079642
 20
277.4101453893405
 30
0
 42
-0.001705583657709675
  0
VERTEX
  8
1
 10
275.1542105912333
 20
277.4269925308022
 30
0
 42
-0.002841296066189664
  0
VERTEX
  8
1
 10
275.7838229512557
 20
277.4381182331158
 30
0
 42
-0.003973764666247797
  0
VERTEX
  8
1
 10
276.4138492764083
 20
277.4406617767075
 30
0
 42
-0.005099253580780476
  0
VERTEX
  8
1
 10
277.0444275550677
 20
277.4317624420033
 30
0
 42
-0.004222463661871109
  0
VERTEX
  8
1
 10
277.7825540258334
 20
277.4061224292409
 30
0
 42
0.0005439850100645121
  0
VERTEX
  8
1
 10
278.520739274164
 20
277.3750453885402
 30
0
 42
0.005315690746510247
  0
VERTEX
  8
1
 10
279.2580985145307
 20
277.3526558628507
 30
0
 42
0.01014946503166541
  0
VERTEX
  8
1
 10
279.9937469614042
 20
277.3530783951224
 30
0
 42
0.01502468512783893
  0
VERTEX
  8
1
 10
280.7267998292556
 20
277.3904375283049
 30
0
 42
0.01137546386005455
  0
VERTEX
  8
1
 10
281.1939640848649
 20
277.4390647828558
 30
0
 42
0.007443944908631785
  0
VERTEX
  8
1
 10
281.6597954080852
 20
277.5053541555137
 30
0
 42
0.007896505749781683
  0
VERTEX
  8
1
 10
282.1243847588961
 20
277.5860775467068
 30
0
 42
0.003997182846965682
  0
VERTEX
  8
1
 10
282.5878230972771
 20
277.6780068568635
 30
0
 42
0.004492470942643712
  0
VERTEX
  8
1
 10
283.0502013832078
 20
277.7779139864121
 30
0
 42
0.002764412573566656
  0
VERTEX
  8
1
 10
283.6246370899009
 20
277.9107881101855
 30
0
 42
0.009311519232919974
  0
VERTEX
  8
1
 10
284.1949921472479
 20
278.0573145594193
 30
0
 42
0.008520636601194309
  0
VERTEX
  8
1
 10
284.7586910483293
 20
278.2237686496051
 30
0
 42
0.01512273039607352
  0
VERTEX
  8
1
 10
285.3131582862257
 20
278.4164256962347
 30
0
 42
0.01430393938633406
  0
VERTEX
  8
1
 10
285.8558183540177
 20
278.6415610147998
 30
0
 42
0.01731454526719938
  0
VERTEX
  8
1
 10
286.4110839367261
 20
278.9142461299225
 30
0
 42
0.003504480622738794
  0
VERTEX
  8
1
 10
286.958509197165
 20
279.2063308002439
 30
0
 42
-0.006277921058190517
  0
VERTEX
  8
1
 10
287.5060627924335
 20
279.4946178750031
 30
0
 42
-0.01631292714598462
  0
VERTEX
  8
1
 10
288.0617133796307
 20
279.7559102034393
 30
0
 42
-0.02662680848185902
  0
VERTEX
  8
1
 10
288.6334296158557
 20
279.9670106347913
 30
0
 42
-0.02074436175730682
  0
VERTEX
  8
1
 10
289.0608714451229
 20
280.0780035200663
 30
0
 42
-0.01631089988932141
  0
VERTEX
  8
1
 10
289.4980633895447
 20
280.1575407831425
 30
0
 42
-0.01199063797499496
  0
VERTEX
  8
1
 10
289.9421599364317
 20
280.2126277055644
 30
0
 42
-0.00784584443566091
  0
VERTEX
  8
1
 10
290.3903155730945
 20
280.2502695688769
 30
0
 42
-0.003838265879039539
  0
VERTEX
  8
1
 10
290.8396847868434
 20
280.2774716546246
 30
0
 42
-0.002306500364995836
  0
VERTEX
  8
1
 10
291.4545723792143
 20
280.3078293424782
 30
0
 42
-0.001809730331297122
  0
VERTEX
  8
1
 10
292.0670003801683
 20
280.3330106882534
 30
0
 42
-0.001301101934965754
  0
VERTEX
  8
1
 10
292.6775836875598
 20
280.3543097774699
 30
0
 42
-0.0007840297045748352
  0
VERTEX
  8
1
 10
293.2869371992429
 20
280.3730206956472
 30
0
 42
-0.0002619039525120189
  0
VERTEX
  8
1
 10
293.8956758130717
 20
280.3904375283049
 30
0
  0
SEQEND
  8
1
  0
POLYLINE
  8
1
 62
3
 66
1
  0
VERTEX
  8
1
 10
273.8956758130718
 20
278.8904375283049
 30
0
 42
-0.0002378208919203543
  0
VERTEX
  8
1
 10
274.5251903400026
 20
278.8976042698888
 30
0
 42
-0.0007133573779172271
  0
VERTEX
  8
1
 10
275.1547638223004
 20
278.9035738337727
 30
0
 42
-0.001188552287166792
  0
VERTEX
  8
1
 10
275.7844552153325
 20
278.9071490422564
 30
0
 42
-0.001663092466788318
  0
VERTEX
  8
1
 10
276.414323474466
 20
278.90713271764
 30
0
 42
-0.002136537293207254
  0
VERTEX
  8
1
 10
277.0444275550677
 20
278.9023276822235
 30
0
 42
-0.001865631803496593
  0
VERTEX
  8
1
 10
277.8567090191785
 20
278.8888574442187
 30
0
 42
0.0005141892356296839
  0
VERTEX
  8
1
 10
278.6690348799335
 20
278.8731907301557
 30
0
 42
0.002895590791012695
  0
VERTEX
  8
1
 10
279.4809600822615
 20
278.8630701197033
 30
0
 42
0.005289608783273045
  0
VERTEX
  8
1
 10
280.292039571091
 20
278.86623819253
 30
0
 42
0.007694918188643002
  0
VERTEX
  8
1
 10
281.1018282913507
 20
278.8904375283049
 30
0
 42
0.00434349997915277
  0
VERTEX
  8
1
 10
281.5338445290848
 20
278.9137679222519
 30
0
 42
0.0002859975231588628
  0
VERTEX
  8
1
 10
281.9658357219653
 20
278.9411105307945
 30
0
 42
-0.001341803219642783
  0
VERTEX
  8
1
 10
282.3982722233275
 20
278.9682656112851
 30
0
 42
-0.003766903632478683
  0
VERTEX
  8
1
 10
282.831624386507
 20
278.9910334210758
 30
0
 42
-0.006169435875747958
  0
VERTEX
  8
1
 10
283.2663625648389
 20
279.005214217519
 30
0
 42
-0.004876619092774401
  0
VERTEX
  8
1
 10
283.7366723575494
 20
279.0088318104806
 30
0
 42
0.001180039295826729
  0
VERTEX
  8
1
 10
284.2072115776988
 20
279.0089770757139
 30
0
 42
0.007259670785000017
  0
VERTEX
  8
1
 10
284.6760525006918
 20
279.0170362531128
 30
0
 42
0.01351855179274754
  0
VERTEX
  8
1
 10
285.141267401933
 20
279.0443955825712
 30
0
 42
0.0199209340100928
  0
VERTEX
  8
1
 10
285.6009285568267
 20
279.1024413039829
 30
0
 42
0.03139252909754924
  0
VERTEX
  8
1
 10
286.2695816289042
 20
279.2577438998599
 30
0
 42
0.01336612539571398
  0
VERTEX
  8
1
 10
286.9274120049929
 20
279.474071776995
 30
0
 42
0.008041575925095761
  0
VERTEX
  8
1
 10
287.5800180483055
 20
279.7201051171829
 30
0
 42
-0.006199739085037881
  0
VERTEX
  8
1
 10
288.2329981220551
 20
279.9645241022188
 30
0
 42
-0.01768287072612601
  0
VERTEX
  8
1
 10
288.8919505894547
 20
280.1760089138973
 30
0
 42
-0.03095415732674076
  0
VERTEX
  8
1
 10
289.8636321515641
 20
280.3802881211268
 30
0
 42
-0.02393841117519154
  0
VERTEX
  8
1
 10
290.8546893687494
 20
280.4769716721243
 30
0
 42
-0.01676213531400815
  0
VERTEX
  8
1
 10
291.8602783272418
 20
280.4929584809478
 30
0
 42
-0.009855059173506396
  0
VERTEX
  8
1
 10
292.8755551132722
 20
280.4551474616554
 30
0
 42
-0.003245338130062986
  0
VERTEX
  8
1
 10
293.8956758130717
 20
280.3904375283049
 30
0
  0
SEQEND
  8
1
  0
POLYLINE
  8
1
 62
3
 66
1
  0
VERTEX
  8
1
 10
273.8956758130718
 20
279.8904375283049
 30
0
 42
-0.000233551910313699
  0
VERTEX
  8
1
 10
274.5252170641164
 20
279.8975187803737
 30
0
 42
-0.0007005663858921755
  0
VERTEX
  8
1
 10
275.1548105894996
 20
279.9034242271212
 30
0
 42
-0.00116728847338987
  0
VERTEX
  8
1
 10
275.7845086635601
 20
279.9069780632261
 30
0
 42
-0.00163344221518905
  0
VERTEX
  8
1
 10
276.4143635606366
 20
279.9070044833673
 30
0
 42
-0.00209863067771891
  0
VERTEX
  8
1
 10
277.0444275550677
 20
279.9023276822235
 30
0
 42
-0.001836296501816101
  0
VERTEX
  8
1
 10
277.8566179608063
 20
279.8891487368002
 30
0
 42
0.0004944346747797079
  0
VERTEX
  8
1
 10
278.6688477945919
 20
279.8737892096894
 30
0
 42
0.002826535781203578
  0
VERTEX
  8
1
 10
279.4807224991365
 20
279.8638301398984
 30
0
 42
0.005169687816565543
  0
VERTEX
  8
1
 10
280.291847517152
 20
279.8668525664345
 30
0
 42
0.007522252505496018
  0
VERTEX
  8
1
 10
281.1018282913507
 20
279.8904375283049
 30
0
 42
0.004271185293962141
  0
VERTEX
  8
1
 10
281.5340117227386
 20
279.9132330755391
 30
0
 42
0.0004085886510371875
  0
VERTEX
  8
1
 10
281.9661564256417
 20
279.9400846108316
 30
0
 42
-0.001118848494137709
  0
VERTEX
  8
1
 10
282.3986628401997
 20
279.9670160414283
 30
0
 42
-0.003415133681072703
  0
VERTEX
  8
1
 10
282.8319314065523
 20
279.9900512745754
 30
0
 42
-0.005694717497660103
  0
VERTEX
  8
1
 10
283.2663625648389
 20
280.005214217519
 30
0
 42
-0.00457498568090238
  0
VERTEX
  8
1
 10
283.7360785682718
 20
280.0107313218311
 30
0
 42
0.0009489473346485606
  0
VERTEX
  8
1
 10
284.2060020139097
 20
280.0128464284175
 30
0
 42
0.006488725919599103
  0
VERTEX
  8
1
 10
284.6745240570299
 20
280.0219256914944
 30
0
 42
0.01215971397402933
  0
VERTEX
  8
1
 10
285.1400358529099
 20
280.0483352652774
 30
0
 42
0.0179365794338738
  0
VERTEX
  8
1
 10
285.6009285568267
 20
280.1024413039829
 30
0
 42
0.02806143278813592
  0
VERTEX
  8
1
 10
286.2677116143599
 20
280.2437502904785
 30
0
 42
0.01206734520088566
  0
VERTEX
  8
1
 10
286.925632837475
 20
280.4394221341159
 30
0
 42
0.007302900515390221
  0
VERTEX
  8
1
 10
287.5792647350863
 20
280.6617144428292
 30
0
 42
-0.005441792991728625
  0
VERTEX
  8
1
 10
288.2331798161081
 20
280.8828848245523
 30
0
 42
-0.0156735263938187
  0
VERTEX
  8
1
 10
288.8919505894547
 20
281.075190887219
 30
0
 42
-0.02763614220706148
  0
VERTEX
  8
1
 10
289.8685942220207
 20
281.2650341209398
 30
0
 42
-0.02140139376491683
  0
VERTEX
  8
1
 10
290.8613054626915
 20
281.3584077919783
 30
0
 42
-0.01504769255772996
  0
VERTEX
  8
1
 10
291.8660674094412
 20
281.379429291005
 30
0
 42
-0.008883408330696821
  0
VERTEX
  8
1
 10
292.8788631602433
 20
281.3522160086905
 30
0
 42
-0.002932426850840948
  0
VERTEX
  8
1
 10
293.8956758130717
 20
281.3008853357054
 30
0
  0
SEQEND
  8
1
  0
POLYLINE
  8
1
 62
3
 66
1
  0
VERTEX
  8
1
 10
273.8956758130718
 20
283.8592753816461
 30
0
 42
-0.001460442418308592
  0
VERTEX
  8
1
 10
274.5287043292025
 20
283.895375016376
 30
0
 42
-0.004397959821641528
  0
VERTEX
  8
1
 10
275.1609133034002
 20
283.9240078497564
 30
0
 42
-0.007379722782401482
  0
VERTEX
  8
1
 10
275.7914831937322
 20
283.9377070804377
 30
0
 42
-0.01041556889187695
  0
VERTEX
  8
1
 10
276.4195944582657
 20
283.9290059070704
 30
0
 42
-0.01348354551994102
  0
VERTEX
  8
1
 10
277.0444275550677
 20
283.8904375283049
 30
0
 42
-0.01852174853766695
  0
VERTEX
  8
1
 10
277.8675927673431
 20
283.7848061163076
 30
0
 42
-0.0156258327998438
  0
VERTEX
  8
1
 10
278.6842284498259
 20
283.6227078672241
 30
0
 42
-0.01270868136944507
  0
VERTEX
  8
1
 10
279.4950215997993
 20
283.4134253241393
 30
0
 42
-0.009851910915046676
  0
VERTEX
  8
1
 10
280.3006592145465
 20
283.1662410301379
 30
0
 42
-0.007085593377836241
  0
VERTEX
  8
1
 10
281.1018282913507
 20
282.8904375283049
 30
0
 42
-0.0001477941853299087
  0
VERTEX
  8
1
 10
281.5317924767825
 20
282.7349209223099
 30
0
 42
0.005767172919401475
  0
VERTEX
  8
1
 10
281.9619441705
 20
282.5847641047902
 30
0
 42
0.01182779522912077
  0
VERTEX
  8
1
 10
282.3935671988504
 20
282.4509328160592
 30
0
 42
0.01824629362290811
  0
VERTEX
  8
1
 10
282.827945388181
 20
282.3443927964302
 30
0
 42
0.02476807313175978
  0
VERTEX
  8
1
 10
283.2663625648389
 20
282.2761097862166
 30
0
 42
0.02753061669699335
  0
VERTEX
  8
1
 10
283.7272282227004
 20
282.2530776655806
 30
0
 42
0.01481336585955132
  0
VERTEX
  8
1
 10
284.1924808111216
 20
282.2692459547751
 30
0
 42
0.01190430324310881
  0
VERTEX
  8
1
 10
284.6607571698108
 20
282.3106410657797
 30
0
 42
0.002183927244504326
  0
VERTEX
  8
1
 10
285.1306941384764
 20
282.3632894105738
 30
0
 42
-0.005081831714958933
  0
VERTEX
  8
1
 10
285.6009285568267
 20
282.4132174011369
 30
0
 42
-0.01107023940324973
  0
VERTEX
  8
1
 10
286.2613310902703
 20
282.4596652892899
 30
0
 42
-0.008484735428465727
  0
VERTEX
  8
1
 10
286.9201286386236
 20
282.480142663096
 30
0
 42
-0.005824984950496886
  0
VERTEX
  8
1
 10
287.577827123518
 20
282.4817455411635
 30
0
 42
-0.003132588015329944
  0
VERTEX
  8
1
 10
288.2349324665846
 20
282.471569942101
 30
0
 42
-0.000430019776493563
  0
VERTEX
  8
1
 10
288.8919505894547
 20
282.4567118845168
 30
0
 42
0.001259723772546745
  0
VERTEX
  8
1
 10
289.8915341552023
 20
282.4367617907008
 30
0
 42
0.0009782375384941554
  0
VERTEX
  8
1
 10
290.8918920402671
 20
282.4212751786004
 30
0
 42
0.0006981689224326766
  0
VERTEX
  8
1
 10
291.8928306648198
 20
282.409136177787
 30
0
 42
0.0004184329133829103
  0
VERTEX
  8
1
 10
292.8941564490311
 20
282.3992289178315
 30
0
 42
0.0001395634117061505
  0
VERTEX
  8
1
 10
293.8956758130717
 20
282.3904375283049
 30
0
  0
SEQEND
  8
1
  0
POLYLINE
  8
1
 62
3
 66
1
  0
VERTEX
  8
1
 10
273.8956758130718
 20
284.8904375283049
 30
0
 42
-0.001393915121759076
  0
VERTEX
  8
1
 10
274.5287111291798
 20
284.9188788331316
 30
0
 42
-0.004196304011972022
  0
VERTEX
  8
1
 10
275.1609252033607
 20
284.9402098117516
 30
0
 42
-0.007037433262412735
  0
VERTEX
  8
1
 10
275.7914967936871
 20
284.9473201379583
 30
0
 42
-0.009926024469204004
  0
VERTEX
  8
1
 10
276.4196046582318
 20
284.933099485545
 30
0
 42
-0.01284330496700996
  0
VERTEX
  8
1
 10
277.0444275550677
 20
284.8904375283049
 30
0
 42
-0.01770265890847256
  0
VERTEX
  8
1
 10
277.8676073101761
 20
284.781900059692
 30
0
 42
-0.01507171499084202
  0
VERTEX
  8
1
 10
278.68424606094
 20
284.619188683926
 30
0
 42
-0.01241504341035093
  0
VERTEX
  8
1
 10
279.4950350077781
 20
284.4107460424665
 30
0
 42
-0.009804710122968994
  0
VERTEX
  8
1
 10
280.3006653511089
 20
284.165014776773
 30
0
 42
-0.007270830576872073
  0
VERTEX
  8
1
 10
281.1018282913507
 20
283.8904375283049
 30
0
 42
-0.0002864829084012187
  0
VERTEX
  8
1
 10
281.5317909413247
 20
283.7352277488593
 30
0
 42
0.005668233751343477
  0
VERTEX
  8
1
 10
281.9619422572254
 20
283.5851464295124
 30
0
 42
0.01176641970680825
  0
VERTEX
  8
1
 10
282.3935656754878
 20
283.4512372256794
 30
0
 42
0.01822351206903082
  0
VERTEX
  8
1
 10
282.8279446325472
 20
283.3445437927758
 30
0
 42
0.02478922320225607
  0
VERTEX
  8
1
 10
283.2663625648389
 20
283.2761097862165
 30
0
 42
0.02758139801240242
  0
VERTEX
  8
1
 10
283.727228667234
 20
283.2529888355765
 30
0
 42
0.01483379378689151
  0
VERTEX
  8
1
 10
284.1924813719169
 20
283.2691338925222
 30
0
 42
0.01193127750361178
  0
VERTEX
  8
1
 10
284.6607576246008
 20
283.3105501862799
 30
0
 42
0.00219047892570675
  0
VERTEX
  8
1
 10
285.1306943709996
 20
283.3632429460761
 30
0
 42
-0.005086201686906771
  0
VERTEX
  8
1
 10
285.6009285568267
 20
283.4132174011369
 30
0
 42
-0.01108267781618741
  0
VERTEX
  8
1
 10
286.2613308927836
 20
283.4597047525467
 30
0
 42
-0.008493923054689002
  0
VERTEX
  8
1
 10
286.9201283878492
 20
283.4801927746915
 30
0
 42
-0.005830763332785086
  0
VERTEX
  8
1
 10
287.5778269181993
 20
283.4817865694694
 30
0
 42
-0.003134911106358722
  0
VERTEX
  8
1
 10
288.2349323600092
 20
283.4715912387785
 30
0
 42
-0.0004288851269804535
  0
VERTEX
  8
1
 10
288.8919505894547
 20
283.4567118845168
 30
0
 42
0.001263637240841255
  0
VERTEX
  8
1
 10
289.8915342595705
 20
283.4367409350805
 30
0
 42
0.00098127744201986
  0
VERTEX
  8
1
 10
290.8918921794246
 20
283.4212473711068
 30
0
 42
0.000700338591805174
  0
VERTEX
  8
1
 10
291.8928307865826
 20
283.4091118462301
 30
0
 42
0.0004197335023372171
  0
VERTEX
  8
1
 10
292.8941565186099
 20
283.3992150140847
 30
0
 42
0.000139997076604622
  0
VERTEX
  8
1
 10
293.8956758130717
 20
283.3904375283049
 30
0
  0
SEQEND
  8
1
  0
POLYLINE
  8
1
 62
3
 66
1
  0
VERTEX
  8
1
 10
273.8956758130718
 20
286.3844779069357
 30
0
 42
-0.001487848289255158
  0
VERTEX
  8
1
 10
274.5277692074709
 20
286.415955837555
 30
0
 42
-0.00447650503433893
  0
VERTEX
  8
1
 10
275.1592768403699
 20
286.439862266588
 30
0
 42
-0.007497884543685053
  0
VERTEX
  8
1
 10
275.7896129502691
 20
286.4486256924482
 30
0
 42
-0.01055265308887286
  0
VERTEX
  8
1
 10
276.4181917756683
 20
286.4346746135493
 30
0
 42
-0.01360823765821899
  0
VERTEX
  8
1
 10
277.0444275550677
 20
286.3904375283049
 30
0
 42
-0.01778042054243073
  0
VERTEX
  8
1
 10
277.7991080262095
 20
286.2881837897597
 30
0
 42
-0.01672861272989912
  0
VERTEX
  8
1
 10
278.5470864915264
 20
286.1336962895454
 30
0
 42
-0.01573533131206039
  0
VERTEX
  8
1
 10
279.2859619486912
 20
285.9303356586036
 30
0
 42
-0.01482389590195507
  0
VERTEX
  8
1
 10
280.0133333953767
 20
285.6814625278761
 30
0
 42
-0.01400939333505922
  0
VERTEX
  8
1
 10
280.7267998292556
 20
285.3904375283049
 30
0
 42
-0.0057559864921368
  0
VERTEX
  8
1
 10
281.1897719906559
 20
285.1788168717737
 30
0
 42
0.0007264045252479136
  0
VERTEX
  8
1
 10
281.6496183558431
 20
284.9630038714543
 30
0
 42
0.007266235803948104
  0
VERTEX
  8
1
 10
282.1103187957254
 20
284.7557102291818
 30
0
 42
0.01402911607729688
  0
VERTEX
  8
1
 10
282.5758531812109
 20
284.5696476467914
 30
0
 42
0.02092265011958681
  0
VERTEX
  8
1
 10
283.0502013832078
 20
284.4175278261182
 30
0
 42
0.02585205553160761
  0
VERTEX
  8
1
 10
283.5962725107798
 20
284.2972497761799
 30
0
 42
0.01307870543577922
  0
VERTEX
  8
1
 10
284.1541619672071
 20
284.2192279749532
 30
0
 42
0.01031549261523467
  0
VERTEX
  8
1
 10
284.7195775569295
 20
284.1669687697715
 30
0
 42
0.0004827589536805356
  0
VERTEX
  8
1
 10
285.2882270843865
 20
284.1239785079681
 30
0
 42
-0.006885535425679687
  0
VERTEX
  8
1
 10
285.8558183540177
 20
284.0737635368761
 30
0
 42
-0.008649353238027485
  0
VERTEX
  8
1
 10
286.4152506526134
 20
284.0045741795465
 30
0
 42
-0.004805729940523834
  0
VERTEX
  8
1
 10
286.9710663848319
 20
283.9205806604841
 30
0
 42
-0.0009220831190695504
  0
VERTEX
  8
1
 10
287.5249270939365
 20
283.8303764827613
 30
0
 42
0.002980105105076571
  0
VERTEX
  8
1
 10
288.07849432319
 20
283.7425551494501
 30
0
 42
0.00688724087548329
  0
VERTEX
  8
1
 10
288.6334296158557
 20
283.6657101636229
 30
0
 42
0.007194387541191439
  0
VERTEX
  8
1
 10
289.072559698246
 20
283.6174599892577
 30
0
 42
0.004252160956863772
  0
VERTEX
  8
1
 10
289.5131605984445
 20
283.5792327289674
 30
0
 42
0.004734714785853272
  0
VERTEX
  8
1
 10
289.9548219745468
 20
283.5488998796961
 30
0
 42
0.001808389311841227
  0
VERTEX
  8
1
 10
290.3971334846479
 20
283.5243329383875
 30
0
 42
0.002305351000399307
  0
VERTEX
  8
1
 10
290.8396847868434
 20
283.5034034019853
 30
0
 42
3.675170181216984e-005
  0
VERTEX
  8
1
 10
291.4512740797386
 20
283.4773501654842
 30
0
 42
0.001837690898369083
  0
VERTEX
  8
1
 10
292.0626026475341
 20
283.4536036368263
 30
0
 42
0.0005865993104888812
  0
VERTEX
  8
1
 10
292.6737356715048
 20
283.4315871390511
 30
0
 42
0.0003522223078473204
  0
VERTEX
  8
1
 10
293.2847383329257
 20
283.4107239951975
 30
0
 42
0.0001173843015205536
  0
VERTEX
  8
1
 10
293.8956758130717
 20
283.3904375283049
 30
0
  0
SEQEND
  8
1
  0
POLYLINE
  8
1
 62
3
 66
1
  0
VERTEX
  8
1
 10
273.8956758130718
 20
287.3844779069357
 30
0
 42
-0.001487848289075523
  0
VERTEX
  8
1
 10
274.5277692074709
 20
287.415955837555
 30
0
 42
-0.00447650503415907
  0
VERTEX
  8
1
 10
275.1592768403699
 20
287.439862266588
 30
0
 42
-0.007497884543685053
  0
VERTEX
  8
1
 10
275.7896129502691
 20
287.4486256924482
 30
0
 42
-0.01055265308887286
  0
VERTEX
  8
1
 10
276.4181917756683
 20
287.4346746135493
 30
0
 42
-0.01360823765821899
  0
VERTEX
  8
1
 10
277.0444275550677
 20
287.3904375283049
 30
0
 42
-0.01778042054243073
  0
VERTEX
  8
1
 10
277.7991080262095
 20
287.2881837897597
 30
0
 42
-0.01672861272989912
  0
VERTEX
  8
1
 10
278.5470864915264
 20
287.1336962895454
 30
0
 42
-0.01573533131206039
  0
VERTEX
  8
1
 10
279.2859619486912
 20
286.9303356586036
 30
0
 42
-0.01482389590181515
  0
VERTEX
  8
1
 10
280.0133333953767
 20
286.6814625278761
 30
0
 42
-0.01400939333519581
  0
VERTEX
  8
1
 10
280.7267998292556
 20
286.3904375283049
 30
0
 42
-0.005755986491933844
  0
VERTEX
  8
1
 10
281.1897719906559
 20
286.1788168717737
 30
0
 42
0.0007264045254505294
  0
VERTEX
  8
1
 10
281.6496183558431
 20
285.9630038714543
 30
0
 42
0.007266235803745478
  0
VERTEX
  8
1
 10
282.1103187957254
 20
285.7557102291818
 30
0
 42
0.01402911607749954
  0
VERTEX
  8
1
 10
282.5758531812109
 20
285.5696476467914
 30
0
 42
0.02092265011938378
  0
VERTEX
  8
1
 10
283.0502013832078
 20
285.4175278261182
 30
0
 42
0.02585205553180875
  0
VERTEX
  8
1
 10
283.5962725107798
 20
285.2972497761799
 30
0
 42
0.01307870543557429
  0
VERTEX
  8
1
 10
284.1541619672071
 20
285.2192279749532
 30
0
 42
0.01031549261543947
  0
VERTEX
  8
1
 10
284.7195775569295
 20
285.1669687697715
 30
0
 42
0.0004827589534816946
  0
VERTEX
  8
1
 10
285.2882270843865
 20
285.1239785079681
 30
0
 42
-0.006885535425679687
  0
VERTEX
  8
1
 10
285.8558183540177
 20
285.0737635368761
 30
0
 42
-0.008649353238227783
  0
VERTEX
  8
1
 10
286.4152506526134
 20
285.0045741795465
 30
0
 42
-0.004805729940523834
  0
VERTEX
  8
1
 10
286.9710663848319
 20
284.9205806604841
 30
0
 42
-0.0009220831190695504
  0
VERTEX
  8
1
 10
287.5249270939365
 20
284.8303764827613
 30
0
 42
0.002980105105076571
  0
VERTEX
  8
1
 10
288.07849432319
 20
284.7425551494501
 30
0
 42
0.00688724087548329
  0
VERTEX
  8
1
 10
288.6334296158557
 20
284.6657101636229
 30
0
 42
0.007194387541191439
  0
VERTEX
  8
1
 10
289.072559698246
 20
284.6174599892577
 30
0
 42
0.004252160956863772
  0
VERTEX
  8
1
 10
289.5131605984445
 20
284.5792327289674
 30
0
 42
0.004734714785917389
  0
VERTEX
  8
1
 10
289.9548219745468
 20
284.5488998796962
 30
0
 42
0.001808389311648992
  0
VERTEX
  8
1
 10
290.3971334846479
 20
284.5243329383875
 30
0
 42
0.002305351000655325
  0
VERTEX
  8
1
 10
290.8396847868434
 20
284.5034034019853
 30
0
 42
3.675170150974508e-005
  0
VERTEX
  8
1
 10
291.4512740797386
 20
284.4773501654841
 30
0
 42
0.001837690898764268
  0
VERTEX
  8
1
 10
292.0626026475341
 20
284.4536036368263
 30
0
 42
0.0005865993104888812
  0
VERTEX
  8
1
 10
292.6737356715048
 20
284.4315871390511
 30
0
 42
0.0003522223078473204
  0
VERTEX
  8
1
 10
293.2847383329257
 20
284.4107239951975
 30
0
 42
0.0001173843015205536
  0
VERTEX
  8
1
 10
293.8956758130717
 20
284.3904375283049
 30
0
  0
SEQEND
  8
1
  0
POLYLINE
  8
1
 62
3
 66
1
  0
VERTEX
  8
1
 10
273.8956758130718
 20
288.8904375283049
 30
0
 42
-0.002401515546172816
  0
VERTEX
  8
1
 10
274.6401528750507
 20
288.9487457088574
 30
0
 42
-0.007270061774007674
  0
VERTEX
  8
1
 10
275.382250917736
 20
288.9924768442718
 30
0
 42
-0.01231149283695376
  0
VERTEX
  8
1
 10
276.1195909218342
 20
289.0070538894099
 30
0
 42
-0.01755354876929251
  0
VERTEX
  8
1
 10
276.8497938680516
 20
288.9778997991336
 30
0
 42
-0.02286882021850877
  0
VERTEX
  8
1
 10
277.5704807370947
 20
288.8904375283049
 30
0
 42
-0.02422950548637301
  0
VERTEX
  8
1
 10
278.3401538764218
 20
288.7191143852883
 30
0
 42
-0.01734588071477367
  0
VERTEX
  8
1
 10
279.0989051555591
 20
288.482614999902
 30
0
 42
-0.01066198829474464
  0
VERTEX
  8
1
 10
279.8498246454855
 20
288.2016189081076
 30
0
 42
-0.00424467579659746
  0
VERTEX
  8
1
 10
280.5960024171798
 20
287.8968056458666
 30
0
 42
0.002052424584042959
  0
VERTEX
  8
1
 10
281.3405285416208
 20
287.5888547491406
 30
0
 42
0.006058712418491557
  0
VERTEX
  8
1
 10
282.1370703346228
 20
287.2744218266273
 30
0
 42
0.001620781603952495
  0
VERTEX
  8
1
 10
282.9347597506045
 20
286.9736123380909
 30
0
 42
0.002483729581398851
  0
VERTEX
  8
1
 10
283.7331019331223
 20
286.6800193108113
 30
0
 42
-0.0006697605108317323
  0
VERTEX
  8
1
 10
284.5316020257322
 20
286.3872357720679
 30
0
 42
-0.002478661273250833
  0
VERTEX
  8
1
 10
285.3297651719907
 20
286.0888547491406
 30
0
 42
-0.001095647322534101
  0
VERTEX
  8
1
 10
286.0071097453729
 20
285.8287289536823
 30
0
 42
0.002424872975782275
  0
VERTEX
  8
1
 10
286.685785708337
 20
285.5701613497004
 30
0
 42
0.005958294520867291
  0
VERTEX
  8
1
 10
287.3677239529274
 20
285.3233620609751
 30
0
 42
0.009559540633363756
  0
VERTEX
  8
1
 10
288.0548553711886
 20
285.0985412112869
 30
0
 42
0.01321742970674965
  0
VERTEX
  8
1
 10
288.7491108551648
 20
284.9059089244159
 30
0
 42
0.02072492854069692
  0
VERTEX
  8
1
 10
289.7562186159426
 20
284.6988414796996
 30
0
 42
0.0136735904163921
  0
VERTEX
  8
1
 10
290.7781298639227
 20
284.5610894786461
 30
0
 42
0.01190594914403043
  0
VERTEX
  8
1
 10
291.8111437273047
 20
284.4753240603396
 30
0
 42
0.004970428984429252
  0
VERTEX
  8
1
 10
292.8515593342879
 20
284.4242163638644
 30
0
 42
0.003400932166186031
  0
VERTEX
  8
1
 10
293.8956758130717
 20
284.3904375283049
 30
0
  0
SEQEND
  8
1
  0
POLYLINE
  8
1
 62
3
 66
1
  0
VERTEX
  8
1
 10
273.8956758130718
 20
289.8904375283049
 30
0
 42
-0.002401515546324473
  0
VERTEX
  8
1
 10
274.6401528750507
 20
289.9487457088574
 30
0
 42
-0.007270061773854899
  0
VERTEX
  8
1
 10
275.382250917736
 20
289.9924768442718
 30
0
 42
-0.01231149283695376
  0
VERTEX
  8
1
 10
276.1195909218342
 20
290.0070538894099
 30
0
 42
-0.01755354876921455
  0
VERTEX
  8
1
 10
276.8497938680516
 20
289.9778997991337
 30
0
 42
-0.02286882021827505
  0
VERTEX
  8
1
 10
277.5704807370947
 20
289.8904375283049
 30
0
 42
-0.02422950548651387
  0
VERTEX
  8
1
 10
278.3401538764218
 20
289.7191143852883
 30
0
 42
-0.01734588071477367
  0
VERTEX
  8
1
 10
279.0989051555591
 20
289.482614999902
 30
0
 42
-0.01066198829474464
  0
VERTEX
  8
1
 10
279.8498246454855
 20
289.2016189081076
 30
0
 42
-0.00424467579659746
  0
VERTEX
  8
1
 10
280.5960024171798
 20
288.8968056458666
 30
0
 42
0.002052424584173355
  0
VERTEX
  8
1
 10
281.3405285416208
 20
288.5888547491406
 30
0
 42
0.006058712418361045
  0
VERTEX
  8
1
 10
282.1370703346228
 20
288.2744218266273
 30
0
 42
0.001620781604082724
  0
VERTEX
  8
1
 10
282.9347597506045
 20
287.9736123380909
 30
0
 42
0.002483729581268788
  0
VERTEX
  8
1
 10
283.7331019331223
 20
287.6800193108113
 30
0
 42
-0.0006697605109574097
  0
VERTEX
  8
1
 10
284.5316020257322
 20
287.3872357720679
 30
0
 42
-0.002478661273250833
  0
VERTEX
  8
1
 10
285.3297651719907
 20
287.0888547491406
 30
0
 42
-0.001095647322387551
  0
VERTEX
  8
1
 10
286.0071097453729
 20
286.8287289536823
 30
0
 42
0.002424872975782275
  0
VERTEX
  8
1
 10
286.685785708337
 20
286.5701613497004
 30
0
 42
0.005958294520867291
  0
VERTEX
  8
1
 10
287.3677239529274
 20
286.3233620609751
 30
0
 42
0.009559540633363756
  0
VERTEX
  8
1
 10
288.0548553711886
 20
286.0985412112869
 30
0
 42
0.01321742970674965
  0
VERTEX
  8
1
 10
288.7491108551648
 20
285.9059089244159
 30
0
 42
0.02072492854069692
  0
VERTEX
  8
1
 10
289.7562186159426
 20
285.6988414796996
 30
0
 42
0.0136735904163921
  0
VERTEX
  8
1
 10
290.7781298639227
 20
285.5610894786461
 30
0
 42
0.01190594914403043
  0
VERTEX
  8
1
 10
291.8111437273047
 20
285.4753240603396
 30
0
 42
0.004970428984456564
  0
VERTEX
  8
1
 10
292.8515593342879
 20
285.4242163638645
 30
0
 42
0.003400932166104429
  0
VERTEX
  8
1
 10
293.8956758130717
 20
285.3904375283049
 30
0
  0
SEQEND
  8
1
  0
POLYLINE
  8
1
 62
3
 66
1
  0
VERTEX
  8
1
 10
273.8956758130718
 20
291.3904375283049
 30
0
 42
-0.001282843573272287
  0
VERTEX
  8
1
 10
274.8049813503658
 20
291.286711188098
 30
0
 42
-0.003855547891206832
  0
VERTEX
  8
1
 10
275.7123466264479
 20
291.1737527718013
 30
0
 42
-0.006445299873558997
  0
VERTEX
  8
1
 10
276.6158313801062
 20
291.0423302033255
 30
0
 42
-0.009049879608096046
  0
VERTEX
  8
1
 10
277.5134953501288
 20
290.8832114065808
 30
0
 42
-0.01164617623661614
  0
VERTEX
  8
1
 10
278.4033982753037
 20
290.6871643054776
 30
0
 42
-0.008743508454577569
  0
VERTEX
  8
1
 10
279.0197506717663
 20
290.5240810274137
 30
0
 42
-0.008173065875539638
  0
VERTEX
  8
1
 10
279.630885807115
 20
290.3400495850135
 30
0
 42
-0.007621914706832401
  0
VERTEX
  8
1
 10
280.236325323898
 20
290.1366702826299
 30
0
 42
-0.007091699757928128
  0
VERTEX
  8
1
 10
280.8355908646629
 20
289.9155434246156
 30
0
 42
-0.006583037128381381
  0
VERTEX
  8
1
 10
281.4282040719577
 20
289.6782693153231
 30
0
 42
-0.008713060780482656
  0
VERTEX
  8
1
 10
282.3869976382866
 20
289.2588170009127
 30
0
 42
-0.005295441891847298
  0
VERTEX
  8
1
 10
283.3332049499878
 20
288.8128747720344
 30
0
 42
-0.001863754328485359
  0
VERTEX
  8
1
 10
284.273463342349
 20
288.3531697473601
 30
0
 42
0.001562292244690886
  0
VERTEX
  8
1
 10
285.2144101506572
 20
287.8924290455612
 30
0
 42
0.004976995968660065
  0
VERTEX
  8
1
 10
286.1626827101997
 20
287.4433797853093
 30
0
 42
0.006696095144296495
  0
VERTEX
  8
1
 10
286.9662659707896
 20
287.0855675791956
 30
0
 42
0.007803666421271974
  0
VERTEX
  8
1
 10
287.7798823128219
 20
286.751207225008
 30
0
 42
0.0101129658891757
  0
VERTEX
  8
1
 10
288.6037820171472
 20
286.4466424728927
 30
0
 42
0.01131361176726187
  0
VERTEX
  8
1
 10
289.4382153646154
 20
286.178217072996
 30
0
 42
0.02500283413433598
  0
VERTEX
  8
1
 10
290.9966668854166
 20
285.7991332534573
 30
0
 42
0.007638934575638747
  0
VERTEX
  8
1
 10
291.7160440587959
 20
285.6731744465005
 30
0
 42
0.006629896808722463
  0
VERTEX
  8
1
 10
292.4400284252048
 20
285.5676026758313
 30
0
 42
0.0028490437671484
  0
VERTEX
  8
1
 10
293.1670842536333
 20
285.4756222626868
 30
0
 42
0.001877809742912159
  0
VERTEX
  8
1
 10
293.8956758130717
 20
285.3904375283049
 30
0
  0
SEQEND
  8
1
  0
POLYLINE
  8
1
 62
3
 66
1
  0
VERTEX
  8
1
 10
273.8956758130718
 20
292.3904375283049
 30
0
 42
-0.001282843573395744
  0
VERTEX
  8
1
 10
274.8049813503658
 20
292.286711188098
 30
0
 42
-0.003855547891083596
  0
VERTEX
  8
1
 10
275.7123466264479
 20
292.1737527718013
 30
0
 42
-0.006445299873497266
  0
VERTEX
  8
1
 10
276.6158313801062
 20
292.0423302033256
 30
0
 42
-0.009049879607850666
  0
VERTEX
  8
1
 10
277.5134953501288
 20
291.8832114065808
 30
0
 42
-0.01164617623643359
  0
VERTEX
  8
1
 10
278.4033982753037
 20
291.6871643054776
 30
0
 42
-0.008743508454749889
  0
VERTEX
  8
1
 10
279.0197506717663
 20
291.5240810274137
 30
0
 42
-0.008173065875539638
  0
VERTEX
  8
1
 10
279.630885807115
 20
291.3400495850135
 30
0
 42
-0.007621914706832401
  0
VERTEX
  8
1
 10
280.236325323898
 20
291.1366702826299
 30
0
 42
-0.007091699758012065
  0
VERTEX
  8
1
 10
280.8355908646629
 20
290.9155434246156
 30
0
 42
-0.006583037128298111
  0
VERTEX
  8
1
 10
281.4282040719577
 20
290.6782693153231
 30
0
 42
-0.008713060780383173
  0
VERTEX
  8
1
 10
282.3869976382866
 20
290.2588170009127
 30
0
 42
-0.005295441891798224
  0
VERTEX
  8
1
 10
283.3332049499878
 20
289.8128747720345
 30
0
 42
-0.001863754328436509
  0
VERTEX
  8
1
 10
284.273463342349
 20
289.3531697473601
 30
0
 42
0.001562292244690886
  0
VERTEX
  8
1
 10
285.2144101506572
 20
288.8924290455612
 30
0
 42
0.004976995968660065
  0
VERTEX
  8
1
 10
286.1626827101997
 20
288.4433797853093
 30
0
 42
0.006696095144325973
  0
VERTEX
  8
1
 10
286.9662659707896
 20
288.0855675791956
 30
0
 42
0.007803666421183817
  0
VERTEX
  8
1
 10
287.7798823128219
 20
287.751207225008
 30
0
 42
0.01011296588929357
  0
VERTEX
  8
1
 10
288.6037820171472
 20
287.4466424728927
 30
0
 42
0.01131361176714328
  0
VERTEX
  8
1
 10
289.4382153646154
 20
287.178217072996
 30
0
 42
0.02500283413447218
  0
VERTEX
  8
1
 10
290.9966668854166
 20
286.7991332534573
 30
0
 42
0.007638934575486249
  0
VERTEX
  8
1
 10
291.7160440587959
 20
286.6731744465006
 30
0
 42
0.006629896808797184
  0
VERTEX
  8
1
 10
292.4400284252048
 20
286.5676026758312
 30
0
 42
0.002849043767188646
  0
VERTEX
  8
1
 10
293.1670842536333
 20
286.4756222626868
 30
0
 42
0.001877809742833777
  0
VERTEX
  8
1
 10
293.8956758130717
 20
286.3904375283049
 30
0
  0
SEQEND
  8
1
  0
POLYLINE
  8
1
 62
3
 66
1
  0
VERTEX
  8
1
 10
311.564620831081
 20
286.3904375283049
 30
0
 42
0.006401683005861042
  0
VERTEX
  8
1
 10
311.0690394428747
 20
285.5663073592887
 30
0
 42
0.02019686451664943
  0
VERTEX
  8
1
 10
310.6345531535274
 20
284.7482097325265
 30
0
 42
0.03911197960743904
  0
VERTEX
  8
1
 10
310.3222570618979
 20
283.9421771902724
 30
0
 42
0.06467125169473204
  0
VERTEX
  8
1
 10
310.1932462668455
 20
283.1542422747805
 30
0
 42
0.09177780810686889
  0
VERTEX
  8
1
 10
310.3086158672289
 20
282.3904375283049
 30
0
 42
0.06213484501163848
  0
VERTEX
  8
1
 10
310.6055558747418
 20
281.7866548144688
 30
0
 42
0.01032167271991182
  0
VERTEX
  8
1
 10
311.0126809324191
 20
281.1938776856687
 30
0
 42
-0.0089683668075157
  0
VERTEX
  8
1
 10
311.4364109244463
 20
280.6029919137868
 30
0
 42
-0.0408691022652672
  0
VERTEX
  8
1
 10
311.7831657350088
 20
280.0048832707049
 30
0
 42
-0.08398492570926595
  0
VERTEX
  8
1
 10
311.9593652482919
 20
279.3904375283049
 30
0
 42
-0.0574587901923931
  0
VERTEX
  8
1
 10
311.9495880478592
 20
279.0019437131887
 30
0
 42
-0.04092577827193836
  0
VERTEX
  8
1
 10
311.8602029263841
 20
278.60577910815
 30
0
 42
-0.02623680826028345
  0
VERTEX
  8
1
 10
311.7111118641274
 20
278.2038614106693
 30
0
 42
-0.01444012508577133
  0
VERTEX
  8
1
 10
311.5222168413495
 20
277.7981083182275
 30
0
 42
-0.004595698193137918
  0
VERTEX
  8
1
 10
311.313419838311
 20
277.3904375283049
 30
0
  0
SEQEND
  8
1
  0
POLYLINE
  8
1
 62
3
 66
1
  0
VERTEX
  8
1
 10
312.4258813777219
 20
286.3904375283049
 30
0
 42
0.005610045220670253
  0
VERTEX
  8
1
 10
311.9467169040704
 20
285.7889087914279
 30
0
 42
0.01766205651883192
  0
VERTEX
  8
1
 10
311.5119832510006
 20
285.1877622387701
 30
0
 42
0.03408297587039175
  0
VERTEX
  8
1
 10
311.1661112390945
 20
284.5873800545508
 30
0
 42
0.05686596115245587
  0
VERTEX
  8
1
 10
310.9535316889337
 20
283.9881444229894
 30
0
 42
0.08472232245205735
  0
VERTEX
  8
1
 10
310.9186754210999
 20
283.3904375283049
 30
0
 42
0.103836595130988
  0
VERTEX
  8
1
 10
311.1790838131306
 20
282.5985929514995
 30
0
 42
0.01466668619483637
  0
VERTEX
  8
1
 10
311.6691378667609
 20
281.8063959984534
 30
0
 42
0.01363408149581022
  0
VERTEX
  8
1
 10
312.2263599329812
 20
281.0101213338102
 30
0
 42
-0.04258924877929032
  0
VERTEX
  8
1
 10
312.6882723627819
 20
280.2060436222129
 30
0
 42
-0.09880128485623883
  0
VERTEX
  8
1
 10
312.8923975071529
 20
279.3904375283049
 30
0
 42
-0.05425642054196173
  0
VERTEX
  8
1
 10
312.8574655822975
 20
278.9946401337303
 30
0
 42
-0.03886192777677804
  0
VERTEX
  8
1
 10
312.7453412102375
 20
278.5960410022054
 30
0
 42
-0.02511887737153069
  0
VERTEX
  8
1
 10
312.5753225027742
 20
278.1953405679678
 30
0
 42
-0.01391435860737595
  0
VERTEX
  8
1
 10
312.3667075717086
 20
277.7932392652552
 30
0
 42
-0.004443253589702827
  0
VERTEX
  8
1
 10
312.1387945288419
 20
277.3904375283049
 30
0
  0
SEQEND
  8
1
  0
ARC
  8
1
 62
3
 10
318.0775318141695
 20
29.1560866135042
 30
0
 40
0.4999999999999183
 50
90
 51
149.999999999993
  0
ARC
  8
1
 62
3
 10
318.0775318141696
 20
85.15608661350412
 30
0
 40
0.5000000000000476
 50
209.9999999999856
 51
270
  0
ARC
  8
1
 62
3
 10
334.6775318141689
 20
82.4560866135041
 30
0
 40
2.199999999999989
 50
0
 51
90
  0
ARC
  8
1
 62
3
 10
334.6775318141689
 20
31.8560866135041
 30
0
 40
2.1999999999999
 50
270
 51
0
  0
ARC
  8
1
 62
3
 10
456.6783343199709
 20
182.9278618289182
 30
0
 40
1
 50
270
 51
0
  0
ARC
  8
1
 62
3
 10
456.6783343199709
 20
192.9278618289182
 30
0
 40
1
 50
0
 51
90
  0
ARC
  8
1
 62
3
 10
430.6783343199712
 20
192.9278618289182
 30
0
 40
1
 50
90
 51
180
  0
ARC
  8
1
 62
3
 10
430.6783343199712
 20
182.9278618289182
 30
0
 40
1
 50
180
 51
270
  0
ARC
  8
1
 62
3
 10
419.6906653096957
 20
138.4675898413372
 30
0
 40
3
 50
0
 51
90
  0
ARC
  8
1
 62
3
 10
468.290665309696
 20
138.4675898413375
 30
0
 40
3
 50
90
 51
180
  0
ARC
  8
1
 62
3
 10
468.990665309696
 20
196.5675898413378
 30
0
 40
5.5
 50
0
 51
90
  0
ARC
  8
1
 62
3
 10
418.990665309696
 20
196.567589841338
 30
0
 40
5.5
 50
90
 51
180
  0
ARC
  8
1
 62
3
 10
418.990665309696
 20
146.9675898413372
 30
0
 40
5.5
 50
180
 51
270
  0
ARC
  8
1
 62
3
 10
469.240665309696
 20
146.7175898413371
 30
0
 40
5.25594901040714
 50
272.726310993928
 51
2.726310993913074
  0
ARC
  8
1
 62
3
 10
439.1906653096964
 20
196.6666926753684
 30
0
 40
2.000000000000101
 50
92.86598398261567
 51
95.73917047727791
  0
ARC
  8
1
 62
3
 10
460.5967619641062
 20
143.7676034067863
 30
0
 40
2.000000000000021
 50
345.7373070060916
 51
0
  0
ARC
  8
1
 62
3
 10
463.2906653096963
 20
135.9675898413376
 30
0
 40
2
 50
270
 51
0
  0
ARC
  8
1
 62
3
 10
424.6906653096959
 20
135.9675898413376
 30
0
 40
1.999999999999659
 50
180
 51
270
  0
ARC
  8
1
 62
3
 10
437.7906653096963
 20
199.4313296463603
 30
0
 40
0.5
 50
0
 51
102.6323888992814
  0
ARC
  8
1
 62
3
 10
437.7906653096963
 20
198.9186947912287
 30
0
 40
0.5000000000000655
 50
282.8630345998931
 51
0
  0
ARC
  8
1
 62
3
 10
450.190665309696
 20
199.4313296463602
 30
0
 40
0.5000000000002138
 50
77.36761110070805
 51
180
  0
ARC
  8
1
 62
3
 10
424.7906653096963
 20
151.0450779279617
 30
0
 40
0.6000000000000411
 50
227.1840121926499
 51
0
  0
ARC
  8
1
 62
3
 10
463.190665309696
 20
151.0450779279617
 30
0
 40
0.5999999999999091
 50
180
 51
312.8159878073421
  0
ARC
  8
1
 62
3
 10
427.3856149113978
 20
143.7676034067869
 30
0
 40
2
 50
180
 51
194.2224792792637
  0
ARC
  8
1
 62
3
 10
439.5906653096959
 20
200.2675898413375
 30
0
 40
0.5
 50
90
 51
180
  0
ARC
  8
1
 62
3
 10
448.390665309696
 20
200.2675898413375
 30
0
 40
0.5
 50
0
 51
90
  0
ARC
  8
1
 62
3
 10
425.9063990835859
 20
138.3309876589548
 30
0
 40
0.0311999999999012
 50
352.5415509438819
 51
45.0000000005167
  0
ARC
  8
1
 62
3
 10
425.9063990835859
 20
138.2041920237202
 30
0
 40
0.03119999999983607
 50
314.9999999994834
 51
7.458449056118087
  0
ARC
  8
1
 62
3
 10
426.4540646749826
 20
138.7518576151171
 30
0
 40
0.03120000000017195
 50
262.5415509441049
 51
314.9999999998524
  0
ARC
  8
1
 62
3
 10
426.3272690397481
 20
138.7518576151171
 30
0
 40
0.03120000000019781
 50
224.9999999998524
 51
277.4584490562056
  0
ARC
  8
1
 62
3
 10
426.8749346311449
 20
138.2041920237202
 30
0
 40
0.03120000000012665
 50
172.5415509439361
 51
225
  0
ARC
  8
1
 62
3
 10
426.8749346311449
 20
138.3309876589548
 30
0
 40
0.03120000000011743
 50
135
 51
187.4584490560639
  0
ARC
  8
1
 62
3
 10
426.3272690397481
 20
137.7833220675579
 30
0
 40
0.03120000000019408
 50
82.54155094379442
 51
135.0000000001476
  0
ARC
  8
1
 62
3
 10
426.4540646749826
 20
137.7833220675579
 30
0
 40
0.03120000000003704
 50
45.00000000014763
 51
97.45844905589509
  0
ARC
  8
1
 62
3
 10
461.1063959882482
 20
138.3309876589548
 30
0
 40
0.03119999999967575
 50
352.5415509438277
 51
45.0000000005167
  0
ARC
  8
1
 62
3
 10
461.1063959882482
 20
138.2041920237202
 30
0
 40
0.03119999999983607
 50
314.9999999994834
 51
7.458449056172288
  0
ARC
  8
1
 62
3
 10
461.6540615796448
 20
138.7518576151171
 30
0
 40
0.03120000000019408
 50
262.5415509437944
 51
314.9999999996309
  0
ARC
  8
1
 62
3
 10
461.5272659444102
 20
138.7518576151171
 30
0
 40
0.03120000000003704
 50
225.0000000001477
 51
277.4584490562056
  0
ARC
  8
1
 62
3
 10
462.0749315358071
 20
138.2041920237202
 30
0
 40
0.0312000000000703
 50
172.5415509439225
 51
224.9999999999262
  0
ARC
  8
1
 62
3
 10
462.0749315358071
 20
138.3309876589548
 30
0
 40
0.03120000000015762
 50
135.0000000000738
 51
187.4584490560775
  0
ARC
  8
1
 62
3
 10
461.5272659444102
 20
137.7833220675579
 30
0
 40
0.03120000000019408
 50
82.54155094379442
 51
134.9999999998524
  0
ARC
  8
1
 62
3
 10
461.6540615796448
 20
137.7833220675579
 30
0
 40
0.03119999999995665
 50
45.00000000029525
 51
97.4584490562056
  0
ARC
  8
1
 62
3
 10
425.4906653096969
 20
135.2675898413371
 30
0
 40
1
 50
180
 51
270
  0
ARC
  8
1
 62
3
 10
462.4906653096954
 20
135.2675898413371
 30
0
 40
1
 50
270
 51
0
  0
ARC
  8
1
 62
3
 10
318.0775318141695
 20
143.7675898413375
 30
0
 40
0.4999999999999147
 50
90
 51
149.999999999993
  0
ARC
  8
1
 62
3
 10
318.0775318141696
 20
199.7675898413374
 30
0
 40
0.5000000000000476
 50
209.9999999999856
 51
270
  0
ARC
  8
1
 62
3
 10
315.8575318141696
 20
135.4189474076432
 30
0
 40
0.3000000000001819
 50
180
 51
270
  0
ARC
  8
1
 62
3
 10
176.2254210752048
 20
166.7653504941031
 30
0
 40
0.6899999999999977
 50
90
 51
180
  0
ARC
  8
1
 62
3
 10
176.2254210752048
 20
166.7575898413377
 30
0
 40
0.690000000000083
 50
180
 51
270
  0
ARC
  8
1
 62
3
 10
179.8454210752048
 20
166.7653504941031
 30
0
 40
0.6899999999999125
 50
0
 51
90
  0
ARC
  8
1
 62
3
 10
179.8454210752048
 20
166.7575898413377
 30
0
 40
0.6899999999999977
 50
270
 51
0
  0
ARC
  8
1
 62
3
 10
176.2054210752047
 20
166.7375898413378
 30
0
 40
1.669999999999988
 50
180
 51
270
  0
ARC
  8
1
 62
3
 10
179.8654210752048
 20
166.7375898413378
 30
0
 40
1.670000000000101
 50
270
 51
0
  0
ARC
  8
1
 62
3
 10
153.0354210752047
 20
146.7675898413378
 30
0
 40
5.5
 50
180
 51
270
  0
ARC
  8
1
 62
3
 10
203.0354210752049
 20
146.7675898413378
 30
0
 40
5.500000000000114
 50
270.0000000000145
 51
0
  0
ARC
  8
1
 62
3
 10
203.0354210752047
 20
196.7675898413378
 30
0
 40
5.500000000000199
 50
0
 51
90
  0
ARC
  8
1
 62
3
 10
153.0354210752046
 20
196.7675898413377
 30
0
 40
5.500000000000512
 50
90
 51
180
  0
ARC
  8
1
 62
3
 10
334.6775318141689
 20
197.0675898413374
 30
0
 40
2.199999999999989
 50
0
 51
90
  0
ARC
  8
1
 62
3
 10
334.6775318141689
 20
146.4675898413374
 30
0
 40
2.199999999999903
 50
270
 51
0
  0
ARC
  8
1
 62
3
 10
315.8575318141693
 20
135.4189698216426
 30
0
 40
0.3000000000001819
 50
180
 51
270
  0
ARC
  8
1
 62
3
 10
315.8975318141693
 20
135.4189698216425
 30
0
 40
0.2999999999998977
 50
270
 51
0
  0
ARC
  8
1
 62
3
 10
202.5354210752049
 20
138.2675898413376
 30
0
 40
2.999999999999886
 50
90
 51
180
  0
ARC
  8
1
 62
3
 10
197.5354210752045
 20
135.7675898413381
 30
0
 40
2.000000000000085
 50
270
 51
0
  0
ARC
  8
1
 62
3
 10
158.5354210752047
 20
135.7675898413378
 30
0
 40
2
 50
180
 51
270
  0
ARC
  8
1
 62
3
 10
153.5354210752047
 20
138.2675898413376
 30
0
 40
3
 50
0
 51
90
  0
TEXT
  8
1
 62
2
 10
319.566299528132
 20
72.04694590113837
 30
0
 40
3
  1
1
 50
270
 41
0.9
 72
1
 73
2
 11
321.066299528132
 21
70.69694590113838
 31
0
  0
TEXT
  8
1
 62
2
 10
319.6527322061397
 20
47.63316624136525
 30
0
 40
3
  1
11
 50
270
 41
0.9
 72
1
 73
2
 11
321.1527322061397
 21
44.93316624136524
 31
0
  0
TEXT
  8
1
 62
2
 10
364.9933260847369
 20
296.7521556299777
 30
0
 40
3.200000000000001
  1
1
 50
90
 41
0.9
  0
TEXT
  8
1
 62
2
 10
365.0484204387408
 20
264.8452380460888
 30
0
 40
3.199999999999999
  1
11
 50
90
 41
0.9
  0
TEXT
  8
1
 62
2
 10
263.0179451568209
 20
267.0792223375221
 30
0
 40
3.200000000000001
  1
9
 50
90
 41
0.9
  0
TEXT
  8
1
 62
2
 10
262.4593861029297
 20
295.4660924114514
 30
0
 40
3.200000000000001
  1
1
 50
90
 41
0.9
  0
TEXT
  8
1
 62
2
 10
293.0368314682791
 20
-13.35791740061213
 30
0
 40
5
  1
FY6S6-D3
 41
0.9
  0
TEXT
  8
1
 62
2
 10
298.8478663672189
 20
255.9904375283049
 30
0
 40
4
  1
付属ケーブル
 41
0.9
  0
INSERT
  8
0
  2
1
 10
303.7591743728615
 20
34.45246559271332
 30
0
  0
INSERT
  8
0
  2
____6S5_5____11___I
 10
97.97848686150751
 20
-22.07945328168586
 30
0
  0
ENDSEC
  0
EOF
