  0
SECTION
  2
HEADER
  9
$ACADVER
  1
AC1014
  9
$ACADMAINTVER
 70
     0
  9
$DWGCODEPAGE
  3
ANSI_932
  9
$INSBASE
 10
0.000000
 20
0.000000
 30
0.000000
  9
$EXTMIN
 10
0.000000
 20
0.000000
 30
0.000000
  9
$EXTMAX
 10
170.000000
 20
257.000000
 30
0.000000
  9
$LIMMIN
 10
0.000000
 20
0.000000
  9
$LIMMAX
 10
170.000000
 20
257.000000
  9
$ORTHOMODE
 70
     0
  9
$REGENMODE
 70
     1
  9
$FILLMODE
 70
     1
  9
$QTEXTMODE
 70
     0
  9
$MIRRTEXT
 70
     1
  9
$DRAGMODE
 70
     2
  9
$LTSCALE
 40
1.000000
  9
$OSMODE
 70
     0
  9
$ATTMODE
 70
     1
  9
$TEXTSIZE
 40
2.500000
  9
$TRACEWID
 40
1.000000
  9
$TEXTSTYLE
  7
BIGFONT
  9
$CLAYER
  8
0
  9
$CELTYPE
  6
BYLAYER
  9
$CECOLOR
 62
   256
  9
$CELTSCALE
 40
1.000000
  9
$DELOBJ
 70
     1
  9
$DISPSILH
 70
     0
  9
$DIMSCALE
 40
1.000000
  9
$DIMASZ
 40
2.500000
  9
$DIMEXO
 40
0.625000
  9
$DIMDLI
 40
3.750000
  9
$DIMRND
 40
0.000000
  9
$DIMDLE
 40
0.000000
  9
$DIMEXE
 40
1.250000
  9
$DIMTP
 40
0.000000
  9
$DIMTM
 40
0.000000
  9
$DIMTXT
 40
2.500000
  9
$DIMCEN
 40
2.500000
  9
$DIMTSZ
 40
0.000000
  9
$DIMTOL
 70
     0
  9
$DIMLIM
 70
     0
  9
$DIMTIH
 70
     0
  9
$DIMTOH
 70
     0
  9
$DIMSE1
 70
     0
  9
$DIMSE2
 70
     0
  9
$DIMTAD
 70
     1
  9
$DIMZIN
 70
     8
  9
$DIMBLK
  1

  9
$DIMASO
 70
     1
  9
$DIMSHO
 70
     1
  9
$DIMPOST
  1

  9
$DIMAPOST
  1

  9
$DIMALT
 70
     0
  9
$DIMALTD
 70
     4
  9
$DIMALTF
 40
0.039400
  9
$DIMLFAC
 40
1.000000
  9
$DIMTOFL
 70
     1
  9
$DIMTVP
 40
0.000000
  9
$DIMTIX
 70
     0
  9
$DIMSOXD
 70
     0
  9
$DIMSAH
 70
     0
  9
$DIMBLK1
  1

  9
$DIMBLK2
  1

  9
$DIMSTYLE
  2
STANDARD
  9
$DIMCLRD
 70
     0
  9
$DIMCLRE
 70
     0
  9
$DIMCLRT
 70
     0
  9
$DIMTFAC
 40
1.000000
  9
$DIMGAP
 40
0.625000
  9
$DIMJUST
 70
     0
  9
$DIMSD1
 70
     0
  9
$DIMSD2
 70
     0
  9
$DIMTOLJ
 70
     1
  9
$DIMTZIN
 70
     0
  9
$DIMALTZ
 70
     0
  9
$DIMALTTZ
 70
     0
  9
$DIMFIT
 70
     3
  9
$DIMUPT
 70
     0
  9
$DIMUNIT
 70
     8
  9
$DIMDEC
 70
     4
  9
$DIMTDEC
 70
     4
  9
$DIMALTU
 70
     8
  9
$DIMALTTD
 70
     4
  9
$DIMTXSTY
  7
STANDARD
  9
$DIMAUNIT
 70
     0
  9
$LUNITS
 70
     2
  9
$LUPREC
 70
     4
  9
$AXISMODE
 70
     0
  9
$SKETCHINC
 40
1.000000
  9
$FILLETRAD
 40
10.000000
  9
$AUNITS
 70
     0
  9
$AUPREC
 70
     0
  9
$MENU
  1
acad
  9
$ELEVATION
 40
0.000000
  9
$PELEVATION
 40
0.000000
  9
$THICKNESS
 40
0.000000
  9
$LIMCHECK
 70
     0
  9
$BLIPMODE
 70
     0
  9
$CHAMFERA
 40
10.000000
  9
$CHAMFERB
 40
10.000000
  9
$CHAMFERC
 40
20.000000
  9
$CHAMFERD
 40
0.000000
  9
$SKPOLY
 70
     0
  9
$TDCREATE
 40
2447851.677998
  9
$TDUPDATE
 40
2447851.677998
  9
$TDINDWG
 40
0.000000
  9
$TDUSRTIMER
 40
0.000000
  9
$USRTIMER
 70
     1
  9
$ANGBASE
 50
0.000000
  9
$ANGDIR
 70
     0
  9
$PDMODE
 70
     0
  9
$PDSIZE
 40
0.000000
  9
$PLINEWID
 40
0.000000
  9
$COORDS
 70
     1
  9
$SPLFRAME
 70
     0
  9
$SPLINETYPE
 70
     6
  9
$SPLINESEGS
 70
     8
  9
$ATTDIA
 70
     0
  9
$ATTREQ
 70
     1
  9
$HANDLING
 70
     1
  9
$HANDSEED
  5
FFFFFFF
  9
$SURFTAB1
 70
     6
  9
$SURFTAB2
 70
     6
  9
$SURFTYPE
 70
     6
  9
$SURFU
 70
     6
  9
$SURFV
 70
     6
  9
$UCSNAME
  2

  9
$UCSORG
 10
0.000000
 20
0.000000
 30
0.000000
  9
$UCSXDIR
 10
1.000000
 20
0.000000
 30
0.000000
  9
$UCSYDIR
 10
0.000000
 20
1.000000
 30
0.000000
  9
$PUCSNAME
  2

  9
$PUCSORG
 10
0.000000
 20
0.000000
 30
0.000000
  9
$PUCSXDIR
 10
1.000000
 20
0.000000
 30
0.000000
  9
$PUCSYDIR
 10
0.000000
 20
1.000000
 30
0.000000
  9
$USERI1
 70
     0
  9
$USERI2
 70
     0
  9
$USERI3
 70
     0
  9
$USERI4
 70
     0
  9
$USERI5
 70
     0
  9
$USERR1
 40
0.000000
  9
$USERR2
 40
0.000000
  9
$USERR3
 40
0.000000
  9
$USERR4
 40
0.000000
  9
$USERR5
 40
0.000000
  9
$WORLDVIEW
 70
     1
  9
$SHADEDGE
 70
     3
  9
$SHADEDIF
 70
    70
  9
$TILEMODE
 70
     1
  9
$MAXACTVP
 70
    48
  9
$PINSBASE
 10
0.000000
 20
0.000000
 30
0.000000
  9
$PLIMCHECK
 70
     0
  9
$PEXTMIN
 10
100000000000000000000.000000
 20
100000000000000000000.000000
 30
100000000000000000000.000000
  9
$PEXTMAX
 10
-100000000000000000000.000000
 20
-100000000000000000000.000000
 30
-100000000000000000000.000000
  9
$PLIMMIN
 10
0.000000
 20
0.000000
  9
$PLIMMAX
 10
170.000000
 20
257.000000
  9
$UNITMODE
 70
     0
  9
$VISRETAIN
 70
     1
  9
$PLINEGEN
 70
     0
  9
$PSLTSCALE
 70
     1
  9
$TREEDEPTH
 70
  3020
  9
$PICKSTYLE
 70
     1
  9
$CMLSTYLE
  2
STANDARD
  9
$CMLJUST
 70
     0
  9
$CMLSCALE
 40
20.000000
  9
$PROXYGRAPHICS
 70
     1
  9
$MEASUREMENT
 70
     1
  0
ENDSEC
  0
SECTION
  2
TABLES
  0
TABLE
  2
VPORT
  5
a2
100
AcDbSymbolTable
 70
     2
  0
VPORT
  5
a5
100
AcDbSymbolTableRecord
100
AcDbViewportTableRecord
  2
*ACTIVE
 70
     0
 10
0.000000
 20
0.000000
 11
1.000000
 21
1.000000
 12
300.000000
 22
200.000000
 13
0.000000
 23
0.000000
 14
10.000000
 24
10.000000
 15
10.000000
 25
10.000000
 16
0.000000
 26
0.000000
 36
1.000000
 17
0.000000
 27
0.000000
 37
0.000000
 40
300.000000
 41
1.600432
 42
50.000000
 43
0.000000
 44
0.000000
 50
0.000000
 51
0.000000
 71
     0
 72
   100
 73
     1
 74
     1
 75
     0
 76
     0
 77
     0
 78
     0
  0
ENDTAB
  0
TABLE
  2
LTYPE
  5
a8
100
AcDbSymbolTable
 70
    11
  0
LTYPE
  5
ab
100
AcDbSymbolTableRecord
100
AcDbLinetypeTableRecord
  2
BYBLOCK
 70
    64
  3
BYBLOCK
 72
    65
 73
     0
 40
0.000000
  0
LTYPE
  5
ae
100
AcDbSymbolTableRecord
100
AcDbLinetypeTableRecord
  2
BYLAYER
 70
    64
  3
BYLAYER
 72
    65
 73
     0
 40
0.000000
  0
LTYPE
  5
b1
100
AcDbSymbolTableRecord
100
AcDbLinetypeTableRecord
  2
CONTINUOUS
 70
    64
  3
実線
 72
    65
 73
     0
 40
0.000000
  0
LTYPE
  5
b4
100
AcDbSymbolTableRecord
100
AcDbLinetypeTableRecord
  2
DASHED
 70
    64
  3
__ __ __ __ __ __ __ __ __ __ __ __ __ __ __
 72
    65
 73
     2
 40
0.750000
 49
0.500000
 74
     0
 49
-0.250000
 74
     0
  0
LTYPE
  5
b7
100
AcDbSymbolTableRecord
100
AcDbLinetypeTableRecord
  2
HIDDEN
 70
    64
  3
_ _ _ _ _ _ _ _ _ _ _ _ _ _ _ _ _ _ _ _ _ _ _
 72
    65
 73
     2
 40
0.375000
 49
0.250000
 74
     0
 49
-0.125000
 74
     0
  0
LTYPE
  5
ba
100
AcDbSymbolTableRecord
100
AcDbLinetypeTableRecord
  2
CENTER
 70
    64
  3
____ _ ____ _ ____ _ ____ _ ____ _ ____ _ ____
 72
    65
 73
     4
 40
2.000000
 49
1.250000
 74
     0
 49
-0.250000
 74
     0
 49
0.250000
 74
     0
 49
-0.250000
 74
     0
  0
LTYPE
  5
bd
100
AcDbSymbolTableRecord
100
AcDbLinetypeTableRecord
  2
PHANTOM
 70
    64
  3
_____ _ _ _____ _ _ _____ _ _ _____ _ _ ____
 72
    65
 73
     6
 40
2.500000
 49
1.250000
 74
     0
 49
-0.250000
 74
     0
 49
0.250000
 74
     0
 49
-0.250000
 74
     0
 49
0.250000
 74
     0
 49
-0.250000
 74
     0
  0
LTYPE
  5
c0
100
AcDbSymbolTableRecord
100
AcDbLinetypeTableRecord
  2
DOT
 70
    64
  3
...............................................
 72
    65
 73
     2
 40
0.250000
 49
0.000000
 74
     0
 49
-0.250000
 74
     0
  0
LTYPE
  5
c3
100
AcDbSymbolTableRecord
100
AcDbLinetypeTableRecord
  2
DASHDOT
 70
    64
  3
__ . __ . __ . __ . __ . __ . __ . __ . __ . __
 72
    65
 73
     4
 40
1.000000
 49
0.500000
 74
     0
 49
-0.250000
 74
     0
 49
0.000000
 74
     0
 49
-0.250000
 74
     0
  0
LTYPE
  5
c6
100
AcDbSymbolTableRecord
100
AcDbLinetypeTableRecord
  2
BORDER
 70
    64
  3
__ __ . __ __ . __ __ . __ __ . __ __ . __ __
 72
    65
 73
     6
 40
1.750000
 49
0.500000
 74
     0
 49
-0.250000
 74
     0
 49
0.500000
 74
     0
 49
-0.250000
 74
     0
 49
0.000000
 74
     0
 49
-0.250000
 74
     0
  0
LTYPE
  5
c9
100
AcDbSymbolTableRecord
100
AcDbLinetypeTableRecord
  2
DIVIDE
 70
    64
  3
__ . . __ . . __ . . __ . . __ . . __ . . __
 72
    65
 73
     6
 40
1.250000
 49
0.500000
 74
     0
 49
-0.250000
 74
     0
 49
0.000000
 74
     0
 49
-0.250000
 74
     0
 49
0.000000
 74
     0
 49
-0.250000
 74
     0
  0
ENDTAB
  0
TABLE
  2
LAYER
  5
cc
100
AcDbSymbolTable
 70
     2
  0
LAYER
  5
cf
100
AcDbSymbolTableRecord
100
AcDbLayerTableRecord
  2
0
 70
    64
 62
     7
  6
CONTINUOUS
  0
ENDTAB
  0
TABLE
  2
STYLE
  5
d2
100
AcDbSymbolTable
 70
     2
  0
STYLE
  5
d5
100
AcDbSymbolTableRecord
100
AcDbTextStyleTableRecord
  2
STANDARD
 70
     0
 40
0.000000
 41
0.500000
 50
0.000000
 71
     0
 42
0.300000
  3
txt
  4

  0
STYLE
  5
d8
100
AcDbSymbolTableRecord
100
AcDbTextStyleTableRecord
  2
BIGFONT
 70
    64
 40
0.000000
 41
1.000000
 50
0.000000
 71
     0
 42
0.200000
  3

  4
bigfont
  0
ENDTAB
  0
TABLE
  2
VIEW
  5
db
100
AcDbSymbolTable
 70
     0
  0
ENDTAB
  0
TABLE
  2
UCS
  5
de
100
AcDbSymbolTable
 70
     0
  0
ENDTAB
  0
TABLE
  2
APPID
  5
e1
100
AcDbSymbolTable
 70
     3
  0
APPID
  5
e4
100
AcDbSymbolTableRecord
100
AcDbRegAppTableRecord
  2
ACAD
 70
     0
  0
APPID
  5
e7
100
AcDbSymbolTableRecord
100
AcDbRegAppTableRecord
  2
CONTENTTABDATA
 70
     0
  0
APPID
  5
ea
100
AcDbSymbolTableRecord
100
AcDbRegAppTableRecord
  2
CONTENTCURRENTTAB
 70
     0
  0
ENDTAB
  0
TABLE
  2
DIMSTYLE
  5
ed
100
AcDbSymbolTable
 70
     1
  0
DIMSTYLE
105
f0
100
AcDbSymbolTableRecord
100
AcDbDimStyleTableRecord
  2
STANDARD
 70
     0
  3

  4

  5

  6

  7

 40
1.000000
 41
0.180000
 42
0.062500
 43
0.380000
 44
0.180000
 45
0.000000
 46
0.000000
 47
0.000000
 48
0.000000
140
0.180000
141
0.090000
142
0.000000
143
25.400000
144
1.000000
145
0.000000
146
1.000000
147
0.090000
 71
     0
 72
     0
 73
     1
 74
     1
 75
     0
 76
     0
 77
     0
 78
     0
170
     0
171
     2
172
     0
173
     0
174
     0
175
     0
176
     0
177
     0
178
     0
270
     2
271
     4
272
     4
273
     2
274
     2
340
d5
275
     0
280
     0
281
     0
282
     0
283
     1
284
     0
285
     0
286
     0
287
     3
288
     0
  0
ENDTAB
  0
TABLE
  2
BLOCK_RECORD
  5
f3
100
AcDbSymbolTable
 70
     0
  0
BLOCK_RECORD
  5
f6
100
AcDbSymbolTableRecord
100
AcDbBlockTableRecord
  2
*MODEL_SPACE
  0
BLOCK_RECORD
  5
f9
100
AcDbSymbolTableRecord
100
AcDbBlockTableRecord
  2
*PAPER_SPACE
  0
ENDTAB
  0
ENDSEC
  0
SECTION
  2
BLOCKS
  0
BLOCK
  5
fc
100
AcDbEntity
  8
0
100
AcDbBlockBegin
  2
*MODEL_SPACE
 70
     0
 10
0.000000
 20
0.000000
 30
0.000000
  3
*MODEL_SPACE
  1
 
  0
ENDBLK
  5
ff
100
AcDbEntity
  8
0
100
AcDbBlockEnd
  0
BLOCK
  5
102
100
AcDbEntity
 67
     1
  8
0
100
AcDbBlockBegin
  2
*PAPER_SPACE
 70
     0
 10
0.000000
 20
0.000000
 30
0.000000
  3
*PAPER_SPACE
  1
 
  0
ENDBLK
  5
105
100
AcDbEntity
 67
     1
  8
0
100
AcDbBlockEnd
  0
ENDSEC
  0
SECTION
  2
ENTITIES
  0
LINE
  5
108
100
AcDbEntity
  8
0
100
AcDbLine
 10
8.325000
 20
235.075000
 11
24.975000
 21
218.450000
  0
LINE
  5
10b
100
AcDbEntity
  8
0
100
AcDbLine
 10
9.075000
 20
236.575000
 11
27.225000
 21
218.450000
  0
LINE
  5
10e
100
AcDbEntity
  8
0
100
AcDbLine
 10
24.975000
 20
208.225000
 11
7.950000
 21
191.225000
  0
LINE
  5
111
100
AcDbEntity
  8
0
100
AcDbLine
 10
9.450000
 20
190.450000
 11
27.225000
 21
208.225000
  0
LINE
  5
114
100
AcDbEntity
  8
0
100
AcDbLine
 10
35.150000
 20
208.225000
 11
53.300000
 21
190.075000
  0
LINE
  5
117
100
AcDbEntity
  8
0
100
AcDbLine
 10
52.925000
 20
236.200000
 11
35.150000
 21
218.450000
  0
LINE
  5
11a
100
AcDbEntity
  8
0
100
AcDbLine
 10
37.400000
 20
218.450000
 11
54.425000
 21
235.450000
  0
LINE
  5
11d
100
AcDbEntity
  8
0
100
AcDbLine
 10
24.975000
 20
208.225000
 11
26.150000
 21
209.450000
  0
LINE
  5
120
100
AcDbEntity
  8
0
100
AcDbLine
 10
24.975000
 20
218.450000
 11
25.975000
 21
217.425000
  0
LINE
  5
123
100
AcDbEntity
  8
0
100
AcDbLine
 10
37.400000
 20
218.450000
 11
36.300000
 21
217.325000
  0
LINE
  5
126
100
AcDbEntity
  8
0
100
AcDbLine
 10
36.275000
 20
209.375000
 11
54.050000
 21
191.575000
  0
LINE
  5
129
100
AcDbEntity
  8
0
100
AcDbLine
 10
52.525000
 20
189.650000
 11
54.025000
 21
189.100000
  0
LINE
  5
12c
100
AcDbEntity
  8
0
100
AcDbLine
 10
54.850000
 20
234.675000
 11
55.400000
 21
236.175000
  0
LINE
  5
12f
100
AcDbEntity
  8
0
100
AcDbLine
 10
7.525000
 20
191.975000
 11
6.975000
 21
190.475000
  0
LINE
  5
132
100
AcDbEntity
  8
0
100
AcDbLine
 10
8.350000
 20
237.550000
 11
9.850000
 21
237.000000
  0
LINE
  5
135
100
AcDbEntity
  8
0
100
AcDbLine
 10
56.175000
 20
243.500000
 11
56.175000
 21
232.700000
  0
LINE
  5
138
100
AcDbEntity
  8
0
100
AcDbLine
 10
50.875000
 20
238.325000
 11
62.250000
 21
238.325000
  0
LINE
  5
13b
100
AcDbEntity
  8
0
100
AcDbLine
 10
56.175000
 20
193.975000
 11
56.175000
 21
183.150000
  0
LINE
  5
13e
100
AcDbEntity
  8
0
100
AcDbLine
 10
62.250000
 20
188.325000
 11
50.875000
 21
188.325000
  0
LINE
  5
141
100
AcDbEntity
  8
0
100
AcDbLine
 10
6.175000
 20
232.700000
 11
6.175000
 21
243.500000
  0
LINE
  5
144
100
AcDbEntity
  8
0
100
AcDbLine
 10
0.125000
 20
238.325000
 11
11.475000
 21
238.325000
  0
LINE
  5
147
100
AcDbEntity
  8
0
100
AcDbLine
 10
6.175000
 20
183.150000
 11
6.175000
 21
193.975000
  0
LINE
  5
14a
100
AcDbEntity
  8
0
100
AcDbLine
 10
11.475000
 20
188.325000
 11
0.125000
 21
188.325000
  0
LINE
  5
14d
100
AcDbEntity
  8
0
100
AcDbLine
 10
33.825000
 20
159.775000
 11
51.700000
 21
159.775000
  0
LINE
  5
150
100
AcDbEntity
  8
0
100
AcDbLine
 10
60.075000
 20
156.575000
 11
60.075000
 21
156.525000
  0
LINE
  5
153
100
AcDbEntity
  8
0
100
AcDbLine
 10
8.775000
 20
155.775000
 11
3.075000
 21
155.775000
  0
LINE
  5
156
100
AcDbEntity
  8
0
100
AcDbLine
 10
3.075000
 20
157.375000
 11
9.425000
 21
157.375000
  0
LINE
  5
159
100
AcDbEntity
  8
0
100
AcDbLine
 10
52.275000
 20
155.775000
 11
59.275000
 21
155.775000
  0
LINE
  5
15c
100
AcDbEntity
  8
0
100
AcDbLine
 10
60.075000
 20
156.575000
 11
60.075000
 21
156.525000
  0
LINE
  5
15f
100
AcDbEntity
  8
0
100
AcDbLine
 10
10.675000
 20
159.775000
 11
28.525000
 21
159.775000
  0
LINE
  5
162
100
AcDbEntity
  8
0
100
AcDbLine
 10
2.975000
 20
158.200000
 11
9.850000
 21
158.200000
  0
LINE
  5
165
100
AcDbEntity
  8
0
100
AcDbLine
 10
33.825000
 20
158.200000
 11
51.025000
 21
158.200000
  0
LINE
  5
168
100
AcDbEntity
  8
0
100
AcDbLine
 10
28.525000
 20
158.200000
 11
33.800000
 21
158.200000
  0
LINE
  5
16b
100
AcDbEntity
  8
0
100
AcDbLine
 10
10.075000
 20
155.775000
 11
3.250000
 21
155.775000
  0
LINE
  5
16e
100
AcDbEntity
  8
0
100
AcDbLine
 10
11.325000
 20
158.200000
 11
28.525000
 21
158.200000
  0
LINE
  5
171
100
AcDbEntity
  8
0
100
AcDbLine
 10
11.325000
 20
158.200000
 11
10.075000
 21
155.775000
  0
LINE
  5
174
100
AcDbEntity
  8
0
100
AcDbLine
 10
52.950000
 20
157.375000
 11
51.700000
 21
159.775000
  0
LINE
  5
177
100
AcDbEntity
  8
0
100
AcDbLine
 10
52.950000
 20
157.375000
 11
59.275000
 21
157.375000
  0
LINE
  5
17a
100
AcDbEntity
  8
0
100
AcDbLine
 10
51.025000
 20
158.200000
 11
52.275000
 21
155.775000
  0
LINE
  5
17d
100
AcDbEntity
  8
0
100
AcDbLine
 10
11.325000
 20
158.200000
 11
28.525000
 21
158.200000
  0
LINE
  5
180
100
AcDbEntity
  8
0
100
AcDbLine
 10
10.075000
 20
155.775000
 11
11.325000
 21
158.200000
  0
LINE
  5
183
100
AcDbEntity
  8
0
100
AcDbLine
 10
10.675000
 20
159.775000
 11
9.425000
 21
157.375000
  0
LINE
  5
186
100
AcDbEntity
  8
0
100
AcDbLine
 10
10.500000
 20
156.575000
 11
51.875000
 21
156.575000
  0
LINE
  5
189
100
AcDbEntity
  8
0
100
AcDbLine
 10
52.525000
 20
158.200000
 11
59.375000
 21
158.200000
  0
LINE
  5
18c
100
AcDbEntity
  8
0
100
AcDbLine
 10
56.175000
 20
162.325000
 11
56.175000
 21
152.025000
  0
LINE
  5
18f
100
AcDbEntity
  8
0
100
AcDbLine
 10
6.175000
 20
161.475000
 11
6.175000
 21
153.200000
  0
LINE
  5
192
100
AcDbEntity
  8
0
100
AcDbLine
 10
31.175000
 20
163.200000
 11
31.175000
 21
149.350000
  0
LINE
  5
195
100
AcDbEntity
  8
0
100
AcDbLine
 10
31.175000
 20
244.925000
 11
31.175000
 21
242.325000
  0
LINE
  5
198
100
AcDbEntity
  8
0
100
AcDbLine
 10
0.000000
 20
213.325000
 11
29.325000
 21
213.325000
  0
LINE
  5
19b
100
AcDbEntity
  8
0
100
AcDbLine
 10
31.175000
 20
242.325000
 11
33.825000
 21
242.325000
  0
LINE
  5
19e
100
AcDbEntity
  8
0
100
AcDbLine
 10
31.175000
 20
242.325000
 11
31.175000
 21
218.325000
  0
LINE
  5
1a1
100
AcDbEntity
  8
0
100
AcDbLine
 10
31.175000
 20
184.325000
 11
32.875000
 21
184.325000
  0
LINE
  5
1a4
100
AcDbEntity
  8
0
100
AcDbLine
 10
31.175000
 20
184.325000
 11
31.175000
 21
181.225000
  0
LINE
  5
1a7
100
AcDbEntity
  8
0
100
AcDbLine
 10
31.175000
 20
218.325000
 11
32.225000
 21
218.325000
  0
LINE
  5
1aa
100
AcDbEntity
  8
0
100
AcDbLine
 10
31.175000
 20
218.325000
 11
31.175000
 21
208.325000
  0
LINE
  5
1ad
100
AcDbEntity
  8
0
100
AcDbLine
 10
31.175000
 20
208.325000
 11
32.725000
 21
208.325000
  0
LINE
  5
1b0
100
AcDbEntity
  8
0
100
AcDbLine
 10
31.175000
 20
208.325000
 11
31.175000
 21
184.325000
  0
LINE
  5
1b3
100
AcDbEntity
  8
0
100
AcDbLine
 10
29.325000
 20
213.325000
 11
29.325000
 21
215.325000
  0
LINE
  5
1b6
100
AcDbEntity
  8
0
100
AcDbLine
 10
29.325000
 20
213.325000
 11
33.025000
 21
213.325000
  0
LINE
  5
1b9
100
AcDbEntity
  8
0
100
AcDbLine
 10
33.025000
 20
213.325000
 11
33.025000
 21
215.175000
  0
LINE
  5
1bc
100
AcDbEntity
  8
0
100
AcDbLine
 10
33.025000
 20
213.325000
 11
63.250000
 21
213.325000
  0
LINE
  5
1bf
100
AcDbEntity
  8
0
100
AcDbLine
 10
54.275000
 20
237.050000
 11
57.925000
 21
239.500000
  0
LINE
  5
1c2
100
AcDbEntity
  8
0
100
AcDbLine
 10
71.600000
 20
248.825000
 11
108.525000
 21
248.825000
  0
ARC
  5
1c5
100
AcDbEntity
  8
0
100
AcDbCircle
 10
6.175000
 20
238.325000
 40
3.875000
100
AcDbArc
 50
340.015625
 51
303.171875
  0
ARC
  5
1c8
100
AcDbEntity
  8
0
100
AcDbCircle
 10
56.175000
 20
188.325000
 40
3.900000
100
AcDbArc
 50
160.015625
 51
123.171875
  0
ARC
  5
1cb
100
AcDbEntity
  8
0
100
AcDbCircle
 10
56.175000
 20
238.325000
 40
3.900000
100
AcDbArc
 50
250.000000
 51
213.171875
  0
ARC
  5
1ce
100
AcDbEntity
  8
0
100
AcDbCircle
 10
6.175000
 20
188.325000
 40
3.900000
100
AcDbArc
 50
70.000000
 51
33.171875
  0
ARC
  5
1d1
100
AcDbEntity
  8
0
100
AcDbCircle
 10
22.125000
 20
213.325000
 40
5.575000
100
AcDbArc
 50
315.750000
 51
46.546875
  0
ARC
  5
1d4
100
AcDbEntity
  8
0
100
AcDbCircle
 10
40.225000
 20
213.325000
 40
5.600000
100
AcDbArc
 50
134.546875
 51
225.000000
  0
ARC
  5
1d7
100
AcDbEntity
  8
0
100
AcDbCircle
 10
31.175000
 20
213.325000
 40
29.000000
100
AcDbArc
 50
136.593750
 51
180.000000
  0
ARC
  5
1da
100
AcDbEntity
  8
0
100
AcDbCircle
 10
31.175000
 20
213.325000
 40
28.975000
100
AcDbArc
 50
316.593750
 51
43.421875
  0
ARC
  5
1dd
100
AcDbEntity
  8
0
100
AcDbCircle
 10
31.175000
 20
213.325000
 40
27.400000
100
AcDbArc
 50
136.687500
 51
180.000000
  0
ARC
  5
1e0
100
AcDbEntity
  8
0
100
AcDbCircle
 10
31.175000
 20
213.325000
 40
27.375000
100
AcDbArc
 50
316.687500
 51
43.328125
  0
ARC
  5
1e3
100
AcDbEntity
  8
0
100
AcDbCircle
 10
31.175000
 20
213.325000
 40
23.375000
100
AcDbArc
 50
136.968750
 51
180.000000
  0
ARC
  5
1e6
100
AcDbEntity
  8
0
100
AcDbCircle
 10
31.175000
 20
213.325000
 40
23.375000
100
AcDbArc
 50
316.968750
 51
43.046875
  0
ARC
  5
1e9
100
AcDbEntity
  8
0
100
AcDbCircle
 10
31.175000
 20
213.325000
 40
21.800000
100
AcDbArc
 50
317.109375
 51
42.906250
  0
ARC
  5
1ec
100
AcDbEntity
  8
0
100
AcDbCircle
 10
31.175000
 20
213.325000
 40
21.800000
100
AcDbArc
 50
137.109375
 51
180.000000
  0
ARC
  5
1ef
100
AcDbEntity
  8
0
100
AcDbCircle
 10
31.175000
 20
213.325000
 40
17.775000
100
AcDbArc
 50
137.578125
 51
180.000000
  0
ARC
  5
1f2
100
AcDbEntity
  8
0
100
AcDbCircle
 10
31.175000
 20
213.325000
 40
17.800000
100
AcDbArc
 50
317.578125
 51
42.437500
  0
ARC
  5
1f5
100
AcDbEntity
  8
0
100
AcDbCircle
 10
31.175000
 20
213.325000
 40
16.200000
100
AcDbArc
 50
317.843750
 51
42.171875
  0
ARC
  5
1f8
100
AcDbEntity
  8
0
100
AcDbCircle
 10
31.175000
 20
213.325000
 40
16.200000
100
AcDbArc
 50
137.843750
 51
180.000000
  0
ARC
  5
1fb
100
AcDbEntity
  8
0
100
AcDbCircle
 10
31.175000
 20
213.325000
 40
12.200000
100
AcDbArc
 50
138.765625
 51
180.000000
  0
ARC
  5
1fe
100
AcDbEntity
  8
0
100
AcDbCircle
 10
31.175000
 20
213.325000
 40
12.200000
100
AcDbArc
 50
318.765625
 51
41.250000
  0
ARC
  5
201
100
AcDbEntity
  8
0
100
AcDbCircle
 10
31.175000
 20
213.325000
 40
10.600000
100
AcDbArc
 50
319.343750
 51
40.671875
  0
ARC
  5
204
100
AcDbEntity
  8
0
100
AcDbCircle
 10
31.175000
 20
213.325000
 40
10.575000
100
AcDbArc
 50
139.343750
 51
180.000000
  0
ARC
  5
207
100
AcDbEntity
  8
0
100
AcDbCircle
 10
31.175000
 20
213.325000
 40
6.575000
100
AcDbArc
 50
321.968750
 51
38.046875
  0
ARC
  5
20a
100
AcDbEntity
  8
0
100
AcDbCircle
 10
31.175000
 20
213.325000
 40
4.975000
100
AcDbArc
 50
146.609375
 51
180.000000
  0
ARC
  5
20d
100
AcDbEntity
  8
0
100
AcDbCircle
 10
31.175000
 20
213.325000
 40
4.975000
100
AcDbArc
 50
326.609375
 51
33.406250
  0
ARC
  5
210
100
AcDbEntity
  8
0
100
AcDbCircle
 10
31.175000
 20
213.325000
 40
28.975000
100
AcDbArc
 50
270.000000
 51
313.421875
  0
ARC
  5
213
100
AcDbEntity
  8
0
100
AcDbCircle
 10
31.175000
 20
213.325000
 40
27.375000
100
AcDbArc
 50
226.687500
 51
313.328125
  0
ARC
  5
216
100
AcDbEntity
  8
0
100
AcDbCircle
 10
31.175000
 20
213.325000
 40
23.400000
100
AcDbArc
 50
226.968750
 51
313.046875
  0
ARC
  5
219
100
AcDbEntity
  8
0
100
AcDbCircle
 10
31.175000
 20
213.325000
 40
21.800000
100
AcDbArc
 50
227.109375
 51
312.906250
  0
ARC
  5
21c
100
AcDbEntity
  8
0
100
AcDbCircle
 10
31.175000
 20
213.325000
 40
17.775000
100
AcDbArc
 50
227.578125
 51
312.437500
  0
ARC
  5
21f
100
AcDbEntity
  8
0
100
AcDbCircle
 10
31.175000
 20
213.325000
 40
16.175000
100
AcDbArc
 50
227.843750
 51
312.171875
  0
ARC
  5
222
100
AcDbEntity
  8
0
100
AcDbCircle
 10
31.175000
 20
213.325000
 40
12.200000
100
AcDbArc
 50
228.765625
 51
311.250000
  0
ARC
  5
225
100
AcDbEntity
  8
0
100
AcDbCircle
 10
31.175000
 20
213.325000
 40
10.575000
100
AcDbArc
 50
229.343750
 51
310.671875
  0
ARC
  5
228
100
AcDbEntity
  8
0
100
AcDbCircle
 10
31.175000
 20
213.325000
 40
6.575000
100
AcDbArc
 50
231.968750
 51
308.046875
  0
ARC
  5
22b
100
AcDbEntity
  8
0
100
AcDbCircle
 10
31.175000
 20
213.325000
 40
4.975000
100
AcDbArc
 50
270.000000
 51
307.500000
  0
ARC
  5
22e
100
AcDbEntity
  8
0
100
AcDbCircle
 10
31.175000
 20
213.325000
 40
5.000000
100
AcDbArc
 50
180.000000
 51
213.406250
  0
ARC
  5
231
100
AcDbEntity
  8
0
100
AcDbCircle
 10
31.175000
 20
213.325000
 40
6.575000
100
AcDbArc
 50
141.984375
 51
218.046875
  0
ARC
  5
234
100
AcDbEntity
  8
0
100
AcDbCircle
 10
31.175000
 20
213.325000
 40
12.175000
100
AcDbArc
 50
180.000000
 51
221.250000
  0
ARC
  5
237
100
AcDbEntity
  8
0
100
AcDbCircle
 10
31.175000
 20
213.325000
 40
10.575000
100
AcDbArc
 50
180.000000
 51
220.671875
  0
ARC
  5
23a
100
AcDbEntity
  8
0
100
AcDbCircle
 10
31.175000
 20
213.325000
 40
23.400000
100
AcDbArc
 50
180.000000
 51
223.046875
  0
ARC
  5
23d
100
AcDbEntity
  8
0
100
AcDbCircle
 10
31.175000
 20
213.325000
 40
21.800000
100
AcDbArc
 50
180.000000
 51
222.906250
  0
ARC
  5
240
100
AcDbEntity
  8
0
100
AcDbCircle
 10
31.175000
 20
213.325000
 40
27.400000
100
AcDbArc
 50
180.000000
 51
223.328125
  0
ARC
  5
243
100
AcDbEntity
  8
0
100
AcDbCircle
 10
31.175000
 20
213.325000
 40
28.975000
100
AcDbArc
 50
180.000000
 51
223.421875
  0
ARC
  5
246
100
AcDbEntity
  8
0
100
AcDbCircle
 10
31.175000
 20
213.325000
 40
6.575000
100
AcDbArc
 50
51.968750
 51
128.046875
  0
ARC
  5
249
100
AcDbEntity
  8
0
100
AcDbCircle
 10
31.175000
 20
213.325000
 40
5.000000
100
AcDbArc
 50
90.000000
 51
127.500000
  0
ARC
  5
24c
100
AcDbEntity
  8
0
100
AcDbCircle
 10
31.175000
 20
213.325000
 40
16.200000
100
AcDbArc
 50
47.843750
 51
132.171875
  0
ARC
  5
24f
100
AcDbEntity
  8
0
100
AcDbCircle
 10
31.175000
 20
213.325000
 40
17.775000
100
AcDbArc
 50
47.578125
 51
132.437500
  0
ARC
  5
252
100
AcDbEntity
  8
0
100
AcDbCircle
 10
31.175000
 20
213.325000
 40
21.775000
100
AcDbArc
 50
47.109375
 51
132.906250
  0
ARC
  5
255
100
AcDbEntity
  8
0
100
AcDbCircle
 10
31.175000
 20
213.325000
 40
23.375000
100
AcDbArc
 50
46.968750
 51
133.046875
  0
ARC
  5
258
100
AcDbEntity
  8
0
100
AcDbCircle
 10
31.175000
 20
213.325000
 40
27.375000
100
AcDbArc
 50
46.687500
 51
133.328125
  0
ARC
  5
25b
100
AcDbEntity
  8
0
100
AcDbCircle
 10
31.175000
 20
213.325000
 40
29.000000
100
AcDbArc
 50
90.000000
 51
133.421875
  0
ARC
  5
25e
100
AcDbEntity
  8
0
100
AcDbCircle
 10
31.175000
 20
213.325000
 40
17.800000
100
AcDbArc
 50
180.000000
 51
222.437500
  0
ARC
  5
261
100
AcDbEntity
  8
0
100
AcDbCircle
 10
31.175000
 20
213.325000
 40
16.175000
100
AcDbArc
 50
180.000000
 51
222.171875
  0
ARC
  5
264
100
AcDbEntity
  8
0
100
AcDbCircle
 10
56.175000
 20
238.325000
 40
2.300000
100
AcDbArc
 50
249.000000
 51
250.000000
  0
ARC
  5
267
100
AcDbEntity
  8
0
100
AcDbCircle
 10
56.175000
 20
238.325000
 40
2.300000
100
AcDbArc
 50
250.000000
 51
221.531250
  0
ARC
  5
26a
100
AcDbEntity
  8
0
100
AcDbCircle
 10
6.175000
 20
238.325000
 40
2.275000
100
AcDbArc
 50
340.015625
 51
311.531250
  0
ARC
  5
26d
100
AcDbEntity
  8
0
100
AcDbCircle
 10
6.175000
 20
188.325000
 40
2.275000
100
AcDbArc
 50
70.015625
 51
41.531250
  0
ARC
  5
270
100
AcDbEntity
  8
0
100
AcDbCircle
 10
56.175000
 20
188.325000
 40
2.275000
100
AcDbArc
 50
160.000000
 51
131.531250
  0
ARC
  5
273
100
AcDbEntity
  8
0
100
AcDbCircle
 10
31.175000
 20
213.325000
 40
30.000000
100
AcDbArc
 50
133.484375
 51
136.531250
  0
ARC
  5
276
100
AcDbEntity
  8
0
100
AcDbCircle
 10
31.175000
 20
213.325000
 40
30.000000
100
AcDbArc
 50
43.484375
 51
46.531250
  0
ARC
  5
279
100
AcDbEntity
  8
0
100
AcDbCircle
 10
31.175000
 20
213.325000
 40
30.000000
100
AcDbArc
 50
313.484375
 51
316.531250
  0
ARC
  5
27c
100
AcDbEntity
  8
0
100
AcDbCircle
 10
31.175000
 20
213.325000
 40
30.000000
100
AcDbArc
 50
223.484375
 51
226.531250
  0
ARC
  5
27f
100
AcDbEntity
  8
0
100
AcDbCircle
 10
2.975000
 20
157.375000
 40
0.775000
100
AcDbArc
 50
180.000000
 51
217.390625
  0
ARC
  5
282
100
AcDbEntity
  8
0
100
AcDbCircle
 10
59.275000
 20
156.575000
 40
0.800000
100
AcDbArc
 50
270.015625
 51
360.000000
  0
ARC
  5
285
100
AcDbEntity
  8
0
100
AcDbCircle
 10
59.375000
 20
157.375000
 40
0.775000
100
AcDbArc
 50
322.625000
 51
0.015625
  0
ARC
  5
288
100
AcDbEntity
  8
0
100
AcDbCircle
 10
31.175000
 20
213.325000
 40
29.000000
100
AcDbArc
 50
46.593750
 51
90.000000
  0
ARC
  5
28b
100
AcDbEntity
  8
0
100
AcDbCircle
 10
31.175000
 20
213.325000
 40
28.975000
100
AcDbArc
 50
226.593750
 51
270.000000
  0
ARC
  5
28e
100
AcDbEntity
  8
0
100
AcDbCircle
 10
31.175000
 20
213.325000
 40
5.000000
100
AcDbArc
 50
52.515625
 51
90.000000
  0
ARC
  5
291
100
AcDbEntity
  8
0
100
AcDbCircle
 10
31.175000
 20
213.325000
 40
5.000000
100
AcDbArc
 50
232.515625
 51
270.000000
  0
ARC
  5
294
100
AcDbEntity
  8
0
100
AcDbCircle
 10
31.175000
 20
213.325000
 40
12.200000
100
AcDbArc
 50
48.765625
 51
131.250000
  0
ARC
  5
297
100
AcDbEntity
  8
0
100
AcDbCircle
 10
31.175000
 20
213.325000
 40
10.575000
100
AcDbArc
 50
49.343750
 51
130.671875
  0
ARC
  5
29a
100
AcDbEntity
  8
0
100
AcDbCircle
 10
22.125000
 20
213.325000
 40
7.175000
100
AcDbArc
 50
360.000000
 51
45.000000
  0
ARC
  5
29d
100
AcDbEntity
  8
0
100
AcDbCircle
 10
40.225000
 20
213.325000
 40
7.200000
100
AcDbArc
 50
180.000000
 51
225.015625
  0
ARC
  5
2a0
100
AcDbEntity
  8
0
100
AcDbCircle
 10
8.375000
 20
235.850000
 40
1.000000
100
AcDbArc
 50
45.000000
 51
131.531250
  0
ARC
  5
2a3
100
AcDbEntity
  8
0
100
AcDbCircle
 10
53.725000
 20
236.125000
 40
0.975000
100
AcDbArc
 50
315.000000
 51
41.531250
  0
ARC
  5
2a6
100
AcDbEntity
  8
0
100
AcDbCircle
 10
54.000000
 20
190.825000
 40
0.975000
100
AcDbArc
 50
225.015625
 51
311.531250
  0
ARC
  5
2a9
100
AcDbEntity
  8
0
100
AcDbCircle
 10
8.650000
 20
190.500000
 40
1.000000
100
AcDbArc
 50
135.000000
 51
221.531250
  0
ARC
  5
2ac
100
AcDbEntity
  8
0
100
AcDbCircle
 10
2.975000
 20
157.375000
 40
0.800000
100
AcDbArc
 50
90.000000
 51
180.000000
  0
ARC
  5
2af
100
AcDbEntity
  8
0
100
AcDbCircle
 10
3.075000
 20
156.575000
 40
0.800000
100
AcDbArc
 50
156.875000
 51
270.000000
  0
ARC
  5
2b2
100
AcDbEntity
  8
0
100
AcDbCircle
 10
59.375000
 20
157.375000
 40
0.800000
100
AcDbArc
 50
360.000000
 51
90.000000
  0
ARC
  5
2b5
100
AcDbEntity
  8
0
100
AcDbCircle
 10
59.275000
 20
156.575000
 40
0.800000
100
AcDbArc
 50
360.000000
 51
90.000000
  0
ARC
  5
2b8
100
AcDbEntity
  8
0
100
AcDbCircle
 10
3.075000
 20
156.575000
 40
0.800000
100
AcDbArc
 50
90.000000
 51
156.875000
  0
ARC
  5
2bb
100
AcDbEntity
  8
0
100
AcDbCircle
 10
28.525000
 20
158.975000
 40
0.800000
100
AcDbArc
 50
360.000000
 51
90.000000
  0
ARC
  5
2be
100
AcDbEntity
  8
0
100
AcDbCircle
 10
33.825000
 20
158.975000
 40
0.775000
100
AcDbArc
 50
90.000000
 51
180.000000
  0
ARC
  5
2c1
100
AcDbEntity
  8
0
100
AcDbCircle
 10
33.825000
 20
158.975000
 40
0.800000
100
AcDbArc
 50
180.000000
 51
270.000000
  0
ARC
  5
2c4
100
AcDbEntity
  8
0
100
AcDbCircle
 10
28.525000
 20
158.975000
 40
0.800000
100
AcDbArc
 50
270.000000
 51
360.000000
  0
ARC
  5
2c7
100
AcDbEntity
  8
0
100
AcDbCircle
 10
22.125000
 20
213.325000
 40
7.200000
100
AcDbArc
 50
315.015625
 51
360.000000
  0
ARC
  5
2ca
100
AcDbEntity
  8
0
100
AcDbCircle
 10
40.225000
 20
213.325000
 40
7.175000
100
AcDbArc
 50
135.000000
 51
180.000000
  0
LINE
  5
2cd
100
AcDbEntity
  8
0
100
AcDbLine
 10
49.950000
 20
234.075000
 11
54.275000
 21
237.050000
  0
HATCH
  5
2d0
100
AcDbEntity
  8
0
  6
CONTINUOUS
 62
     2
100
AcDbHatch
 10
0.000000
 20
0.000000
 30
0.000000
210
0.000000
220
0.000000
230
1.000000
 60
     0
  2
SOLID
 70
     1
 71
     0
 91
     1
 92
     7
 72
     0
 73
     1
 93
     3
 10
51.125000
 20
235.450000
 10
54.275000
 20
237.050000
 10
51.650000
 20
234.700000
 97
     1
330
2d3
 75
     0
 76
     1
 47
0.651316
 98
     1
 10
0.000000
 20
0.000000
  0
LWPOLYLINE
  5
2d3
100
AcDbEntity
  8
0
  6
CONTINUOUS
 62
     2
100
AcDbPolyline
 90
     3
 70
     1
 10
51.125000
 20
235.450000
 10
54.275000
 20
237.050000
 10
51.650000
 20
234.700000
  0
LWPOLYLINE
  5
2dc
100
AcDbEntity
  8
0
100
AcDbPolyline
 90
     4
 70
     0
 10
51.650000
 20
234.700000
 10
51.125000
 20
235.450000
 10
54.275000
 20
237.050000
 10
51.650000
 20
234.700000
  0
LINE
  5
2e7
100
AcDbEntity
  8
0
100
AcDbLine
 10
71.600000
 20
248.825000
 11
57.925000
 21
239.500000
  0
HATCH
  5
2ea
100
AcDbEntity
  8
0
  6
CONTINUOUS
 62
     2
100
AcDbHatch
 10
0.000000
 20
0.000000
 30
0.000000
210
0.000000
220
0.000000
230
1.000000
 60
     0
  2
SOLID
 70
     1
 71
     0
 91
     1
 92
     7
 72
     0
 73
     1
 93
     3
 10
61.075000
 20
241.100000
 10
57.925000
 20
239.500000
 10
60.550000
 20
241.850000
 97
     1
330
2ed
 75
     0
 76
     1
 47
0.651316
 98
     1
 10
0.000000
 20
0.000000
  0
LWPOLYLINE
  5
2ed
100
AcDbEntity
  8
0
  6
CONTINUOUS
 62
     2
100
AcDbPolyline
 90
     3
 70
     1
 10
61.075000
 20
241.100000
 10
57.925000
 20
239.500000
 10
60.550000
 20
241.850000
  0
LWPOLYLINE
  5
2f6
100
AcDbEntity
  8
0
100
AcDbPolyline
 90
     4
 70
     0
 10
60.550000
 20
241.850000
 10
61.075000
 20
241.100000
 10
57.925000
 20
239.500000
 10
60.550000
 20
241.850000
  0
MTEXT
  5
301
100
AcDbEntity
  8
0
100
AcDbMText
 10
72.525000
 20
253.000000
 40
3.500000
 41
37.800000
 71
     1
 72
     5
  1
\T1.21;\fＭＳ ゴシック|b0|i0|c128|p18;4-φ4.6±0.2
  7
BIGFONT
  0
LINE
  5
304
100
AcDbEntity
  8
0
100
AcDbLine
 10
80.175000
 20
188.325000
 11
80.175000
 21
238.325000
  0
LINE
  5
307
100
AcDbEntity
  8
0
100
AcDbLine
 10
62.250000
 20
188.325000
 11
81.175000
 21
188.325000
  0
LINE
  5
30a
100
AcDbEntity
  8
0
100
AcDbLine
 10
62.250000
 20
238.325000
 11
81.175000
 21
238.325000
  0
HATCH
  5
30d
100
AcDbEntity
  8
0
  6
CONTINUOUS
 62
     2
100
AcDbHatch
 10
0.000000
 20
0.000000
 30
0.000000
210
0.000000
220
0.000000
230
1.000000
 60
     0
  2
SOLID
 70
     1
 71
     0
 91
     1
 92
     7
 72
     0
 73
     1
 93
     3
 10
79.725000
 20
191.825000
 10
80.650000
 20
191.825000
 10
80.175000
 20
188.325000
 97
     1
330
310
 75
     0
 76
     1
 47
0.651316
 98
     1
 10
0.000000
 20
0.000000
  0
LWPOLYLINE
  5
310
100
AcDbEntity
  8
0
  6
CONTINUOUS
 62
     2
100
AcDbPolyline
 90
     3
 70
     1
 10
79.725000
 20
191.825000
 10
80.650000
 20
191.825000
 10
80.175000
 20
188.325000
  0
LWPOLYLINE
  5
319
100
AcDbEntity
  8
0
100
AcDbPolyline
 90
     4
 70
     0
 10
80.175000
 20
188.325000
 10
79.725000
 20
191.825000
 10
80.650000
 20
191.825000
 10
80.175000
 20
188.325000
  0
HATCH
  5
324
100
AcDbEntity
  8
0
  6
CONTINUOUS
 62
     2
100
AcDbHatch
 10
0.000000
 20
0.000000
 30
0.000000
210
0.000000
220
0.000000
230
1.000000
 60
     0
  2
SOLID
 70
     1
 71
     0
 91
     1
 92
     7
 72
     0
 73
     1
 93
     3
 10
80.650000
 20
234.825000
 10
79.725000
 20
234.825000
 10
80.175000
 20
238.325000
 97
     1
330
327
 75
     0
 76
     1
 47
0.651316
 98
     1
 10
0.000000
 20
0.000000
  0
LWPOLYLINE
  5
327
100
AcDbEntity
  8
0
  6
CONTINUOUS
 62
     2
100
AcDbPolyline
 90
     3
 70
     1
 10
80.650000
 20
234.825000
 10
79.725000
 20
234.825000
 10
80.175000
 20
238.325000
  0
LWPOLYLINE
  5
330
100
AcDbEntity
  8
0
100
AcDbPolyline
 90
     4
 70
     0
 10
80.175000
 20
238.325000
 10
80.650000
 20
234.825000
 10
79.725000
 20
234.825000
 10
80.175000
 20
238.325000
  0
MTEXT
  5
33b
100
AcDbEntity
  8
0
100
AcDbMText
 10
75.975000
 20
210.625000
 40
3.200000
 41
5.750000
 71
     1
 72
     5
  1
\T1.21;\fＭＳ ゴシック|b0|i0|c128|p18;50
 11
0.0000000000000000
 21
1.000000
 31
0.000000
  7
BIGFONT
  0
LINE
  5
33e
100
AcDbEntity
  8
0
100
AcDbLine
 10
70.175000
 20
208.325000
 11
70.175000
 21
218.325000
  0
LINE
  5
341
100
AcDbEntity
  8
0
100
AcDbLine
 10
32.725000
 20
208.325000
 11
71.175000
 21
208.325000
  0
LINE
  5
344
100
AcDbEntity
  8
0
100
AcDbLine
 10
32.225000
 20
218.325000
 11
71.175000
 21
218.325000
  0
HATCH
  5
347
100
AcDbEntity
  8
0
  6
CONTINUOUS
 62
     2
100
AcDbHatch
 10
0.000000
 20
0.000000
 30
0.000000
210
0.000000
220
0.000000
230
1.000000
 60
     0
  2
SOLID
 70
     1
 71
     0
 91
     1
 92
     7
 72
     0
 73
     1
 93
     3
 10
70.650000
 20
214.825000
 10
69.725000
 20
214.825000
 10
70.175000
 20
218.325000
 97
     1
330
34a
 75
     0
 76
     1
 47
0.651316
 98
     1
 10
0.000000
 20
0.000000
  0
LWPOLYLINE
  5
34a
100
AcDbEntity
  8
0
  6
CONTINUOUS
 62
     2
100
AcDbPolyline
 90
     3
 70
     1
 10
70.650000
 20
214.825000
 10
69.725000
 20
214.825000
 10
70.175000
 20
218.325000
  0
LWPOLYLINE
  5
353
100
AcDbEntity
  8
0
100
AcDbPolyline
 90
     4
 70
     0
 10
70.175000
 20
218.325000
 10
70.650000
 20
214.825000
 10
69.725000
 20
214.825000
 10
70.175000
 20
218.325000
  0
HATCH
  5
35e
100
AcDbEntity
  8
0
  6
CONTINUOUS
 62
     2
100
AcDbHatch
 10
0.000000
 20
0.000000
 30
0.000000
210
0.000000
220
0.000000
230
1.000000
 60
     0
  2
SOLID
 70
     1
 71
     0
 91
     1
 92
     7
 72
     0
 73
     1
 93
     3
 10
69.725000
 20
211.825000
 10
70.650000
 20
211.825000
 10
70.175000
 20
208.325000
 97
     1
330
361
 75
     0
 76
     1
 47
0.651316
 98
     1
 10
0.000000
 20
0.000000
  0
LWPOLYLINE
  5
361
100
AcDbEntity
  8
0
  6
CONTINUOUS
 62
     2
100
AcDbPolyline
 90
     3
 70
     1
 10
69.725000
 20
211.825000
 10
70.650000
 20
211.825000
 10
70.175000
 20
208.325000
  0
LWPOLYLINE
  5
36a
100
AcDbEntity
  8
0
100
AcDbPolyline
 90
     4
 70
     0
 10
70.175000
 20
208.325000
 10
69.725000
 20
211.825000
 10
70.650000
 20
211.825000
 10
70.175000
 20
208.325000
  0
MTEXT
  5
375
100
AcDbEntity
  8
0
100
AcDbMText
 10
65.975000
 20
208.725000
 40
3.200000
 41
11.500000
 71
     1
 72
     5
  1
\T1.21;\fＭＳ ゴシック|b0|i0|c128|p18;φ10
 11
0.0000000000000000
 21
1.000000
 31
0.000000
  7
BIGFONT
  0
LINE
  5
378
100
AcDbEntity
  8
0
100
AcDbLine
 10
90.175000
 20
184.325000
 11
90.175000
 21
242.325000
  0
LINE
  5
37b
100
AcDbEntity
  8
0
100
AcDbLine
 10
32.875000
 20
184.325000
 11
91.175000
 21
184.325000
  0
LINE
  5
37e
100
AcDbEntity
  8
0
100
AcDbLine
 10
33.825000
 20
242.325000
 11
91.175000
 21
242.325000
  0
HATCH
  5
381
100
AcDbEntity
  8
0
  6
CONTINUOUS
 62
     2
100
AcDbHatch
 10
0.000000
 20
0.000000
 30
0.000000
210
0.000000
220
0.000000
230
1.000000
 60
     0
  2
SOLID
 70
     1
 71
     0
 91
     1
 92
     7
 72
     0
 73
     1
 93
     3
 10
90.650000
 20
238.825000
 10
89.725000
 20
238.825000
 10
90.175000
 20
242.325000
 97
     1
330
384
 75
     0
 76
     1
 47
0.651316
 98
     1
 10
0.000000
 20
0.000000
  0
LWPOLYLINE
  5
384
100
AcDbEntity
  8
0
  6
CONTINUOUS
 62
     2
100
AcDbPolyline
 90
     3
 70
     1
 10
90.650000
 20
238.825000
 10
89.725000
 20
238.825000
 10
90.175000
 20
242.325000
  0
LWPOLYLINE
  5
38d
100
AcDbEntity
  8
0
100
AcDbPolyline
 90
     4
 70
     0
 10
90.175000
 20
242.325000
 10
90.650000
 20
238.825000
 10
89.725000
 20
238.825000
 10
90.175000
 20
242.325000
  0
HATCH
  5
398
100
AcDbEntity
  8
0
  6
CONTINUOUS
 62
     2
100
AcDbHatch
 10
0.000000
 20
0.000000
 30
0.000000
210
0.000000
220
0.000000
230
1.000000
 60
     0
  2
SOLID
 70
     1
 71
     0
 91
     1
 92
     7
 72
     0
 73
     1
 93
     3
 10
89.725000
 20
187.825000
 10
90.650000
 20
187.825000
 10
90.175000
 20
184.325000
 97
     1
330
39b
 75
     0
 76
     1
 47
0.651316
 98
     1
 10
0.000000
 20
0.000000
  0
LWPOLYLINE
  5
39b
100
AcDbEntity
  8
0
  6
CONTINUOUS
 62
     2
100
AcDbPolyline
 90
     3
 70
     1
 10
89.725000
 20
187.825000
 10
90.650000
 20
187.825000
 10
90.175000
 20
184.325000
  0
LWPOLYLINE
  5
3a4
100
AcDbEntity
  8
0
100
AcDbPolyline
 90
     4
 70
     0
 10
90.175000
 20
184.325000
 10
89.725000
 20
187.825000
 10
90.650000
 20
187.825000
 10
90.175000
 20
184.325000
  0
MTEXT
  5
3af
100
AcDbEntity
  8
0
100
AcDbMText
 10
85.975000
 20
208.725000
 40
3.200000
 41
11.500000
 71
     1
 72
     5
  1
\T1.21;\fＭＳ ゴシック|b0|i0|c128|p18;φ58
 11
0.0000000000000000
 21
1.000000
 31
0.000000
  7
BIGFONT
  0
LINE
  5
3b2
100
AcDbEntity
  8
0
100
AcDbLine
 10
22.325000
 20
252.325000
 11
29.325000
 21
252.325000
  0
LINE
  5
3b5
100
AcDbEntity
  8
0
100
AcDbLine
 10
29.325000
 20
252.325000
 11
33.025000
 21
252.325000
  0
LINE
  5
3b8
100
AcDbEntity
  8
0
100
AcDbLine
 10
33.025000
 20
252.325000
 11
45.975000
 21
252.325000
  0
LINE
  5
3bb
100
AcDbEntity
  8
0
100
AcDbLine
 10
29.325000
 20
215.325000
 11
29.325000
 21
253.325000
  0
LINE
  5
3be
100
AcDbEntity
  8
0
100
AcDbLine
 10
33.025000
 20
215.175000
 11
33.025000
 21
253.325000
  0
HATCH
  5
3c1
100
AcDbEntity
  8
0
  6
CONTINUOUS
 62
     2
100
AcDbHatch
 10
0.000000
 20
0.000000
 30
0.000000
210
0.000000
220
0.000000
230
1.000000
 60
     0
  2
SOLID
 70
     1
 71
     0
 91
     1
 92
     7
 72
     0
 73
     1
 93
     3
 10
25.825000
 20
251.875000
 10
25.825000
 20
252.800000
 10
29.325000
 20
252.325000
 97
     1
330
3c4
 75
     0
 76
     1
 47
0.651316
 98
     1
 10
0.000000
 20
0.000000
  0
LWPOLYLINE
  5
3c4
100
AcDbEntity
  8
0
  6
CONTINUOUS
 62
     2
100
AcDbPolyline
 90
     3
 70
     1
 10
25.825000
 20
251.875000
 10
25.825000
 20
252.800000
 10
29.325000
 20
252.325000
  0
LWPOLYLINE
  5
3cd
100
AcDbEntity
  8
0
100
AcDbPolyline
 90
     4
 70
     0
 10
29.325000
 20
252.325000
 10
25.825000
 20
251.875000
 10
25.825000
 20
252.800000
 10
29.325000
 20
252.325000
  0
HATCH
  5
3d8
100
AcDbEntity
  8
0
  6
CONTINUOUS
 62
     2
100
AcDbHatch
 10
0.000000
 20
0.000000
 30
0.000000
210
0.000000
220
0.000000
230
1.000000
 60
     0
  2
SOLID
 70
     1
 71
     0
 91
     1
 92
     7
 72
     0
 73
     1
 93
     3
 10
36.525000
 20
252.800000
 10
36.525000
 20
251.875000
 10
33.025000
 20
252.325000
 97
     1
330
3db
 75
     0
 76
     1
 47
0.651316
 98
     1
 10
0.000000
 20
0.000000
  0
LWPOLYLINE
  5
3db
100
AcDbEntity
  8
0
  6
CONTINUOUS
 62
     2
100
AcDbPolyline
 90
     3
 70
     1
 10
36.525000
 20
252.800000
 10
36.525000
 20
251.875000
 10
33.025000
 20
252.325000
  0
LWPOLYLINE
  5
3e4
100
AcDbEntity
  8
0
100
AcDbPolyline
 90
     4
 70
     0
 10
33.025000
 20
252.325000
 10
36.525000
 20
252.800000
 10
36.525000
 20
251.875000
 10
33.025000
 20
252.325000
  0
MTEXT
  5
3ef
100
AcDbEntity
  8
0
100
AcDbMText
 10
35.975000
 20
257.000000
 40
3.200000
 41
14.400000
 71
     1
 72
     5
  1
\T1.21;\fＭＳ ゴシック|b0|i0|c128|p18;(3.6)
  7
BIGFONT
  0
LINE
  5
3f2
100
AcDbEntity
  8
0
100
AcDbLine
 10
70.175000
 20
148.775000
 11
70.175000
 21
155.775000
  0
LINE
  5
3f5
100
AcDbEntity
  8
0
100
AcDbLine
 10
70.175000
 20
155.775000
 11
70.175000
 21
159.775000
  0
LINE
  5
3f8
100
AcDbEntity
  8
0
100
AcDbLine
 10
70.175000
 20
159.775000
 11
70.175000
 21
170.600000
  0
LINE
  5
3fb
100
AcDbEntity
  8
0
100
AcDbLine
 10
52.275000
 20
155.775000
 11
71.175000
 21
155.775000
  0
LINE
  5
3fe
100
AcDbEntity
  8
0
100
AcDbLine
 10
51.700000
 20
159.775000
 11
71.175000
 21
159.775000
  0
HATCH
  5
401
100
AcDbEntity
  8
0
  6
CONTINUOUS
 62
     2
100
AcDbHatch
 10
0.000000
 20
0.000000
 30
0.000000
210
0.000000
220
0.000000
230
1.000000
 60
     0
  2
SOLID
 70
     1
 71
     0
 91
     1
 92
     7
 72
     0
 73
     1
 93
     3
 10
69.725000
 20
163.275000
 10
70.650000
 20
163.275000
 10
70.175000
 20
159.775000
 97
     1
330
404
 75
     0
 76
     1
 47
0.651316
 98
     1
 10
0.000000
 20
0.000000
  0
LWPOLYLINE
  5
404
100
AcDbEntity
  8
0
  6
CONTINUOUS
 62
     2
100
AcDbPolyline
 90
     3
 70
     1
 10
69.725000
 20
163.275000
 10
70.650000
 20
163.275000
 10
70.175000
 20
159.775000
  0
LWPOLYLINE
  5
40d
100
AcDbEntity
  8
0
100
AcDbPolyline
 90
     4
 70
     0
 10
70.175000
 20
159.775000
 10
69.725000
 20
163.275000
 10
70.650000
 20
163.275000
 10
70.175000
 20
159.775000
  0
HATCH
  5
418
100
AcDbEntity
  8
0
  6
CONTINUOUS
 62
     2
100
AcDbHatch
 10
0.000000
 20
0.000000
 30
0.000000
210
0.000000
220
0.000000
230
1.000000
 60
     0
  2
SOLID
 70
     1
 71
     0
 91
     1
 92
     7
 72
     0
 73
     1
 93
     3
 10
70.650000
 20
152.275000
 10
69.725000
 20
152.275000
 10
70.175000
 20
155.775000
 97
     1
330
41b
 75
     0
 76
     1
 47
0.651316
 98
     1
 10
0.000000
 20
0.000000
  0
LWPOLYLINE
  5
41b
100
AcDbEntity
  8
0
  6
CONTINUOUS
 62
     2
100
AcDbPolyline
 90
     3
 70
     1
 10
70.650000
 20
152.275000
 10
69.725000
 20
152.275000
 10
70.175000
 20
155.775000
  0
LWPOLYLINE
  5
424
100
AcDbEntity
  8
0
100
AcDbPolyline
 90
     4
 70
     0
 10
70.175000
 20
155.775000
 10
70.650000
 20
152.275000
 10
69.725000
 20
152.275000
 10
70.175000
 20
155.775000
  0
MTEXT
  5
42f
100
AcDbEntity
  8
0
100
AcDbMText
 10
64.950000
 20
165.600000
 40
3.200000
 41
2.850000
 71
     1
 72
     5
  1
\T1.21;\fＭＳ ゴシック|b0|i0|c128|p18;4
 11
0.0000000000000000
 21
1.000000
 31
0.000000
  7
BIGFONT
  0
MTEXT
  5
432
100
AcDbEntity
  8
0
100
AcDbMText
 10
123.175000
 20
244.675000
 40
3.875000
 41
25.125000
 71
     1
 72
     5
  1
\T1.1;\fArial Narrow|b0|i0|c128|p18;F60UL\fＭＳ ゴシック|b0|i0|c128|p18;カ　ート　
  7
BIGFONT
  0
LINE
  5
435
100
AcDbEntity
  8
0
100
AcDbLine
 10
7.025000
 20
113.900000
 11
23.675000
 21
97.275000
  0
LINE
  5
438
100
AcDbEntity
  8
0
100
AcDbLine
 10
7.775000
 20
115.400000
 11
25.925000
 21
97.275000
  0
LINE
  5
43b
100
AcDbEntity
  8
0
100
AcDbLine
 10
23.675000
 20
87.075000
 11
6.650000
 21
70.075000
  0
LINE
  5
43e
100
AcDbEntity
  8
0
100
AcDbLine
 10
8.150000
 20
69.300000
 11
25.925000
 21
87.075000
  0
LINE
  5
441
100
AcDbEntity
  8
0
100
AcDbLine
 10
33.850000
 20
87.075000
 11
52.000000
 21
68.925000
  0
LINE
  5
444
100
AcDbEntity
  8
0
100
AcDbLine
 10
51.625000
 20
115.050000
 11
33.850000
 21
97.275000
  0
LINE
  5
447
100
AcDbEntity
  8
0
100
AcDbLine
 10
36.100000
 20
97.275000
 11
53.125000
 21
114.275000
  0
LINE
  5
44a
100
AcDbEntity
  8
0
100
AcDbLine
 10
23.675000
 20
87.075000
 11
24.850000
 21
88.275000
  0
LINE
  5
44d
100
AcDbEntity
  8
0
100
AcDbLine
 10
23.675000
 20
97.275000
 11
24.675000
 21
96.250000
  0
LINE
  5
450
100
AcDbEntity
  8
0
100
AcDbLine
 10
36.100000
 20
97.275000
 11
35.000000
 21
96.175000
  0
LINE
  5
453
100
AcDbEntity
  8
0
100
AcDbLine
 10
34.975000
 20
88.225000
 11
52.750000
 21
70.425000
  0
LINE
  5
456
100
AcDbEntity
  8
0
100
AcDbLine
 10
51.225000
 20
68.500000
 11
52.725000
 21
67.950000
  0
LINE
  5
459
100
AcDbEntity
  8
0
100
AcDbLine
 10
53.550000
 20
113.500000
 11
54.100000
 21
115.000000
  0
LINE
  5
45c
100
AcDbEntity
  8
0
100
AcDbLine
 10
6.225000
 20
70.825000
 11
5.675000
 21
69.325000
  0
LINE
  5
45f
100
AcDbEntity
  8
0
100
AcDbLine
 10
7.050000
 20
116.375000
 11
8.550000
 21
115.850000
  0
LINE
  5
462
100
AcDbEntity
  8
0
100
AcDbLine
 10
54.875000
 20
122.350000
 11
54.875000
 21
111.525000
  0
LINE
  5
465
100
AcDbEntity
  8
0
100
AcDbLine
 10
49.575000
 20
117.175000
 11
60.950000
 21
117.175000
  0
LINE
  5
468
100
AcDbEntity
  8
0
100
AcDbLine
 10
54.875000
 20
72.825000
 11
54.875000
 21
62.000000
  0
LINE
  5
46b
100
AcDbEntity
  8
0
100
AcDbLine
 10
60.950000
 20
67.175000
 11
49.575000
 21
67.175000
  0
LINE
  5
46e
100
AcDbEntity
  8
0
100
AcDbLine
 10
4.875000
 20
111.525000
 11
4.875000
 21
122.350000
  0
LINE
  5
471
100
AcDbEntity
  8
0
100
AcDbLine
 10
-1.175000
 20
117.175000
 11
10.175000
 21
117.175000
  0
LINE
  5
474
100
AcDbEntity
  8
0
100
AcDbLine
 10
4.875000
 20
62.000000
 11
4.875000
 21
72.825000
  0
LINE
  5
477
100
AcDbEntity
  8
0
100
AcDbLine
 10
10.175000
 20
67.175000
 11
-1.175000
 21
67.175000
  0
LINE
  5
47a
100
AcDbEntity
  8
0
100
AcDbLine
 10
106.775000
 20
95.000000
 11
106.775000
 21
112.875000
  0
LINE
  5
47d
100
AcDbEntity
  8
0
100
AcDbLine
 10
109.975000
 20
121.250000
 11
110.025000
 21
121.250000
  0
LINE
  5
480
100
AcDbEntity
  8
0
100
AcDbLine
 10
110.775000
 20
69.950000
 11
110.775000
 21
64.250000
  0
LINE
  5
483
100
AcDbEntity
  8
0
100
AcDbLine
 10
109.175000
 20
64.250000
 11
109.175000
 21
70.600000
  0
LINE
  5
486
100
AcDbEntity
  8
0
100
AcDbLine
 10
110.775000
 20
113.450000
 11
110.775000
 21
120.450000
  0
LINE
  5
489
100
AcDbEntity
  8
0
100
AcDbLine
 10
109.975000
 20
121.250000
 11
110.025000
 21
121.250000
  0
LINE
  5
48c
100
AcDbEntity
  8
0
100
AcDbLine
 10
106.775000
 20
71.850000
 11
106.775000
 21
89.700000
  0
LINE
  5
48f
100
AcDbEntity
  8
0
100
AcDbLine
 10
108.375000
 20
64.150000
 11
108.375000
 21
71.025000
  0
LINE
  5
492
100
AcDbEntity
  8
0
100
AcDbLine
 10
108.375000
 20
95.000000
 11
108.375000
 21
112.200000
  0
LINE
  5
495
100
AcDbEntity
  8
0
100
AcDbLine
 10
108.375000
 20
89.700000
 11
108.375000
 21
94.975000
  0
LINE
  5
498
100
AcDbEntity
  8
0
100
AcDbLine
 10
110.775000
 20
71.250000
 11
110.775000
 21
64.425000
  0
LINE
  5
49b
100
AcDbEntity
  8
0
100
AcDbLine
 10
108.375000
 20
72.500000
 11
108.375000
 21
89.700000
  0
LINE
  5
49e
100
AcDbEntity
  8
0
100
AcDbLine
 10
108.375000
 20
72.500000
 11
110.775000
 21
71.250000
  0
LINE
  5
4a1
100
AcDbEntity
  8
0
100
AcDbLine
 10
109.175000
 20
114.125000
 11
106.775000
 21
112.875000
  0
LINE
  5
4a4
100
AcDbEntity
  8
0
100
AcDbLine
 10
109.175000
 20
114.125000
 11
109.175000
 21
120.450000
  0
LINE
  5
4a7
100
AcDbEntity
  8
0
100
AcDbLine
 10
108.375000
 20
112.200000
 11
110.775000
 21
113.450000
  0
LINE
  5
4aa
100
AcDbEntity
  8
0
100
AcDbLine
 10
108.375000
 20
72.500000
 11
108.375000
 21
89.700000
  0
LINE
  5
4ad
100
AcDbEntity
  8
0
100
AcDbLine
 10
110.775000
 20
71.250000
 11
108.375000
 21
72.500000
  0
LINE
  5
4b0
100
AcDbEntity
  8
0
100
AcDbLine
 10
106.775000
 20
71.850000
 11
109.175000
 21
70.600000
  0
LINE
  5
4b3
100
AcDbEntity
  8
0
100
AcDbLine
 10
109.975000
 20
71.675000
 11
109.975000
 21
113.050000
  0
LINE
  5
4b6
100
AcDbEntity
  8
0
100
AcDbLine
 10
108.375000
 20
113.700000
 11
108.375000
 21
120.550000
  0
LINE
  5
4b9
100
AcDbEntity
  8
0
100
AcDbLine
 10
104.225000
 20
117.350000
 11
114.525000
 21
117.350000
  0
LINE
  5
4bc
100
AcDbEntity
  8
0
100
AcDbLine
 10
105.075000
 20
67.350000
 11
113.350000
 21
67.350000
  0
LINE
  5
4bf
100
AcDbEntity
  8
0
100
AcDbLine
 10
103.375000
 20
92.350000
 11
117.200000
 21
92.350000
  0
LINE
  5
4c2
100
AcDbEntity
  8
0
100
AcDbLine
 10
29.875000
 20
123.750000
 11
29.875000
 21
121.175000
  0
LINE
  5
4c5
100
AcDbEntity
  8
0
100
AcDbLine
 10
-1.300000
 20
92.175000
 11
28.025000
 21
92.175000
  0
LINE
  5
4c8
100
AcDbEntity
  8
0
100
AcDbLine
 10
29.875000
 20
121.175000
 11
32.525000
 21
121.175000
  0
LINE
  5
4cb
100
AcDbEntity
  8
0
100
AcDbLine
 10
29.875000
 20
121.175000
 11
29.875000
 21
97.175000
  0
LINE
  5
4ce
100
AcDbEntity
  8
0
100
AcDbLine
 10
29.875000
 20
63.175000
 11
31.575000
 21
63.175000
  0
LINE
  5
4d1
100
AcDbEntity
  8
0
100
AcDbLine
 10
29.875000
 20
63.175000
 11
29.875000
 21
60.075000
  0
LINE
  5
4d4
100
AcDbEntity
  8
0
100
AcDbLine
 10
29.875000
 20
97.175000
 11
30.925000
 21
97.175000
  0
LINE
  5
4d7
100
AcDbEntity
  8
0
100
AcDbLine
 10
29.875000
 20
97.175000
 11
29.875000
 21
87.175000
  0
LINE
  5
4da
100
AcDbEntity
  8
0
100
AcDbLine
 10
29.875000
 20
87.175000
 11
31.425000
 21
87.175000
  0
LINE
  5
4dd
100
AcDbEntity
  8
0
100
AcDbLine
 10
29.875000
 20
87.175000
 11
29.875000
 21
63.175000
  0
LINE
  5
4e0
100
AcDbEntity
  8
0
100
AcDbLine
 10
28.025000
 20
92.175000
 11
28.025000
 21
94.150000
  0
LINE
  5
4e3
100
AcDbEntity
  8
0
100
AcDbLine
 10
28.025000
 20
92.175000
 11
31.725000
 21
92.175000
  0
LINE
  5
4e6
100
AcDbEntity
  8
0
100
AcDbLine
 10
31.725000
 20
92.175000
 11
31.725000
 21
94.000000
  0
LINE
  5
4e9
100
AcDbEntity
  8
0
100
AcDbLine
 10
31.725000
 20
92.175000
 11
61.950000
 21
92.175000
  0
LINE
  5
4ec
100
AcDbEntity
  8
0
100
AcDbLine
 10
52.975000
 20
115.875000
 11
56.625000
 21
118.350000
  0
LINE
  5
4ef
100
AcDbEntity
  8
0
100
AcDbLine
 10
70.300000
 20
127.675000
 11
94.150000
 21
127.675000
  0
ARC
  5
4f2
100
AcDbEntity
  8
0
100
AcDbCircle
 10
4.875000
 20
117.175000
 40
3.875000
100
AcDbArc
 50
340.015625
 51
303.171875
  0
ARC
  5
4f5
100
AcDbEntity
  8
0
100
AcDbCircle
 10
54.875000
 20
67.175000
 40
3.900000
100
AcDbArc
 50
160.015625
 51
123.171875
  0
ARC
  5
4f8
100
AcDbEntity
  8
0
100
AcDbCircle
 10
54.875000
 20
117.175000
 40
3.900000
100
AcDbArc
 50
250.000000
 51
213.171875
  0
ARC
  5
4fb
100
AcDbEntity
  8
0
100
AcDbCircle
 10
4.875000
 20
67.175000
 40
3.900000
100
AcDbArc
 50
70.000000
 51
33.171875
  0
ARC
  5
4fe
100
AcDbEntity
  8
0
100
AcDbCircle
 10
20.825000
 20
92.175000
 40
5.575000
100
AcDbArc
 50
315.750000
 51
46.546875
  0
ARC
  5
501
100
AcDbEntity
  8
0
100
AcDbCircle
 10
38.925000
 20
92.175000
 40
5.600000
100
AcDbArc
 50
134.546875
 51
225.000000
  0
ARC
  5
504
100
AcDbEntity
  8
0
100
AcDbCircle
 10
29.875000
 20
92.175000
 40
29.000000
100
AcDbArc
 50
136.593750
 51
180.000000
  0
ARC
  5
507
100
AcDbEntity
  8
0
100
AcDbCircle
 10
29.875000
 20
92.175000
 40
28.975000
100
AcDbArc
 50
316.593750
 51
43.421875
  0
ARC
  5
50a
100
AcDbEntity
  8
0
100
AcDbCircle
 10
29.875000
 20
92.175000
 40
27.400000
100
AcDbArc
 50
136.687500
 51
180.000000
  0
ARC
  5
50d
100
AcDbEntity
  8
0
100
AcDbCircle
 10
29.875000
 20
92.175000
 40
27.375000
100
AcDbArc
 50
316.687500
 51
43.328125
  0
ARC
  5
510
100
AcDbEntity
  8
0
100
AcDbCircle
 10
29.875000
 20
92.175000
 40
23.375000
100
AcDbArc
 50
136.968750
 51
180.000000
  0
ARC
  5
513
100
AcDbEntity
  8
0
100
AcDbCircle
 10
29.875000
 20
92.175000
 40
23.375000
100
AcDbArc
 50
316.968750
 51
43.046875
  0
ARC
  5
516
100
AcDbEntity
  8
0
100
AcDbCircle
 10
29.875000
 20
92.175000
 40
21.800000
100
AcDbArc
 50
317.109375
 51
42.906250
  0
ARC
  5
519
100
AcDbEntity
  8
0
100
AcDbCircle
 10
29.875000
 20
92.175000
 40
21.800000
100
AcDbArc
 50
137.109375
 51
180.000000
  0
ARC
  5
51c
100
AcDbEntity
  8
0
100
AcDbCircle
 10
29.875000
 20
92.175000
 40
17.775000
100
AcDbArc
 50
137.578125
 51
180.000000
  0
ARC
  5
51f
100
AcDbEntity
  8
0
100
AcDbCircle
 10
29.875000
 20
92.175000
 40
17.800000
100
AcDbArc
 50
317.578125
 51
42.437500
  0
ARC
  5
522
100
AcDbEntity
  8
0
100
AcDbCircle
 10
29.875000
 20
92.175000
 40
16.200000
100
AcDbArc
 50
317.843750
 51
42.171875
  0
ARC
  5
525
100
AcDbEntity
  8
0
100
AcDbCircle
 10
29.875000
 20
92.175000
 40
16.200000
100
AcDbArc
 50
137.843750
 51
180.000000
  0
ARC
  5
528
100
AcDbEntity
  8
0
100
AcDbCircle
 10
29.875000
 20
92.175000
 40
12.200000
100
AcDbArc
 50
138.765625
 51
180.000000
  0
ARC
  5
52b
100
AcDbEntity
  8
0
100
AcDbCircle
 10
29.875000
 20
92.175000
 40
12.200000
100
AcDbArc
 50
318.765625
 51
41.250000
  0
ARC
  5
52e
100
AcDbEntity
  8
0
100
AcDbCircle
 10
29.875000
 20
92.175000
 40
10.600000
100
AcDbArc
 50
319.343750
 51
40.671875
  0
ARC
  5
531
100
AcDbEntity
  8
0
100
AcDbCircle
 10
29.875000
 20
92.175000
 40
10.575000
100
AcDbArc
 50
139.343750
 51
180.000000
  0
ARC
  5
534
100
AcDbEntity
  8
0
100
AcDbCircle
 10
29.875000
 20
92.175000
 40
6.575000
100
AcDbArc
 50
321.968750
 51
38.046875
  0
ARC
  5
537
100
AcDbEntity
  8
0
100
AcDbCircle
 10
29.875000
 20
92.175000
 40
4.975000
100
AcDbArc
 50
146.609375
 51
180.000000
  0
ARC
  5
53a
100
AcDbEntity
  8
0
100
AcDbCircle
 10
29.875000
 20
92.175000
 40
4.975000
100
AcDbArc
 50
326.609375
 51
33.406250
  0
ARC
  5
53d
100
AcDbEntity
  8
0
100
AcDbCircle
 10
29.875000
 20
92.175000
 40
28.975000
100
AcDbArc
 50
270.000000
 51
313.421875
  0
ARC
  5
540
100
AcDbEntity
  8
0
100
AcDbCircle
 10
29.875000
 20
92.175000
 40
27.375000
100
AcDbArc
 50
226.687500
 51
313.328125
  0
ARC
  5
543
100
AcDbEntity
  8
0
100
AcDbCircle
 10
29.875000
 20
92.175000
 40
23.400000
100
AcDbArc
 50
226.968750
 51
313.046875
  0
ARC
  5
546
100
AcDbEntity
  8
0
100
AcDbCircle
 10
29.875000
 20
92.175000
 40
21.800000
100
AcDbArc
 50
227.109375
 51
312.906250
  0
ARC
  5
549
100
AcDbEntity
  8
0
100
AcDbCircle
 10
29.875000
 20
92.175000
 40
17.775000
100
AcDbArc
 50
227.578125
 51
312.437500
  0
ARC
  5
54c
100
AcDbEntity
  8
0
100
AcDbCircle
 10
29.875000
 20
92.175000
 40
16.175000
100
AcDbArc
 50
227.843750
 51
312.171875
  0
ARC
  5
54f
100
AcDbEntity
  8
0
100
AcDbCircle
 10
29.875000
 20
92.175000
 40
12.200000
100
AcDbArc
 50
228.765625
 51
311.250000
  0
ARC
  5
552
100
AcDbEntity
  8
0
100
AcDbCircle
 10
29.875000
 20
92.175000
 40
10.575000
100
AcDbArc
 50
229.343750
 51
310.671875
  0
ARC
  5
555
100
AcDbEntity
  8
0
100
AcDbCircle
 10
29.875000
 20
92.175000
 40
6.575000
100
AcDbArc
 50
231.968750
 51
308.046875
  0
ARC
  5
558
100
AcDbEntity
  8
0
100
AcDbCircle
 10
29.875000
 20
92.175000
 40
4.975000
100
AcDbArc
 50
270.000000
 51
307.500000
  0
ARC
  5
55b
100
AcDbEntity
  8
0
100
AcDbCircle
 10
29.875000
 20
92.175000
 40
5.000000
100
AcDbArc
 50
180.000000
 51
213.406250
  0
ARC
  5
55e
100
AcDbEntity
  8
0
100
AcDbCircle
 10
29.875000
 20
92.175000
 40
6.575000
100
AcDbArc
 50
141.984375
 51
218.046875
  0
ARC
  5
561
100
AcDbEntity
  8
0
100
AcDbCircle
 10
29.875000
 20
92.175000
 40
12.175000
100
AcDbArc
 50
180.000000
 51
221.250000
  0
ARC
  5
564
100
AcDbEntity
  8
0
100
AcDbCircle
 10
29.875000
 20
92.175000
 40
10.575000
100
AcDbArc
 50
180.000000
 51
220.671875
  0
ARC
  5
567
100
AcDbEntity
  8
0
100
AcDbCircle
 10
29.875000
 20
92.175000
 40
23.400000
100
AcDbArc
 50
180.000000
 51
223.046875
  0
ARC
  5
56a
100
AcDbEntity
  8
0
100
AcDbCircle
 10
29.875000
 20
92.175000
 40
21.800000
100
AcDbArc
 50
180.000000
 51
222.906250
  0
ARC
  5
56d
100
AcDbEntity
  8
0
100
AcDbCircle
 10
29.875000
 20
92.175000
 40
27.400000
100
AcDbArc
 50
180.000000
 51
223.328125
  0
ARC
  5
570
100
AcDbEntity
  8
0
100
AcDbCircle
 10
29.875000
 20
92.175000
 40
28.975000
100
AcDbArc
 50
180.000000
 51
223.421875
  0
ARC
  5
573
100
AcDbEntity
  8
0
100
AcDbCircle
 10
29.875000
 20
92.175000
 40
6.575000
100
AcDbArc
 50
51.968750
 51
128.046875
  0
ARC
  5
576
100
AcDbEntity
  8
0
100
AcDbCircle
 10
29.875000
 20
92.175000
 40
5.000000
100
AcDbArc
 50
90.000000
 51
127.500000
  0
ARC
  5
579
100
AcDbEntity
  8
0
100
AcDbCircle
 10
29.875000
 20
92.175000
 40
16.200000
100
AcDbArc
 50
47.843750
 51
132.171875
  0
ARC
  5
57c
100
AcDbEntity
  8
0
100
AcDbCircle
 10
29.875000
 20
92.175000
 40
17.775000
100
AcDbArc
 50
47.578125
 51
132.437500
  0
ARC
  5
57f
100
AcDbEntity
  8
0
100
AcDbCircle
 10
29.875000
 20
92.175000
 40
21.775000
100
AcDbArc
 50
47.109375
 51
132.906250
  0
ARC
  5
582
100
AcDbEntity
  8
0
100
AcDbCircle
 10
29.875000
 20
92.175000
 40
23.375000
100
AcDbArc
 50
46.968750
 51
133.046875
  0
ARC
  5
585
100
AcDbEntity
  8
0
100
AcDbCircle
 10
29.875000
 20
92.175000
 40
27.375000
100
AcDbArc
 50
46.687500
 51
133.328125
  0
ARC
  5
588
100
AcDbEntity
  8
0
100
AcDbCircle
 10
29.875000
 20
92.175000
 40
29.000000
100
AcDbArc
 50
90.000000
 51
133.421875
  0
ARC
  5
58b
100
AcDbEntity
  8
0
100
AcDbCircle
 10
29.875000
 20
92.175000
 40
17.800000
100
AcDbArc
 50
180.000000
 51
222.437500
  0
ARC
  5
58e
100
AcDbEntity
  8
0
100
AcDbCircle
 10
29.875000
 20
92.175000
 40
16.175000
100
AcDbArc
 50
180.000000
 51
222.171875
  0
ARC
  5
591
100
AcDbEntity
  8
0
100
AcDbCircle
 10
54.875000
 20
117.175000
 40
2.300000
100
AcDbArc
 50
249.000000
 51
250.000000
  0
ARC
  5
594
100
AcDbEntity
  8
0
100
AcDbCircle
 10
54.875000
 20
117.175000
 40
2.300000
100
AcDbArc
 50
250.000000
 51
221.531250
  0
ARC
  5
597
100
AcDbEntity
  8
0
100
AcDbCircle
 10
4.875000
 20
117.175000
 40
2.275000
100
AcDbArc
 50
340.015625
 51
311.531250
  0
ARC
  5
59a
100
AcDbEntity
  8
0
100
AcDbCircle
 10
4.875000
 20
67.175000
 40
2.275000
100
AcDbArc
 50
70.015625
 51
41.531250
  0
ARC
  5
59d
100
AcDbEntity
  8
0
100
AcDbCircle
 10
54.875000
 20
67.175000
 40
2.275000
100
AcDbArc
 50
160.000000
 51
131.531250
  0
ARC
  5
5a0
100
AcDbEntity
  8
0
100
AcDbCircle
 10
29.875000
 20
92.175000
 40
30.000000
100
AcDbArc
 50
133.484375
 51
136.531250
  0
ARC
  5
5a3
100
AcDbEntity
  8
0
100
AcDbCircle
 10
29.875000
 20
92.175000
 40
30.000000
100
AcDbArc
 50
43.484375
 51
46.531250
  0
ARC
  5
5a6
100
AcDbEntity
  8
0
100
AcDbCircle
 10
29.875000
 20
92.175000
 40
30.000000
100
AcDbArc
 50
313.484375
 51
316.531250
  0
ARC
  5
5a9
100
AcDbEntity
  8
0
100
AcDbCircle
 10
29.875000
 20
92.175000
 40
30.000000
100
AcDbArc
 50
223.484375
 51
226.531250
  0
ARC
  5
5ac
100
AcDbEntity
  8
0
100
AcDbCircle
 10
109.175000
 20
64.150000
 40
0.775000
100
AcDbArc
 50
271.859375
 51
308.671875
  0
ARC
  5
5af
100
AcDbEntity
  8
0
100
AcDbCircle
 10
109.975000
 20
120.450000
 40
0.800000
100
AcDbArc
 50
1.734375
 51
88.250000
  0
ARC
  5
5b2
100
AcDbEntity
  8
0
100
AcDbCircle
 10
109.175000
 20
120.550000
 40
0.775000
100
AcDbArc
 50
52.421875
 51
90.000000
  0
ARC
  5
5b5
100
AcDbEntity
  8
0
100
AcDbCircle
 10
29.875000
 20
92.175000
 40
29.000000
100
AcDbArc
 50
46.593750
 51
90.000000
  0
ARC
  5
5b8
100
AcDbEntity
  8
0
100
AcDbCircle
 10
29.875000
 20
92.175000
 40
28.975000
100
AcDbArc
 50
226.593750
 51
270.000000
  0
ARC
  5
5bb
100
AcDbEntity
  8
0
100
AcDbCircle
 10
29.875000
 20
92.175000
 40
5.000000
100
AcDbArc
 50
52.515625
 51
90.000000
  0
ARC
  5
5be
100
AcDbEntity
  8
0
100
AcDbCircle
 10
29.875000
 20
92.175000
 40
5.000000
100
AcDbArc
 50
232.515625
 51
270.000000
  0
ARC
  5
5c1
100
AcDbEntity
  8
0
100
AcDbCircle
 10
29.875000
 20
92.175000
 40
12.200000
100
AcDbArc
 50
48.765625
 51
131.250000
  0
ARC
  5
5c4
100
AcDbEntity
  8
0
100
AcDbCircle
 10
29.875000
 20
92.175000
 40
10.575000
100
AcDbArc
 50
49.343750
 51
130.671875
  0
ARC
  5
5c7
100
AcDbEntity
  8
0
100
AcDbCircle
 10
20.825000
 20
92.175000
 40
7.175000
100
AcDbArc
 50
360.000000
 51
45.000000
  0
ARC
  5
5ca
100
AcDbEntity
  8
0
100
AcDbCircle
 10
38.925000
 20
92.175000
 40
7.200000
100
AcDbArc
 50
180.000000
 51
225.015625
  0
ARC
  5
5cd
100
AcDbEntity
  8
0
100
AcDbCircle
 10
7.075000
 20
114.700000
 40
1.000000
100
AcDbArc
 50
45.000000
 51
131.531250
  0
ARC
  5
5d0
100
AcDbEntity
  8
0
100
AcDbCircle
 10
52.425000
 20
114.975000
 40
0.975000
100
AcDbArc
 50
315.000000
 51
41.531250
  0
ARC
  5
5d3
100
AcDbEntity
  8
0
100
AcDbCircle
 10
52.700000
 20
69.650000
 40
0.975000
100
AcDbArc
 50
225.015625
 51
311.531250
  0
ARC
  5
5d6
100
AcDbEntity
  8
0
100
AcDbCircle
 10
7.350000
 20
69.350000
 40
1.000000
100
AcDbArc
 50
135.000000
 51
221.531250
  0
ARC
  5
5d9
100
AcDbEntity
  8
0
100
AcDbCircle
 10
109.175000
 20
64.150000
 40
0.800000
100
AcDbArc
 50
178.218750
 51
271.796875
  0
ARC
  5
5dc
100
AcDbEntity
  8
0
100
AcDbCircle
 10
109.975000
 20
64.250000
 40
0.800000
100
AcDbArc
 50
245.843750
 51
1.734375
  0
ARC
  5
5df
100
AcDbEntity
  8
0
100
AcDbCircle
 10
109.175000
 20
120.550000
 40
0.800000
100
AcDbArc
 50
88.250000
 51
178.218750
  0
ARC
  5
5e2
100
AcDbEntity
  8
0
100
AcDbCircle
 10
109.975000
 20
120.450000
 40
0.800000
100
AcDbArc
 50
88.250000
 51
178.218750
  0
ARC
  5
5e5
100
AcDbEntity
  8
0
100
AcDbCircle
 10
109.975000
 20
64.250000
 40
0.800000
100
AcDbArc
 50
178.218750
 51
245.843750
  0
ARC
  5
5e8
100
AcDbEntity
  8
0
100
AcDbCircle
 10
107.575000
 20
89.700000
 40
0.800000
100
AcDbArc
 50
88.250000
 51
178.218750
  0
ARC
  5
5eb
100
AcDbEntity
  8
0
100
AcDbCircle
 10
107.575000
 20
95.000000
 40
0.775000
100
AcDbArc
 50
178.156250
 51
271.859375
  0
ARC
  5
5ee
100
AcDbEntity
  8
0
100
AcDbCircle
 10
107.575000
 20
95.000000
 40
0.800000
100
AcDbArc
 50
271.796875
 51
1.734375
  0
ARC
  5
5f1
100
AcDbEntity
  8
0
100
AcDbCircle
 10
107.575000
 20
89.700000
 40
0.800000
100
AcDbArc
 50
1.734375
 51
88.250000
  0
ARC
  5
5f4
100
AcDbEntity
  8
0
100
AcDbCircle
 10
20.825000
 20
92.175000
 40
7.200000
100
AcDbArc
 50
315.015625
 51
360.000000
  0
ARC
  5
5f7
100
AcDbEntity
  8
0
100
AcDbCircle
 10
38.925000
 20
92.175000
 40
7.175000
100
AcDbArc
 50
135.000000
 51
180.000000
  0
LINE
  5
5fa
100
AcDbEntity
  8
0
100
AcDbLine
 10
48.650000
 20
112.925000
 11
52.975000
 21
115.875000
  0
HATCH
  5
5fd
100
AcDbEntity
  8
0
  6
CONTINUOUS
 62
     2
100
AcDbHatch
 10
0.000000
 20
0.000000
 30
0.000000
210
0.000000
220
0.000000
230
1.000000
 60
     0
  2
SOLID
 70
     1
 71
     0
 91
     1
 92
     7
 72
     0
 73
     1
 93
     3
 10
49.825000
 20
114.275000
 10
52.975000
 20
115.875000
 10
50.350000
 20
113.525000
 97
     1
330
600
 75
     0
 76
     1
 47
0.651316
 98
     1
 10
0.000000
 20
0.000000
  0
LWPOLYLINE
  5
600
100
AcDbEntity
  8
0
  6
CONTINUOUS
 62
     2
100
AcDbPolyline
 90
     3
 70
     1
 10
49.825000
 20
114.275000
 10
52.975000
 20
115.875000
 10
50.350000
 20
113.525000
  0
LWPOLYLINE
  5
609
100
AcDbEntity
  8
0
100
AcDbPolyline
 90
     4
 70
     0
 10
50.350000
 20
113.525000
 10
49.825000
 20
114.275000
 10
52.975000
 20
115.875000
 10
50.350000
 20
113.525000
  0
LINE
  5
614
100
AcDbEntity
  8
0
100
AcDbLine
 10
70.300000
 20
127.675000
 11
56.625000
 21
118.350000
  0
HATCH
  5
617
100
AcDbEntity
  8
0
  6
CONTINUOUS
 62
     2
100
AcDbHatch
 10
0.000000
 20
0.000000
 30
0.000000
210
0.000000
220
0.000000
230
1.000000
 60
     0
  2
SOLID
 70
     1
 71
     0
 91
     1
 92
     7
 72
     0
 73
     1
 93
     3
 10
59.775000
 20
119.950000
 10
56.625000
 20
118.350000
 10
59.250000
 20
120.700000
 97
     1
330
61a
 75
     0
 76
     1
 47
0.651316
 98
     1
 10
0.000000
 20
0.000000
  0
LWPOLYLINE
  5
61a
100
AcDbEntity
  8
0
  6
CONTINUOUS
 62
     2
100
AcDbPolyline
 90
     3
 70
     1
 10
59.775000
 20
119.950000
 10
56.625000
 20
118.350000
 10
59.250000
 20
120.700000
  0
LWPOLYLINE
  5
623
100
AcDbEntity
  8
0
100
AcDbPolyline
 90
     4
 70
     0
 10
59.250000
 20
120.700000
 10
59.775000
 20
119.950000
 10
56.625000
 20
118.350000
 10
59.250000
 20
120.700000
  0
MTEXT
  5
62e
100
AcDbEntity
  8
0
100
AcDbMText
 10
71.225000
 20
131.850000
 40
3.500000
 41
37.800000
 71
     1
 72
     5
  1
\T1.21;\fＭＳ ゴシック|b0|i0|c128|p18;4-φ4.6±0.2
  7
BIGFONT
  0
LINE
  5
631
100
AcDbEntity
  8
0
100
AcDbLine
 10
78.875000
 20
67.175000
 11
78.875000
 21
117.175000
  0
LINE
  5
634
100
AcDbEntity
  8
0
100
AcDbLine
 10
60.950000
 20
67.175000
 11
79.875000
 21
67.175000
  0
LINE
  5
637
100
AcDbEntity
  8
0
100
AcDbLine
 10
60.950000
 20
117.175000
 11
79.875000
 21
117.175000
  0
HATCH
  5
63a
100
AcDbEntity
  8
0
  6
CONTINUOUS
 62
     2
100
AcDbHatch
 10
0.000000
 20
0.000000
 30
0.000000
210
0.000000
220
0.000000
230
1.000000
 60
     0
  2
SOLID
 70
     1
 71
     0
 91
     1
 92
     7
 72
     0
 73
     1
 93
     3
 10
78.425000
 20
70.675000
 10
79.350000
 20
70.675000
 10
78.875000
 20
67.175000
 97
     1
330
63d
 75
     0
 76
     1
 47
0.651316
 98
     1
 10
0.000000
 20
0.000000
  0
LWPOLYLINE
  5
63d
100
AcDbEntity
  8
0
  6
CONTINUOUS
 62
     2
100
AcDbPolyline
 90
     3
 70
     1
 10
78.425000
 20
70.675000
 10
79.350000
 20
70.675000
 10
78.875000
 20
67.175000
  0
LWPOLYLINE
  5
646
100
AcDbEntity
  8
0
100
AcDbPolyline
 90
     4
 70
     0
 10
78.875000
 20
67.175000
 10
78.425000
 20
70.675000
 10
79.350000
 20
70.675000
 10
78.875000
 20
67.175000
  0
HATCH
  5
651
100
AcDbEntity
  8
0
  6
CONTINUOUS
 62
     2
100
AcDbHatch
 10
0.000000
 20
0.000000
 30
0.000000
210
0.000000
220
0.000000
230
1.000000
 60
     0
  2
SOLID
 70
     1
 71
     0
 91
     1
 92
     7
 72
     0
 73
     1
 93
     3
 10
79.350000
 20
113.675000
 10
78.425000
 20
113.675000
 10
78.875000
 20
117.175000
 97
     1
330
654
 75
     0
 76
     1
 47
0.651316
 98
     1
 10
0.000000
 20
0.000000
  0
LWPOLYLINE
  5
654
100
AcDbEntity
  8
0
  6
CONTINUOUS
 62
     2
100
AcDbPolyline
 90
     3
 70
     1
 10
79.350000
 20
113.675000
 10
78.425000
 20
113.675000
 10
78.875000
 20
117.175000
  0
LWPOLYLINE
  5
65d
100
AcDbEntity
  8
0
100
AcDbPolyline
 90
     4
 70
     0
 10
78.875000
 20
117.175000
 10
79.350000
 20
113.675000
 10
78.425000
 20
113.675000
 10
78.875000
 20
117.175000
  0
MTEXT
  5
668
100
AcDbEntity
  8
0
100
AcDbMText
 10
74.675000
 20
89.475000
 40
3.200000
 41
5.750000
 71
     1
 72
     5
  1
\T1.21;\fＭＳ ゴシック|b0|i0|c128|p18;50
 11
0.0000000000000000
 21
1.000000
 31
0.000000
  7
BIGFONT
  0
LINE
  5
66b
100
AcDbEntity
  8
0
100
AcDbLine
 10
68.875000
 20
87.175000
 11
68.875000
 21
97.175000
  0
LINE
  5
66e
100
AcDbEntity
  8
0
100
AcDbLine
 10
31.425000
 20
87.175000
 11
69.875000
 21
87.175000
  0
LINE
  5
671
100
AcDbEntity
  8
0
100
AcDbLine
 10
30.925000
 20
97.175000
 11
69.875000
 21
97.175000
  0
HATCH
  5
674
100
AcDbEntity
  8
0
  6
CONTINUOUS
 62
     2
100
AcDbHatch
 10
0.000000
 20
0.000000
 30
0.000000
210
0.000000
220
0.000000
230
1.000000
 60
     0
  2
SOLID
 70
     1
 71
     0
 91
     1
 92
     7
 72
     0
 73
     1
 93
     3
 10
69.350000
 20
93.675000
 10
68.425000
 20
93.675000
 10
68.875000
 20
97.175000
 97
     1
330
677
 75
     0
 76
     1
 47
0.651316
 98
     1
 10
0.000000
 20
0.000000
  0
LWPOLYLINE
  5
677
100
AcDbEntity
  8
0
  6
CONTINUOUS
 62
     2
100
AcDbPolyline
 90
     3
 70
     1
 10
69.350000
 20
93.675000
 10
68.425000
 20
93.675000
 10
68.875000
 20
97.175000
  0
LWPOLYLINE
  5
680
100
AcDbEntity
  8
0
100
AcDbPolyline
 90
     4
 70
     0
 10
68.875000
 20
97.175000
 10
69.350000
 20
93.675000
 10
68.425000
 20
93.675000
 10
68.875000
 20
97.175000
  0
HATCH
  5
68b
100
AcDbEntity
  8
0
  6
CONTINUOUS
 62
     2
100
AcDbHatch
 10
0.000000
 20
0.000000
 30
0.000000
210
0.000000
220
0.000000
230
1.000000
 60
     0
  2
SOLID
 70
     1
 71
     0
 91
     1
 92
     7
 72
     0
 73
     1
 93
     3
 10
68.425000
 20
90.675000
 10
69.350000
 20
90.675000
 10
68.875000
 20
87.175000
 97
     1
330
68e
 75
     0
 76
     1
 47
0.651316
 98
     1
 10
0.000000
 20
0.000000
  0
LWPOLYLINE
  5
68e
100
AcDbEntity
  8
0
  6
CONTINUOUS
 62
     2
100
AcDbPolyline
 90
     3
 70
     1
 10
68.425000
 20
90.675000
 10
69.350000
 20
90.675000
 10
68.875000
 20
87.175000
  0
LWPOLYLINE
  5
697
100
AcDbEntity
  8
0
100
AcDbPolyline
 90
     4
 70
     0
 10
68.875000
 20
87.175000
 10
68.425000
 20
90.675000
 10
69.350000
 20
90.675000
 10
68.875000
 20
87.175000
  0
MTEXT
  5
6a2
100
AcDbEntity
  8
0
100
AcDbMText
 10
64.675000
 20
87.575000
 40
3.200000
 41
11.500000
 71
     1
 72
     5
  1
\T1.21;\fＭＳ ゴシック|b0|i0|c128|p18;φ10
 11
0.0000000000000000
 21
1.000000
 31
0.000000
  7
BIGFONT
  0
LINE
  5
6a5
100
AcDbEntity
  8
0
100
AcDbLine
 10
88.875000
 20
63.175000
 11
88.875000
 21
121.175000
  0
LINE
  5
6a8
100
AcDbEntity
  8
0
100
AcDbLine
 10
31.575000
 20
63.175000
 11
89.875000
 21
63.175000
  0
LINE
  5
6ab
100
AcDbEntity
  8
0
100
AcDbLine
 10
32.525000
 20
121.175000
 11
89.875000
 21
121.175000
  0
HATCH
  5
6ae
100
AcDbEntity
  8
0
  6
CONTINUOUS
 62
     2
100
AcDbHatch
 10
0.000000
 20
0.000000
 30
0.000000
210
0.000000
220
0.000000
230
1.000000
 60
     0
  2
SOLID
 70
     1
 71
     0
 91
     1
 92
     7
 72
     0
 73
     1
 93
     3
 10
89.350000
 20
117.675000
 10
88.425000
 20
117.675000
 10
88.875000
 20
121.175000
 97
     1
330
6b1
 75
     0
 76
     1
 47
0.651316
 98
     1
 10
0.000000
 20
0.000000
  0
LWPOLYLINE
  5
6b1
100
AcDbEntity
  8
0
  6
CONTINUOUS
 62
     2
100
AcDbPolyline
 90
     3
 70
     1
 10
89.350000
 20
117.675000
 10
88.425000
 20
117.675000
 10
88.875000
 20
121.175000
  0
LWPOLYLINE
  5
6ba
100
AcDbEntity
  8
0
100
AcDbPolyline
 90
     4
 70
     0
 10
88.875000
 20
121.175000
 10
89.350000
 20
117.675000
 10
88.425000
 20
117.675000
 10
88.875000
 20
121.175000
  0
HATCH
  5
6c5
100
AcDbEntity
  8
0
  6
CONTINUOUS
 62
     2
100
AcDbHatch
 10
0.000000
 20
0.000000
 30
0.000000
210
0.000000
220
0.000000
230
1.000000
 60
     0
  2
SOLID
 70
     1
 71
     0
 91
     1
 92
     7
 72
     0
 73
     1
 93
     3
 10
88.425000
 20
66.675000
 10
89.350000
 20
66.675000
 10
88.875000
 20
63.175000
 97
     1
330
6c8
 75
     0
 76
     1
 47
0.651316
 98
     1
 10
0.000000
 20
0.000000
  0
LWPOLYLINE
  5
6c8
100
AcDbEntity
  8
0
  6
CONTINUOUS
 62
     2
100
AcDbPolyline
 90
     3
 70
     1
 10
88.425000
 20
66.675000
 10
89.350000
 20
66.675000
 10
88.875000
 20
63.175000
  0
LWPOLYLINE
  5
6d1
100
AcDbEntity
  8
0
100
AcDbPolyline
 90
     4
 70
     0
 10
88.875000
 20
63.175000
 10
88.425000
 20
66.675000
 10
89.350000
 20
66.675000
 10
88.875000
 20
63.175000
  0
MTEXT
  5
6dc
100
AcDbEntity
  8
0
100
AcDbMText
 10
84.675000
 20
87.575000
 40
3.200000
 41
11.500000
 71
     1
 72
     5
  1
\T1.21;\fＭＳ ゴシック|b0|i0|c128|p18;φ58
 11
0.0000000000000000
 21
1.000000
 31
0.000000
  7
BIGFONT
  0
LINE
  5
6df
100
AcDbEntity
  8
0
100
AcDbLine
 10
21.025000
 20
131.175000
 11
28.025000
 21
131.175000
  0
LINE
  5
6e2
100
AcDbEntity
  8
0
100
AcDbLine
 10
28.025000
 20
131.175000
 11
31.725000
 21
131.175000
  0
LINE
  5
6e5
100
AcDbEntity
  8
0
100
AcDbLine
 10
31.725000
 20
131.175000
 11
44.675000
 21
131.175000
  0
LINE
  5
6e8
100
AcDbEntity
  8
0
100
AcDbLine
 10
28.025000
 20
94.150000
 11
28.025000
 21
132.175000
  0
LINE
  5
6eb
100
AcDbEntity
  8
0
100
AcDbLine
 10
31.725000
 20
94.000000
 11
31.725000
 21
132.175000
  0
HATCH
  5
6ee
100
AcDbEntity
  8
0
  6
CONTINUOUS
 62
     2
100
AcDbHatch
 10
0.000000
 20
0.000000
 30
0.000000
210
0.000000
220
0.000000
230
1.000000
 60
     0
  2
SOLID
 70
     1
 71
     0
 91
     1
 92
     7
 72
     0
 73
     1
 93
     3
 10
24.525000
 20
130.725000
 10
24.525000
 20
131.625000
 10
28.025000
 20
131.175000
 97
     1
330
6f1
 75
     0
 76
     1
 47
0.651316
 98
     1
 10
0.000000
 20
0.000000
  0
LWPOLYLINE
  5
6f1
100
AcDbEntity
  8
0
  6
CONTINUOUS
 62
     2
100
AcDbPolyline
 90
     3
 70
     1
 10
24.525000
 20
130.725000
 10
24.525000
 20
131.625000
 10
28.025000
 20
131.175000
  0
LWPOLYLINE
  5
6fa
100
AcDbEntity
  8
0
100
AcDbPolyline
 90
     4
 70
     0
 10
28.025000
 20
131.175000
 10
24.525000
 20
130.725000
 10
24.525000
 20
131.625000
 10
28.025000
 20
131.175000
  0
HATCH
  5
705
100
AcDbEntity
  8
0
  6
CONTINUOUS
 62
     2
100
AcDbHatch
 10
0.000000
 20
0.000000
 30
0.000000
210
0.000000
220
0.000000
230
1.000000
 60
     0
  2
SOLID
 70
     1
 71
     0
 91
     1
 92
     7
 72
     0
 73
     1
 93
     3
 10
35.225000
 20
131.625000
 10
35.225000
 20
130.725000
 10
31.725000
 20
131.175000
 97
     1
330
708
 75
     0
 76
     1
 47
0.651316
 98
     1
 10
0.000000
 20
0.000000
  0
LWPOLYLINE
  5
708
100
AcDbEntity
  8
0
  6
CONTINUOUS
 62
     2
100
AcDbPolyline
 90
     3
 70
     1
 10
35.225000
 20
131.625000
 10
35.225000
 20
130.725000
 10
31.725000
 20
131.175000
  0
LWPOLYLINE
  5
711
100
AcDbEntity
  8
0
100
AcDbPolyline
 90
     4
 70
     0
 10
31.725000
 20
131.175000
 10
35.225000
 20
131.625000
 10
35.225000
 20
130.725000
 10
31.725000
 20
131.175000
  0
MTEXT
  5
71c
100
AcDbEntity
  8
0
100
AcDbMText
 10
34.675000
 20
135.875000
 40
3.200000
 41
14.400000
 71
     1
 72
     5
  1
\T1.21;\fＭＳ ゴシック|b0|i0|c128|p18;(3.6)
  7
BIGFONT
  0
LINE
  5
71f
100
AcDbEntity
  8
0
100
AcDbLine
 10
100.025000
 20
127.850000
 11
107.025000
 21
127.850000
  0
LINE
  5
722
100
AcDbEntity
  8
0
100
AcDbLine
 10
107.025000
 20
127.850000
 11
111.025000
 21
127.850000
  0
LINE
  5
725
100
AcDbEntity
  8
0
100
AcDbLine
 10
111.025000
 20
127.850000
 11
121.850000
 21
127.850000
  0
LINE
  5
728
100
AcDbEntity
  8
0
100
AcDbLine
 10
106.775000
 20
128.650000
 11
106.775000
 21
112.875000
  0
LINE
  5
72b
100
AcDbEntity
  8
0
100
AcDbLine
 10
110.800000
 20
128.650000
 11
110.800000
 21
120.475000
  0
HATCH
  5
72e
100
AcDbEntity
  8
0
  6
CONTINUOUS
 62
     2
100
AcDbHatch
 10
0.000000
 20
0.000000
 30
0.000000
210
0.000000
220
0.000000
230
1.000000
 60
     0
  2
SOLID
 70
     1
 71
     0
 91
     1
 92
     7
 72
     0
 73
     1
 93
     3
 10
114.525000
 20
128.300000
 10
114.525000
 20
127.375000
 10
111.025000
 20
127.850000
 97
     1
330
731
 75
     0
 76
     1
 47
0.651316
 98
     1
 10
0.000000
 20
0.000000
  0
LWPOLYLINE
  5
731
100
AcDbEntity
  8
0
  6
CONTINUOUS
 62
     2
100
AcDbPolyline
 90
     3
 70
     1
 10
114.525000
 20
128.300000
 10
114.525000
 20
127.375000
 10
111.025000
 20
127.850000
  0
LWPOLYLINE
  5
73a
100
AcDbEntity
  8
0
100
AcDbPolyline
 90
     4
 70
     0
 10
111.025000
 20
127.850000
 10
114.525000
 20
128.300000
 10
114.525000
 20
127.375000
 10
111.025000
 20
127.850000
  0
HATCH
  5
745
100
AcDbEntity
  8
0
  6
CONTINUOUS
 62
     2
100
AcDbHatch
 10
0.000000
 20
0.000000
 30
0.000000
210
0.000000
220
0.000000
230
1.000000
 60
     0
  2
SOLID
 70
     1
 71
     0
 91
     1
 92
     7
 72
     0
 73
     1
 93
     3
 10
103.525000
 20
127.375000
 10
103.525000
 20
128.300000
 10
107.025000
 20
127.850000
 97
     1
330
748
 75
     0
 76
     1
 47
0.651316
 98
     1
 10
0.000000
 20
0.000000
  0
LWPOLYLINE
  5
748
100
AcDbEntity
  8
0
  6
CONTINUOUS
 62
     2
100
AcDbPolyline
 90
     3
 70
     1
 10
103.525000
 20
127.375000
 10
103.525000
 20
128.300000
 10
107.025000
 20
127.850000
  0
LWPOLYLINE
  5
751
100
AcDbEntity
  8
0
100
AcDbPolyline
 90
     4
 70
     0
 10
107.025000
 20
127.850000
 10
103.525000
 20
127.375000
 10
103.525000
 20
128.300000
 10
107.025000
 20
127.850000
  0
MTEXT
  5
75c
100
AcDbEntity
  8
0
100
AcDbMText
 10
117.125000
 20
131.325000
 40
3.200000
 41
2.875000
 71
     1
 72
     5
  1
\T1.21;\fＭＳ ゴシック|b0|i0|c128|p18;4
  7
BIGFONT
  0
ENDSEC
  0
SECTION
  2
OBJECTS
  0
DICTIONARY
  5
767
100
AcDbDictionary
  3
ACAD_GROUP
350
768
  3
ACAD_MLINESTYLE
350
769
  3
CONTENTDICTIONARY
350
76a
  0
DICTIONARY
  5
768
102
{ACAD_REACTORS
330
767
102
}
100
AcDbDictionary
  0
DICTIONARY
  5
769
102
{ACAD_REACTORS
330
767
102
}
100
AcDbDictionary
  3
STANDARD
350
76b
  0
DICTIONARY
  5
76a
102
{ACAD_REACTORS
330
767
102
}
100
AcDbDictionary
  0
MLINESTYLE
  5
76b
102
{ACAD_REACTORS
330
769
102
}
100
AcDbMlineStyle
  2
STANDARD
 70
     0
  3
 
 62
   256
 51
90.000000
 52
90.000000
 71
     2
 49
0.500000
 62
   256
  6
BYLAYER
 49
-0.500000
 62
   256
  6
BYLAYER
  0
ENDSEC
  0
EOF
