  0
SECTION
  2
HEADER
  9
$ACADVER
  1
AC1009
  9
$INSBASE
 10
0
 20
0
  9
$EXTMIN
 10
-6.12532408958153
 20
-31.84209079747124
  9
$EXTMAX
 10
114.1033325778944
 20
16.0577296315738
  9
$LIMMIN
 10
-6.12532408958153
 20
-31.84209079747124
  9
$LIMMAX
 10
114.1033325778944
 20
16.0577296315738
  9
$VIEWCTR
 10
10
 20
10
  9
$VIEWSIZE
 40
10
  9
$SNAPMODE
 70
0
  9
$SNAPUNIT
 10
1
 20
1
  9
$SNAPBASE
 10
0
 20
0
  9
$SNAPANG
 50
0
  9
$SNAPSTYLE
 70
0
  9
$SNAPISOPAIR
 70
0
  9
$GRIDMODE
 70
0
  9
$GRIDUNIT
 10
0
 20
0
  9
$ORTHOMODE
 70
0
  9
$REGENMODE
 70
1
  9
$FILLMODE
 70
1
  9
$QTEXTMODE
 70
0
  9
$DRAGMODE
 70
2
  9
$LTSCALE
 40
1
  9
$OSMODE
 70
0
  9
$ATTMODE
 70
1
  9
$TEXTSIZE
 40
3.5
  9
$TRACEWID
 40
0.5
  9
$TEXTSTYLE
  7
STANDARD
  9
$CLAYER
  8
0
  9
$CELTYPE
  6
BYLAYER
  9
$CECOLOR
 62
256
  9
$DIMSCALE
 40
1
  9
$DIMASZ
 40
0.18
  9
$DIMEXO
 40
0.0625
  9
$DIMDLI
 40
0.38
  9
$DIMRND
 40
0
  9
$DIMDLE
 40
0
  9
$DIMEXE
 40
0.18
  9
$DIMTP
 40
0
  9
$DIMTM
 40
0
  9
$DIMTXT
 40
0.18
  9
$DIMCEN
 40
0.09
  9
$DIMTSZ
 40
0
  9
$DIMTOL
 70
0
  9
$DIMLIM
 70
0
  9
$DIMTIH
 70
1
  9
$DIMTOH
 70
1
  9
$DIMSE1
 70
0
  9
$DIMSE2
 70
0
  9
$DIMTAD
 70
0
  9
$DIMZIN
 70
0
  9
$DIMBLK
  1

  9
$DIMASO
 70
1
  9
$DIMSHO
 70
1
  9
$DIMPOST
  1

  9
$DIMAPOST
  1

  9
$DIMALT
 70
0
  9
$DIMALTD
 70
2
  9
$DIMALTF
 40
25.4
  9
$DIMLFAC
 40
1
  9
$DIMTOFL
 70
0
  9
$DIMTVP
 40
0
  9
$DIMTIX
 70
0
  9
$DIMSOXD
 70
0
  9
$DIMSAH
 70
0
  9
$DIMBLK1
  1

  9
$DIMBLK2
  1

  9
$DIMSTYLE
  2
*UNNAMED
  9
$DIMCLRD
 70
0
  9
$DIMCLRE
 70
0
  9
$DIMCLRT
 70
0
  9
$DIMTFAC
 40
1
  9
$DIMGAP
 40
0.09
  9
$LUNITS
 70
2
  9
$LUPREC
 70
4
  9
$AXISMODE
 70
0
  9
$AXISUNIT
 10
0
 20
0
  9
$SKETCHINC
 40
0.1
  9
$FILLETRAD
 40
2
  9
$AUNITS
 70
0
  9
$AUPREC
 70
0
  9
$MENU
  1
ACAD
  9
$ELEVATION
 40
0
  9
$THICKNESS
 40
0
  9
$VIEWDIR
 10
0
 20
0
 30
1
  9
$LIMCHECK
 70
0
  9
$BLIPMODE
 70
1
  9
$CHAMFERA
 40
0
  9
$CHAMFERB
 40
0
  9
$FASTZOOM
 70
1
  9
$SKPOLY
 70
0
  9
$ANGBASE
 50
0
  9
$ANGDIR
 70
0
  9
$PDMODE
 70
0
  9
$PDSIZE
 40
0
  9
$PLINEWID
 40
0
  9
$COORDS
 70
2
  0
ENDSEC
  0
SECTION
  2
TABLES
  0
TABLE
  2
DIMSTYLE
 70
0
  0
ENDTAB
  0
TABLE
  2
LTYPE
 70
9
  0
LTYPE
  2
CONTINUOUS
 70
64
  3
Solid line
 72
65
 73
0
 40
0
  0
LTYPE
  2
BORDER
 70
64
  3
__ __ . __ __ .
 72
65
 73
6
 40
5.536846030739024
 49
1.581956008782578
 49
-0.7909780043912891
 49
1.581956008782578
 49
-0.7909780043912891
 49
0
 49
-0.7909780043912891
  0
LTYPE
  2
CENTER
 70
64
  3
____ _ ____ _
 72
65
 73
4
 40
6.327824035130313
 49
3.954890021956445
 49
-0.7909780043912891
 49
0.7909780043912891
 49
-0.7909780043912891
  0
LTYPE
  2
DASHDOT
 70
64
  3
__ . __ . __ .
 72
65
 73
4
 40
3.163912017565156
 49
1.581956008782578
 49
-0.7909780043912891
 49
0
 49
-0.7909780043912891
  0
LTYPE
  2
DASHED
 70
64
  3
__ __ __ __ __
 72
65
 73
2
 40
2.372934013173867
 49
1.581956008782578
 49
-0.7909780043912891
  0
LTYPE
  2
DIVIDE
 70
64
  3
__ . . __ . . 
 72
65
 73
6
 40
3.954890021956445
 49
1.581956008782578
 49
-0.7909780043912891
 49
0
 49
-0.7909780043912891
 49
0
 49
-0.7909780043912891
  0
LTYPE
  2
DOT
 70
64
  3
..............
 72
65
 73
4
 40
1.581956008782578
 49
0
 49
-0.7909780043912891
 49
0
 49
-0.7909780043912891
  0
LTYPE
  2
HIDDEN
 70
64
  3
_ _ _ _ _ _ _
 72
65
 73
2
 40
1.186467006586934
 49
0.7909780043912891
 49
-0.3954890021956445
  0
LTYPE
  2
PHANTOM
 70
64
  3
_____ _ _ _____ _ _ 
 72
65
 73
6
 40
7.909780043912891
 49
3.954890021956445
 49
-0.7909780043912891
 49
0.7909780043912891
 49
-0.7909780043912891
 49
0.7909780043912891
 49
-0.7909780043912891
  0
ENDTAB
  0
TABLE
  2
LAYER
 70
3
  0
LAYER
  2
1
 70
0
 62
7
  6
CONTINUOUS
  0
LAYER
  2
0
 70
0
 62
7
  6
CONTINUOUS
  0
ENDTAB
  0
TABLE
  2
STYLE
 70
4
  0
STYLE
  2
STANDARD
 70
0
 40
0
 41
1
 50
0
 71
0
 42
3.5
  3
txt
  4

  0
STYLE
  2
SIMPLEX
 70
0
 40
0
 41
1
 50
0
 71
0
 42
3.5
  3
simplex
  4

  0
STYLE
  2
COMPLEX
 70
0
 40
0
 41
1
 50
0
 71
0
 42
3.5
  3
complex
  4

  0
STYLE
  2
ITALIC
 70
0
 40
0
 41
1
 50
0
 71
0
 42
3.5
  3
italic
  4

  0
ENDTAB
  0
TABLE
  2
VIEW
 70
0
  0
ENDTAB
  0
ENDSEC
  0
SECTION
  2
BLOCKS
  0
BLOCK
  8
0
  2
B
 70
0
 10
21.9125938833098
 20
-5.5
 30
0
  0
LINE
  8
1
 62
7
 10
-3.564005914340171
 20
12.5
 30
0
 11
3.435994085659829
 21
12.5
 31
0
  0
LINE
  8
1
 62
7
 10
3.935994085659829
 20
12
 30
0
 11
3.935994085659829
 21
-4
 31
0
  0
LINE
  8
1
 62
7
 10
3.435994085659829
 20
-4.5
 30
0
 11
-3.564005914340171
 21
-4.5
 31
0
  0
LINE
  8
1
 62
7
 10
-4.064005914340171
 20
-4
 30
0
 11
-4.064005914340171
 21
12
 31
0
  0
LINE
  8
1
 62
7
 10
-4.06400591434017
 20
13.5
 30
0
 11
3.93599408565983
 21
13.5
 31
0
  0
LINE
  8
1
 62
7
 10
-4.06400591434017
 20
-5.5
 30
0
 11
3.93599408565983
 21
-5.5
 31
0
  0
LINE
  8
1
 62
7
 10
-1.788099879296837
 20
8.300000000000001
 30
0
 11
1.660088050616494
 21
8.300000000000001
 31
0
  0
LINE
  8
1
 62
7
 10
-1.788099879296837
 20
7.7
 30
0
 11
1.660088050616494
 21
7.7
 31
0
  0
LINE
  8
1
 62
7
 10
-1.788099879296837
 20
0.3
 30
0
 11
1.660088050616494
 21
0.3
 31
0
  0
LINE
  8
1
 62
7
 10
-1.788099879296837
 20
-0.3
 30
0
 11
1.660088050616494
 21
-0.3
 31
0
  0
LINE
  8
1
 62
2
  6
CENTER
 10
-0.06400591434017144
 20
-7.61773803686353
 30
0
 11
-0.06400591434017144
 21
16.0577296315738
 31
0
  0
LINE
  8
1
 62
2
  6
CENTER
 10
-6.12532408958153
 20
4
 30
0
 11
5.906686545936
 21
4
 31
0
  0
LINE
  8
1
 62
2
  6
CENTER
 10
-2.49054343933079
 20
8
 30
0
 11
2.26079455091384
 21
8
 31
0
  0
LINE
  8
1
 62
2
  6
CENTER
 10
-2.49054343933079
 20
0
 30
0
 11
2.26079455091384
 21
0
 31
0
  0
LINE
  8
1
 62
7
 10
3.93599408565983
 20
13.5
 30
0
 11
3.935994085659829
 21
12
 31
0
  0
LINE
  8
1
 62
7
 10
3.935994085659829
 20
-4
 30
0
 11
3.93599408565983
 21
-5.5
 31
0
  0
LINE
  8
1
 62
7
 10
-4.06400591434017
 20
-5.5
 30
0
 11
-4.064005914340171
 21
-4
 31
0
  0
LINE
  8
1
 62
7
 10
-4.064005914340171
 20
12
 30
0
 11
-4.06400591434017
 21
13.5
 31
0
  0
LINE
  8
1
 62
7
 10
49
 20
13
 30
0
 11
49
 21
9.718781437645454
 31
0
  0
LINE
  8
1
 62
7
 10
48.5
 20
-5.5
 30
0
 11
45
 21
-5.5
 31
0
  0
LINE
  8
1
 62
7
 10
25
 20
-4.5
 30
0
 11
25
 21
12.5
 31
0
  0
LINE
  8
1
 62
7
 10
25
 20
12.5
 30
0
 11
32
 21
12.5
 31
0
  0
LINE
  8
1
 62
7
 10
45
 20
13.5
 30
0
 11
48.5
 21
13.5
 31
0
  0
LINE
  8
1
 62
7
 10
32
 20
12.5
 30
0
 11
32.5
 21
12
 31
0
  0
LINE
  8
1
 62
7
 10
32.5
 20
12
 30
0
 11
33
 21
12.5
 31
0
  0
LINE
  8
1
 62
7
 10
33
 20
12.5
 30
0
 11
33.5
 21
12
 31
0
  0
LINE
  8
1
 62
7
 10
33.5
 20
12
 30
0
 11
34
 21
12.5
 31
0
  0
LINE
  8
1
 62
7
 10
34
 20
12.5
 30
0
 11
34.5
 21
12
 31
0
  0
LINE
  8
1
 62
7
 10
34.5
 20
12
 30
0
 11
35
 21
12.5
 31
0
  0
LINE
  8
1
 62
7
 10
35
 20
12.5
 30
0
 11
35.5
 21
12
 31
0
  0
LINE
  8
1
 62
7
 10
35.5
 20
12
 30
0
 11
36
 21
12.5
 31
0
  0
LINE
  8
1
 62
7
 10
36
 20
12.5
 30
0
 11
36.5
 21
12
 31
0
  0
LINE
  8
1
 62
7
 10
36.5
 20
12
 30
0
 11
37
 21
12.5
 31
0
  0
LINE
  8
1
 62
7
 10
37
 20
12.5
 30
0
 11
37.5
 21
12
 31
0
  0
LINE
  8
1
 62
7
 10
37.5
 20
12
 30
0
 11
38
 21
12.5
 31
0
  0
LINE
  8
1
 62
7
 10
38
 20
12.5
 30
0
 11
38.5
 21
12
 31
0
  0
LINE
  8
1
 62
7
 10
38.5
 20
12
 30
0
 11
39
 21
12.5
 31
0
  0
LINE
  8
1
 62
7
 10
39
 20
12.5
 30
0
 11
39.5
 21
12
 31
0
  0
LINE
  8
1
 62
7
 10
39.5
 20
12
 30
0
 11
40
 21
12.5
 31
0
  0
LINE
  8
1
 62
7
 10
40
 20
12.5
 30
0
 11
40.5
 21
12
 31
0
  0
LINE
  8
1
 62
7
 10
40.5
 20
12
 30
0
 11
41
 21
12.5
 31
0
  0
LINE
  8
1
 62
7
 10
41
 20
12.5
 30
0
 11
41.5
 21
12
 31
0
  0
LINE
  8
1
 62
7
 10
41.5
 20
12
 30
0
 11
42
 21
12.5
 31
0
  0
LINE
  8
1
 62
7
 10
42
 20
12.5
 30
0
 11
42.5
 21
12
 31
0
  0
LINE
  8
1
 62
7
 10
42.5
 20
12
 30
0
 11
43
 21
12.5
 31
0
  0
LINE
  8
1
 62
7
 10
43
 20
12.5
 30
0
 11
43.5
 21
12
 31
0
  0
LINE
  8
1
 62
7
 10
43.5
 20
12
 30
0
 11
44
 21
12.5
 31
0
  0
LINE
  8
1
 62
7
 10
32
 20
-4.5
 30
0
 11
32.5
 21
-4
 31
0
  0
LINE
  8
1
 62
7
 10
32
 20
-4.5
 30
0
 11
25
 21
-4.5
 31
0
  0
LINE
  8
1
 62
7
 10
32.5
 20
-4
 30
0
 11
33
 21
-4.5
 31
0
  0
LINE
  8
1
 62
7
 10
33
 20
-4.5
 30
0
 11
33.5
 21
-4
 31
0
  0
LINE
  8
1
 62
7
 10
33.5
 20
-4
 30
0
 11
34
 21
-4.5
 31
0
  0
LINE
  8
1
 62
7
 10
34
 20
-4.5
 30
0
 11
34.5
 21
-4
 31
0
  0
LINE
  8
1
 62
7
 10
34.5
 20
-4
 30
0
 11
35
 21
-4.5
 31
0
  0
LINE
  8
1
 62
7
 10
35
 20
-4.5
 30
0
 11
35.5
 21
-4
 31
0
  0
LINE
  8
1
 62
7
 10
35.5
 20
-4
 30
0
 11
36
 21
-4.5
 31
0
  0
LINE
  8
1
 62
7
 10
36
 20
-4.5
 30
0
 11
36.5
 21
-4
 31
0
  0
LINE
  8
1
 62
7
 10
36.5
 20
-4
 30
0
 11
37
 21
-4.5
 31
0
  0
LINE
  8
1
 62
7
 10
37
 20
-4.5
 30
0
 11
37.5
 21
-4
 31
0
  0
LINE
  8
1
 62
7
 10
37.5
 20
-4
 30
0
 11
38
 21
-4.5
 31
0
  0
LINE
  8
1
 62
7
 10
38
 20
-4.5
 30
0
 11
38.5
 21
-4
 31
0
  0
LINE
  8
1
 62
7
 10
38.5
 20
-4
 30
0
 11
39
 21
-4.5
 31
0
  0
LINE
  8
1
 62
7
 10
39
 20
-4.5
 30
0
 11
39.5
 21
-4
 31
0
  0
LINE
  8
1
 62
7
 10
39.5
 20
-4
 30
0
 11
40
 21
-4.5
 31
0
  0
LINE
  8
1
 62
7
 10
40
 20
-4.5
 30
0
 11
40.5
 21
-4
 31
0
  0
LINE
  8
1
 62
7
 10
40.5
 20
-4
 30
0
 11
41
 21
-4.5
 31
0
  0
LINE
  8
1
 62
7
 10
41
 20
-4.5
 30
0
 11
41.5
 21
-4
 31
0
  0
LINE
  8
1
 62
7
 10
41.5
 20
-4
 30
0
 11
42
 21
-4.5
 31
0
  0
LINE
  8
1
 62
7
 10
42
 20
-4.5
 30
0
 11
42.5
 21
-4
 31
0
  0
LINE
  8
1
 62
7
 10
42.5
 20
-4
 30
0
 11
43
 21
-4.5
 31
0
  0
LINE
  8
1
 62
7
 10
43
 20
-4.5
 30
0
 11
43.5
 21
-4
 31
0
  0
LINE
  8
1
 62
7
 10
43.5
 20
-4
 30
0
 11
44
 21
-4.5
 31
0
  0
LINE
  8
1
 62
7
 10
33
 20
10.5
 30
0
 11
33.5
 21
10.5
 31
0
  0
LINE
  8
1
 62
7
 10
44
 20
9.5
 30
0
 11
44
 21
-1.5
 31
0
  0
LINE
  8
1
 62
7
 10
43
 20
-2.5
 30
0
 11
42.5
 21
-2.5
 31
0
  0
LINE
  8
1
 62
7
 10
32
 20
-1.5
 30
0
 11
32
 21
9.5
 31
0
  0
LINE
  8
1
 62
2
 10
32.5
 20
10.36602540378444
 30
0
 11
32.5
 21
-2.366025403784439
 31
0
  0
LINE
  8
1
 62
2
 10
33
 20
-2.5
 30
0
 11
33
 21
10.5
 31
0
  0
LINE
  8
1
 62
2
 10
33.5
 20
10.5
 30
0
 11
33.5
 21
-2.5
 31
0
  0
LINE
  8
1
 62
7
 10
33.5
 20
10.5
 30
0
 11
34
 21
10.5
 31
0
  0
LINE
  8
1
 62
7
 10
33.5
 20
-2.5
 30
0
 11
33
 21
-2.5
 31
0
  0
LINE
  8
1
 62
2
 10
34
 20
-2.5
 30
0
 11
34
 21
10.5
 31
0
  0
LINE
  8
1
 62
7
 10
34
 20
-2.5
 30
0
 11
33.5
 21
-2.5
 31
0
  0
LINE
  8
1
 62
7
 10
34
 20
10.5
 30
0
 11
34.5
 21
10.5
 31
0
  0
LINE
  8
1
 62
2
 10
34.5
 20
10.5
 30
0
 11
34.5
 21
-2.5
 31
0
  0
LINE
  8
1
 62
7
 10
34.5
 20
-2.5
 30
0
 11
34
 21
-2.5
 31
0
  0
LINE
  8
1
 62
7
 10
34.5
 20
10.5
 30
0
 11
35
 21
10.5
 31
0
  0
LINE
  8
1
 62
2
 10
35
 20
-2.5
 30
0
 11
35
 21
10.5
 31
0
  0
LINE
  8
1
 62
7
 10
35
 20
-2.5
 30
0
 11
34.5
 21
-2.5
 31
0
  0
LINE
  8
1
 62
7
 10
35
 20
10.5
 30
0
 11
35.5
 21
10.5
 31
0
  0
LINE
  8
1
 62
2
 10
35.5
 20
10.5
 30
0
 11
35.5
 21
-2.5
 31
0
  0
LINE
  8
1
 62
7
 10
35.5
 20
-2.5
 30
0
 11
35
 21
-2.5
 31
0
  0
LINE
  8
1
 62
7
 10
35.5
 20
10.5
 30
0
 11
36
 21
10.5
 31
0
  0
LINE
  8
1
 62
2
 10
36
 20
-2.5
 30
0
 11
36
 21
10.5
 31
0
  0
LINE
  8
1
 62
7
 10
36
 20
-2.5
 30
0
 11
35.5
 21
-2.5
 31
0
  0
LINE
  8
1
 62
7
 10
36
 20
10.5
 30
0
 11
36.5
 21
10.5
 31
0
  0
LINE
  8
1
 62
2
 10
36.5
 20
10.5
 30
0
 11
36.5
 21
-2.5
 31
0
  0
LINE
  8
1
 62
7
 10
36.5
 20
-2.5
 30
0
 11
36
 21
-2.5
 31
0
  0
LINE
  8
1
 62
7
 10
36.5
 20
10.5
 30
0
 11
37
 21
10.5
 31
0
  0
LINE
  8
1
 62
2
 10
37
 20
-2.5
 30
0
 11
37
 21
10.5
 31
0
  0
LINE
  8
1
 62
7
 10
37
 20
-2.5
 30
0
 11
36.5
 21
-2.5
 31
0
  0
LINE
  8
1
 62
7
 10
37
 20
10.5
 30
0
 11
37.5
 21
10.5
 31
0
  0
LINE
  8
1
 62
2
 10
37.5
 20
10.5
 30
0
 11
37.5
 21
-2.5
 31
0
  0
LINE
  8
1
 62
7
 10
37.5
 20
-2.5
 30
0
 11
37
 21
-2.5
 31
0
  0
LINE
  8
1
 62
7
 10
37.5
 20
10.5
 30
0
 11
38
 21
10.5
 31
0
  0
LINE
  8
1
 62
2
 10
38
 20
-2.5
 30
0
 11
38
 21
10.5
 31
0
  0
LINE
  8
1
 62
7
 10
38
 20
-2.5
 30
0
 11
37.5
 21
-2.5
 31
0
  0
LINE
  8
1
 62
7
 10
38
 20
10.5
 30
0
 11
38.5
 21
10.5
 31
0
  0
LINE
  8
1
 62
2
 10
38.5
 20
10.5
 30
0
 11
38.5
 21
-2.5
 31
0
  0
LINE
  8
1
 62
7
 10
38.5
 20
-2.5
 30
0
 11
38
 21
-2.5
 31
0
  0
LINE
  8
1
 62
7
 10
38.5
 20
10.5
 30
0
 11
39
 21
10.5
 31
0
  0
LINE
  8
1
 62
2
 10
39
 20
-2.5
 30
0
 11
39
 21
10.5
 31
0
  0
LINE
  8
1
 62
7
 10
39
 20
-2.5
 30
0
 11
38.5
 21
-2.5
 31
0
  0
LINE
  8
1
 62
7
 10
39
 20
10.5
 30
0
 11
39.5
 21
10.5
 31
0
  0
LINE
  8
1
 62
2
 10
39.5
 20
10.5
 30
0
 11
39.5
 21
-2.5
 31
0
  0
LINE
  8
1
 62
7
 10
39.5
 20
-2.5
 30
0
 11
39
 21
-2.5
 31
0
  0
LINE
  8
1
 62
7
 10
39.5
 20
10.5
 30
0
 11
40
 21
10.5
 31
0
  0
LINE
  8
1
 62
2
 10
40
 20
-2.5
 30
0
 11
40
 21
10.5
 31
0
  0
LINE
  8
1
 62
7
 10
40
 20
-2.5
 30
0
 11
39.5
 21
-2.5
 31
0
  0
LINE
  8
1
 62
7
 10
40
 20
10.5
 30
0
 11
40.5
 21
10.5
 31
0
  0
LINE
  8
1
 62
2
 10
40.5
 20
10.5
 30
0
 11
40.5
 21
-2.5
 31
0
  0
LINE
  8
1
 62
7
 10
40.5
 20
-2.5
 30
0
 11
40
 21
-2.5
 31
0
  0
LINE
  8
1
 62
7
 10
40.5
 20
10.5
 30
0
 11
41
 21
10.5
 31
0
  0
LINE
  8
1
 62
2
 10
41
 20
-2.5
 30
0
 11
41
 21
10.5
 31
0
  0
LINE
  8
1
 62
7
 10
41
 20
-2.5
 30
0
 11
40.5
 21
-2.5
 31
0
  0
LINE
  8
1
 62
7
 10
41
 20
10.5
 30
0
 11
41.5
 21
10.5
 31
0
  0
LINE
  8
1
 62
2
 10
41.5
 20
10.5
 30
0
 11
41.5
 21
-2.5
 31
0
  0
LINE
  8
1
 62
7
 10
41.5
 20
-2.5
 30
0
 11
41
 21
-2.5
 31
0
  0
LINE
  8
1
 62
7
 10
41.5
 20
10.5
 30
0
 11
42
 21
10.5
 31
0
  0
LINE
  8
1
 62
2
 10
42
 20
-2.5
 30
0
 11
42
 21
10.5
 31
0
  0
LINE
  8
1
 62
7
 10
42
 20
-2.5
 30
0
 11
41.5
 21
-2.5
 31
0
  0
LINE
  8
1
 62
7
 10
42
 20
10.5
 30
0
 11
42.5
 21
10.5
 31
0
  0
LINE
  8
1
 62
2
 10
42.5
 20
10.5
 30
0
 11
42.5
 21
-2.5
 31
0
  0
LINE
  8
1
 62
7
 10
42.5
 20
-2.5
 30
0
 11
42
 21
-2.5
 31
0
  0
LINE
  8
1
 62
7
 10
42.5
 20
10.5
 30
0
 11
43
 21
10.5
 31
0
  0
LINE
  8
1
 62
2
 10
43
 20
-2.5
 30
0
 11
43
 21
10.5
 31
0
  0
LINE
  8
1
 62
2
 10
43.5
 20
10.36602540378444
 30
0
 11
43.5
 21
-2.366025403784439
 31
0
  0
LINE
  8
1
 62
7
 10
64.03219113899898
 20
8.280181216838775
 30
0
 11
62.5
 21
8.379032258064516
 31
0
  0
LINE
  8
1
 62
7
 10
49.46780886100102
 20
-1.219818783161225
 30
0
 11
51.5
 21
-1.088709677419355
 31
0
  0
LINE
  8
1
 62
7
 10
49
 20
-1.718781437645454
 30
0
 11
49
 21
-5
 31
0
  0
LINE
  8
1
 62
7
 10
64.5
 20
0.2187814376454538
 30
0
 11
64.5
 21
1.300000000000001
 31
0
  0
LINE
  8
1
 62
7
 10
49
 20
9.718781437645454
 30
0
 11
49
 21
9.250000000000004
 31
0
  0
LINE
  8
1
 62
7
 10
51.5
 20
9.088709677419356
 30
0
 11
51.5
 21
6.256917857360852
 31
0
  0
LINE
  8
1
 62
7
 10
51.5
 20
9.088709677419356
 30
0
 11
49.46780886100102
 21
9.219818783161225
 31
0
  0
LINE
  8
1
 62
7
 10
51.5
 20
-1.088709677419355
 30
0
 11
52.5
 21
-1.024193548387096
 31
0
  0
LINE
  8
1
 62
7
 10
52.5
 20
-1.024193548387096
 30
0
 11
52.5
 21
1.743082142639148
 31
0
  0
LINE
  8
1
 62
7
 10
52.5
 20
9.024193548387098
 30
0
 11
51.5
 21
9.088709677419356
 31
0
  0
LINE
  8
1
 62
7
 10
52.5
 20
-1.024193548387096
 30
0
 11
54
 21
-0.9274193548387082
 31
0
  0
LINE
  8
1
 62
7
 10
54
 20
8.92741935483871
 30
0
 11
54
 21
6.256917857360852
 31
0
  0
LINE
  8
1
 62
7
 10
54
 20
8.92741935483871
 30
0
 11
52.5
 21
9.024193548387098
 31
0
  0
LINE
  8
1
 62
7
 10
54
 20
-0.9274193548387082
 30
0
 11
55
 21
-0.8629032258064503
 31
0
  0
LINE
  8
1
 62
7
 10
55
 20
-0.8629032258064503
 30
0
 11
55
 21
1.743082142639148
 31
0
  0
LINE
  8
1
 62
7
 10
55
 20
8.862903225806452
 30
0
 11
54
 21
8.92741935483871
 31
0
  0
LINE
  8
1
 62
7
 10
55
 20
-0.8629032258064503
 30
0
 11
56.5
 21
-0.7661290322580641
 31
0
  0
LINE
  8
1
 62
7
 10
56.5
 20
8.766129032258064
 30
0
 11
56.5
 21
6.256917857360852
 31
0
  0
LINE
  8
1
 62
7
 10
56.5
 20
8.766129032258064
 30
0
 11
55
 21
8.862903225806452
 31
0
  0
LINE
  8
1
 62
7
 10
56.5
 20
-0.7661290322580641
 30
0
 11
57.5
 21
-0.7016129032258061
 31
0
  0
LINE
  8
1
 62
7
 10
57.5
 20
-0.7016129032258061
 30
0
 11
57.5
 21
1.743082142639148
 31
0
  0
LINE
  8
1
 62
7
 10
57.5
 20
8.701612903225806
 30
0
 11
56.5
 21
8.766129032258064
 31
0
  0
LINE
  8
1
 62
7
 10
57.5
 20
-0.7016129032258061
 30
0
 11
59
 21
-0.604838709677419
 31
0
  0
LINE
  8
1
 62
7
 10
59
 20
8.60483870967742
 30
0
 11
59
 21
6.256917857360852
 31
0
  0
LINE
  8
1
 62
7
 10
59
 20
8.60483870967742
 30
0
 11
57.5
 21
8.701612903225806
 31
0
  0
LINE
  8
1
 62
7
 10
59
 20
-0.604838709677419
 30
0
 11
60
 21
-0.5403225806451619
 31
0
  0
LINE
  8
1
 62
7
 10
60
 20
-0.5403225806451619
 30
0
 11
60
 21
1.743082142639148
 31
0
  0
LINE
  8
1
 62
7
 10
60
 20
8.540322580645162
 30
0
 11
59
 21
8.60483870967742
 31
0
  0
LINE
  8
1
 62
7
 10
60
 20
-0.5403225806451619
 30
0
 11
61.5
 21
-0.443548387096774
 31
0
  0
LINE
  8
1
 62
7
 10
61.5
 20
8.443548387096774
 30
0
 11
61.5
 21
6.256917857360852
 31
0
  0
LINE
  8
1
 62
7
 10
61.5
 20
8.443548387096774
 30
0
 11
60
 21
8.540322580645162
 31
0
  0
LINE
  8
1
 62
7
 10
61.5
 20
-0.443548387096774
 30
0
 11
62.5
 21
-0.379032258064516
 31
0
  0
LINE
  8
1
 62
7
 10
62.5
 20
-0.379032258064516
 30
0
 11
62.5
 21
1.743082142639148
 31
0
  0
LINE
  8
1
 62
7
 10
62.5
 20
8.379032258064516
 30
0
 11
61.5
 21
8.443548387096774
 31
0
  0
LINE
  8
1
 62
7
 10
62.5
 20
-0.379032258064516
 30
0
 11
64.03219113899898
 21
-0.2801812168387753
 31
0
  0
LINE
  8
1
 62
7
 10
62.5
 20
5.5
 30
0
 11
61.5
 21
5.5
 31
0
  0
LINE
  8
1
 62
7
 10
61.5
 20
5.5
 30
0
 11
61.5
 21
2.5
 31
0
  0
LINE
  8
1
 62
7
 10
62.5
 20
5.5
 30
0
 11
62.5
 21
6.256917857360852
 31
0
  0
LINE
  8
1
 62
7
 10
60
 20
5.5
 30
0
 11
59
 21
5.5
 31
0
  0
LINE
  8
1
 62
7
 10
59
 20
5.5
 30
0
 11
59
 21
2.5
 31
0
  0
LINE
  8
1
 62
7
 10
60
 20
5.5
 30
0
 11
60
 21
6.256917857360852
 31
0
  0
LINE
  8
1
 62
7
 10
57.5
 20
5.5
 30
0
 11
56.5
 21
5.5
 31
0
  0
LINE
  8
1
 62
7
 10
56.5
 20
5.5
 30
0
 11
56.5
 21
2.5
 31
0
  0
LINE
  8
1
 62
7
 10
57.5
 20
5.5
 30
0
 11
57.5
 21
6.256917857360852
 31
0
  0
LINE
  8
1
 62
7
 10
55
 20
5.5
 30
0
 11
54
 21
5.5
 31
0
  0
LINE
  8
1
 62
7
 10
54
 20
5.5
 30
0
 11
54
 21
2.5
 31
0
  0
LINE
  8
1
 62
7
 10
55
 20
5.5
 30
0
 11
55
 21
6.256917857360852
 31
0
  0
LINE
  8
1
 62
7
 10
52.5
 20
5.5
 30
0
 11
51.5
 21
5.5
 31
0
  0
LINE
  8
1
 62
7
 10
51.5
 20
5.5
 30
0
 11
51.5
 21
2.5
 31
0
  0
LINE
  8
1
 62
7
 10
52.5
 20
5.5
 30
0
 11
52.5
 21
6.256917857360852
 31
0
  0
LINE
  8
1
 62
7
 10
51.5
 20
2.5
 30
0
 11
52.5
 21
2.5
 31
0
  0
LINE
  8
1
 62
7
 10
52.5
 20
2.5
 30
0
 11
52.5
 21
5.5
 31
0
  0
LINE
  8
1
 62
7
 10
51.5
 20
2.5
 30
0
 11
51.5
 21
1.743082142639148
 31
0
  0
LINE
  8
1
 62
7
 10
54
 20
2.5
 30
0
 11
55
 21
2.5
 31
0
  0
LINE
  8
1
 62
7
 10
55
 20
2.5
 30
0
 11
55
 21
5.5
 31
0
  0
LINE
  8
1
 62
7
 10
54
 20
2.5
 30
0
 11
54
 21
1.743082142639148
 31
0
  0
LINE
  8
1
 62
7
 10
56.5
 20
2.5
 30
0
 11
57.5
 21
2.5
 31
0
  0
LINE
  8
1
 62
7
 10
57.5
 20
2.5
 30
0
 11
57.5
 21
5.5
 31
0
  0
LINE
  8
1
 62
7
 10
56.5
 20
2.5
 30
0
 11
56.5
 21
1.743082142639148
 31
0
  0
LINE
  8
1
 62
7
 10
59
 20
2.5
 30
0
 11
60
 21
2.5
 31
0
  0
LINE
  8
1
 62
7
 10
60
 20
2.5
 30
0
 11
60
 21
5.5
 31
0
  0
LINE
  8
1
 62
7
 10
59
 20
2.5
 30
0
 11
59
 21
1.743082142639148
 31
0
  0
LINE
  8
1
 62
7
 10
61.5
 20
2.5
 30
0
 11
62.5
 21
2.5
 31
0
  0
LINE
  8
1
 62
7
 10
62.5
 20
2.5
 30
0
 11
62.5
 21
5.5
 31
0
  0
LINE
  8
1
 62
7
 10
61.5
 20
2.5
 30
0
 11
61.5
 21
1.743082142639148
 31
0
  0
LINE
  8
1
 62
7
 10
64.5
 20
6.7
 30
0
 11
69.6417994341637
 21
6.7
 31
0
  0
LINE
  8
1
 62
7
 10
64.5
 20
6.7
 30
0
 11
64.5
 21
7.781218562354546
 31
0
  0
LINE
  8
1
 62
7
 10
64.5
 20
1.300000000000001
 30
0
 11
69.7249997886105
 21
1.3
 31
0
  0
LINE
  8
1
 62
7
 10
64.5
 20
1.300000000000001
 30
0
 11
64.5
 21
4
 31
0
  0
LINE
  8
1
 62
7
 10
62.5
 20
6.256917857360852
 30
0
 11
61.5
 21
6.256917857360852
 31
0
  0
LINE
  8
1
 62
7
 10
61.5
 20
6.256917857360852
 30
0
 11
61.5
 21
5.5
 31
0
  0
LINE
  8
1
 62
7
 10
62.5
 20
6.256917857360852
 30
0
 11
62.5
 21
8.379032258064516
 31
0
  0
LINE
  8
1
 62
7
 10
60
 20
6.256917857360852
 30
0
 11
59
 21
6.256917857360852
 31
0
  0
LINE
  8
1
 62
7
 10
59
 20
6.256917857360852
 30
0
 11
59
 21
5.5
 31
0
  0
LINE
  8
1
 62
7
 10
60
 20
6.256917857360852
 30
0
 11
60
 21
8.540322580645162
 31
0
  0
LINE
  8
1
 62
7
 10
57.5
 20
6.256917857360852
 30
0
 11
56.5
 21
6.256917857360852
 31
0
  0
LINE
  8
1
 62
7
 10
56.5
 20
6.256917857360852
 30
0
 11
56.5
 21
5.5
 31
0
  0
LINE
  8
1
 62
7
 10
57.5
 20
6.256917857360852
 30
0
 11
57.5
 21
8.701612903225806
 31
0
  0
LINE
  8
1
 62
7
 10
55
 20
6.256917857360852
 30
0
 11
54
 21
6.256917857360852
 31
0
  0
LINE
  8
1
 62
7
 10
54
 20
6.256917857360852
 30
0
 11
54
 21
5.5
 31
0
  0
LINE
  8
1
 62
7
 10
55
 20
6.256917857360852
 30
0
 11
55
 21
8.862903225806452
 31
0
  0
LINE
  8
1
 62
7
 10
52.5
 20
6.256917857360852
 30
0
 11
51.5
 21
6.256917857360852
 31
0
  0
LINE
  8
1
 62
7
 10
51.5
 20
6.256917857360852
 30
0
 11
51.5
 21
5.5
 31
0
  0
LINE
  8
1
 62
7
 10
52.5
 20
6.256917857360852
 30
0
 11
52.5
 21
9.024193548387098
 31
0
  0
LINE
  8
1
 62
7
 10
51.5
 20
1.743082142639148
 30
0
 11
52.5
 21
1.743082142639148
 31
0
  0
LINE
  8
1
 62
7
 10
52.5
 20
1.743082142639148
 30
0
 11
52.5
 21
2.5
 31
0
  0
LINE
  8
1
 62
7
 10
51.5
 20
1.743082142639148
 30
0
 11
51.5
 21
-1.088709677419355
 31
0
  0
LINE
  8
1
 62
7
 10
54
 20
1.743082142639148
 30
0
 11
55
 21
1.743082142639148
 31
0
  0
LINE
  8
1
 62
7
 10
55
 20
1.743082142639148
 30
0
 11
55
 21
2.5
 31
0
  0
LINE
  8
1
 62
7
 10
54
 20
1.743082142639148
 30
0
 11
54
 21
-0.9274193548387082
 31
0
  0
LINE
  8
1
 62
7
 10
56.5
 20
1.743082142639148
 30
0
 11
57.5
 21
1.743082142639148
 31
0
  0
LINE
  8
1
 62
7
 10
57.5
 20
1.743082142639148
 30
0
 11
57.5
 21
2.5
 31
0
  0
LINE
  8
1
 62
7
 10
56.5
 20
1.743082142639148
 30
0
 11
56.5
 21
-0.7661290322580641
 31
0
  0
LINE
  8
1
 62
7
 10
59
 20
1.743082142639148
 30
0
 11
60
 21
1.743082142639148
 31
0
  0
LINE
  8
1
 62
7
 10
60
 20
1.743082142639148
 30
0
 11
60
 21
2.5
 31
0
  0
LINE
  8
1
 62
7
 10
59
 20
1.743082142639148
 30
0
 11
59
 21
-0.604838709677419
 31
0
  0
LINE
  8
1
 62
7
 10
61.5
 20
1.743082142639148
 30
0
 11
62.5
 21
1.743082142639148
 31
0
  0
LINE
  8
1
 62
7
 10
62.5
 20
1.743082142639148
 30
0
 11
62.5
 21
2.5
 31
0
  0
LINE
  8
1
 62
7
 10
61.5
 20
1.743082142639148
 30
0
 11
61.5
 21
-0.443548387096774
 31
0
  0
LINE
  8
1
 62
7
 10
71.32265056342631
 20
6.7
 30
0
 11
92.3360277532874
 21
6.7
 31
0
  0
LINE
  8
1
 62
7
 10
101.1996058669894
 20
4
 30
0
 11
92.79432907338841
 21
4
 31
0
  0
LINE
  8
1
 62
7
 10
71.40585091787311
 20
1.3
 30
0
 11
81.96338647546941
 21
1.3
 31
0
  0
LINE
  8
1
 62
7
 10
82.1996058669894
 20
4
 30
0
 11
92.34706428542644
 21
2.210729295212301
 31
0
  0
LINE
  8
1
 62
7
 10
82.1996058669894
 20
4
 30
0
 11
71.41624496457627
 21
4
 31
0
  0
LINE
  8
1
 62
7
 10
100.9109531742214
 20
0.7006846243283222
 30
0
 11
100.7616157414278
 21
-0.1462500432621696
 31
0
  0
LINE
  8
1
 62
7
 10
100.4421030945207
 20
-1.958296308804641
 30
0
 11
92.04766544757111
 21
-0.478130463772557
 31
0
  0
LINE
  8
1
 62
7
 10
91.5532221812632
 20
-0.3909467754928522
 30
0
 11
81.96338647546941
 21
1.3
 31
0
  0
LINE
  8
1
 62
7
 10
92.84150755173435
 20
2.123545606932596
 30
0
 11
100.9109531742214
 21
0.7006846243283222
 31
0
  0
LINE
  8
1
 62
7
 10
92.2831468317364
 20
4
 30
0
 11
82.1996058669894
 21
4
 31
0
  0
LINE
  8
1
 62
7
 10
92.84720999493941
 20
6.7
 30
0
 11
101.1996058669894
 21
6.7
 31
0
  0
LINE
  8
1
 62
7
 10
101.1996058669894
 20
6.7
 30
0
 11
101.1996058669894
 21
5.84
 31
0
  0
LINE
  8
1
 62
7
 10
101.1996058669894
 20
5.84
 30
0
 11
111.1996058669894
 21
5.84
 31
0
  0
LINE
  8
1
 62
7
 10
101.1996058669894
 20
5.84
 30
0
 11
101.1996058669894
 21
4.859999999999999
 31
0
  0
LINE
  8
1
 62
7
 10
111.1996058669894
 20
5.84
 30
0
 11
111.1996058669894
 21
4.859999999999999
 31
0
  0
LINE
  8
1
 62
7
 10
111.1996058669894
 20
4.859999999999999
 30
0
 11
101.1996058669894
 21
4.859999999999999
 31
0
  0
LINE
  8
1
 62
7
 10
101.1996058669894
 20
4.859999999999999
 30
0
 11
101.1996058669894
 21
4
 31
0
  0
LINE
  8
1
 62
7
 10
100.7616157414278
 20
-0.1462500432621696
 30
0
 11
110.6096932715499
 21
-1.882731819931482
 31
0
  0
LINE
  8
1
 62
7
 10
100.7616157414278
 20
-0.1462500432621696
 30
0
 11
100.5914405273142
 21
-1.111361641214132
 31
0
  0
LINE
  8
1
 62
7
 10
110.6096932715499
 20
-1.882731819931482
 30
0
 11
110.4395180574363
 21
-2.847843417883445
 31
0
  0
LINE
  8
1
 62
7
 10
110.4395180574363
 20
-2.847843417883445
 30
0
 11
100.5914405273142
 21
-1.111361641214132
 31
0
  0
LINE
  8
1
 62
7
 10
100.5914405273142
 20
-1.111361641214132
 30
0
 11
100.4421030945207
 21
-1.958296308804641
 31
0
  0
LINE
  8
1
 62
7
 10
64.5
 20
4
 30
0
 11
69.73539383531366
 21
4
 31
0
  0
LINE
  8
1
 62
7
 10
64.5
 20
4
 30
0
 11
64.5
 21
6.7
 31
0
  0
LINE
  8
1
 62
2
  6
CENTER
 10
21.9125938833098
 20
4
 30
0
 11
114.1033325778944
 21
4
 31
0
  0
LINE
  8
1
 62
2
 10
49
 20
9.250000000000004
 30
0
 11
49.46780886100102
 21
9.219818783161225
 31
0
  0
LINE
  8
1
 62
7
 10
49
 20
9.250000000000004
 30
0
 11
49
 21
-1.25
 31
0
  0
LINE
  8
1
 62
2
 10
49.46780886100102
 20
-1.219818783161225
 30
0
 11
49
 21
-1.25
 31
0
  0
LINE
  8
1
 62
7
 10
49
 20
-1.25
 30
0
 11
49
 21
-1.718781437645454
 31
0
  0
LINE
  8
1
 62
2
 10
64.03219113899898
 20
8.280181216838775
 30
0
 11
64.5
 21
8.249999999999993
 31
0
  0
LINE
  8
1
 62
2
 10
64.5
 20
8.249999999999993
 30
0
 11
64.5
 21
7.781218562354546
 31
0
  0
LINE
  8
1
 62
2
 10
64.03219113899898
 20
-0.2801812168387753
 30
0
 11
64.5
 21
-0.2499999999999997
 31
0
  0
LINE
  8
1
 62
2
 10
64.5
 20
-0.2499999999999997
 30
0
 11
64.5
 21
0.2187814376454538
 31
0
  0
ARC
  8
1
 62
7
 10
-0.06400591434017144
 20
8
 30
0
 40
1.749999999999998
 50
350.1291103938605
 51
9.870889606139579
  0
ARC
  8
1
 62
7
 10
-0.06400591434017144
 20
8
 30
0
 40
1.749999999999999
 50
9.870889606139579
 51
170.1291103938604
  0
ARC
  8
1
 62
7
 10
-0.06400591434017144
 20
8
 30
0
 40
1.749999999999999
 50
170.1291103938604
 51
189.8708896061395
  0
ARC
  8
1
 62
7
 10
-0.06400591434017144
 20
8
 30
0
 40
1.749999999999999
 50
189.8708896061395
 51
350.1291103938605
  0
ARC
  8
1
 62
7
 10
-0.06400591434017144
 20
0
 30
0
 40
1.749999999999999
 50
350.1291103938605
 51
9.870889606139556
  0
ARC
  8
1
 62
7
 10
-0.06400591434017144
 20
0
 30
0
 40
1.749999999999999
 50
9.870889606139556
 51
170.1291103938605
  0
ARC
  8
1
 62
7
 10
-0.06400591434017144
 20
0
 30
0
 40
1.749999999999999
 50
170.1291103938605
 51
189.8708896061395
  0
ARC
  8
1
 62
7
 10
-0.06400591434017144
 20
0
 30
0
 40
1.749999999999999
 50
189.8708896061395
 51
350.1291103938605
  0
CIRCLE
  8
1
 62
7
 10
-0.06400591434017144
 20
0
 30
0
 40
2
  0
CIRCLE
  8
1
 62
7
 10
-0.06400591434017144
 20
8
 30
0
 40
2
  0
POLYLINE
  8
1
 62
2
 66
1
  0
VERTEX
  8
1
 10
69.6417994341637
 20
6.7
 30
0
 42
0.03343078706837597
  0
VERTEX
  8
1
 10
69.35778892664746
 20
6.426303999546925
 30
0
 42
0.04289173148902083
  0
VERTEX
  8
1
 10
69.15862747068798
 20
6.161465661802983
 30
0
 42
0.05212202338396456
  0
VERTEX
  8
1
 10
69.03553332172891
 20
5.904415196198364
 30
0
 42
0.05726482686242405
  0
VERTEX
  8
1
 10
68.97972473521396
 20
5.654082812163259
 30
0
 42
0.05494645349805455
  0
VERTEX
  8
1
 10
68.98241996658682
 20
5.409398719127862
 30
0
 42
0.04611619433221686
  0
VERTEX
  8
1
 10
69.03483727129112
 20
5.169293126522359
 30
0
 42
0.03481946830157397
  0
VERTEX
  8
1
 10
69.12819490477062
 20
4.932696243776948
 30
0
 42
0.02412389516121186
  0
VERTEX
  8
1
 10
69.2537111224689
 20
4.698538280321813
 30
0
 42
0.01500324792574916
  0
VERTEX
  8
1
 10
69.40260417982974
 20
4.46574944558715
 30
0
 42
0.00726132794806414
  0
VERTEX
  8
1
 10
69.56609233229676
 20
4.233259949003148
 30
0
 42
0.0003340187077977042
  0
VERTEX
  8
1
 10
69.73539383531366
 20
4
 30
0
  0
SEQEND
  8
1
  0
POLYLINE
  8
1
 62
2
 66
1
  0
VERTEX
  8
1
 10
71.32265056342631
 20
6.7
 30
0
 42
0.03343078706839757
  0
VERTEX
  8
1
 10
71.03864005591008
 20
6.426303999546932
 30
0
 42
0.04289173148898352
  0
VERTEX
  8
1
 10
70.83947859995058
 20
6.161465661802995
 30
0
 42
0.05212202338388212
  0
VERTEX
  8
1
 10
70.71638445099151
 20
5.904415196198381
 30
0
 42
0.05726482686237311
  0
VERTEX
  8
1
 10
70.66057586447658
 20
5.654082812163281
 30
0
 42
0.05494645349811194
  0
VERTEX
  8
1
 10
70.66327109584942
 20
5.409398719127886
 30
0
 42
0.04611619433210225
  0
VERTEX
  8
1
 10
70.71568840055373
 20
5.169293126522384
 30
0
 42
0.03481946830141589
  0
VERTEX
  8
1
 10
70.80904603403322
 20
4.932696243776973
 30
0
 42
0.02412389516130279
  0
VERTEX
  8
1
 10
70.93456225173152
 20
4.698538280321834
 30
0
 42
0.01500324792583717
  0
VERTEX
  8
1
 10
71.08345530909236
 20
4.465749445587168
 30
0
 42
0.007261327948061271
  0
VERTEX
  8
1
 10
71.24694346155935
 20
4.233259949003157
 30
0
 42
0.0003340187078375859
  0
VERTEX
  8
1
 10
71.41624496457627
 20
4
 30
0
  0
SEQEND
  8
1
  0
POLYLINE
  8
1
 62
2
 66
1
  0
VERTEX
  8
1
 10
71.41624496457627
 20
4
 30
0
 42
-0.006199534392037151
  0
VERTEX
  8
1
 10
71.57935879907349
 20
3.769595436361636
 30
0
 42
-0.01301911299346881
  0
VERTEX
  8
1
 10
71.73135235409926
 20
3.536415738148877
 30
0
 42
-0.02067132706153705
  0
VERTEX
  8
1
 10
71.86395696714818
 20
3.299453618356687
 30
0
 42
-0.02942366283031564
  0
VERTEX
  8
1
 10
71.96890397571498
 20
3.057701789980031
 30
0
 42
-0.03895784937144627
  0
VERTEX
  8
1
 10
72.03792471729432
 20
2.81015296601387
 30
0
 42
-0.04777794108826534
  0
VERTEX
  8
1
 10
72.06275052938088
 20
2.555799859453167
 30
0
 42
-0.05314376146149469
  0
VERTEX
  8
1
 10
72.03511274946931
 20
2.293635183292885
 30
0
 42
-0.05277756558209615
  0
VERTEX
  8
1
 10
71.94674271505431
 20
2.022651650527989
 30
0
 42
-0.04718280515555885
  0
VERTEX
  8
1
 10
71.78937176363056
 20
1.741841974153439
 30
0
 42
-0.0391305827232153
  0
VERTEX
  8
1
 10
71.55473123269272
 20
1.450198867164202
 30
0
  0
VERTEX
  8
1
 10
71.40585091787311
 20
1.3
 30
0
  0
SEQEND
  8
1
  0
POLYLINE
  8
1
 62
2
 66
1
  0
VERTEX
  8
1
 10
91.5532221812632
 20
-0.3909467754928522
 30
0
 42
0.04084544511864659
  0
VERTEX
  8
1
 10
91.83644120420698
 20
-0.2797984685509516
 30
0
 42
0.05980431768471323
  0
VERTEX
  8
1
 10
92.03208551398673
 20
-0.1496672765712586
 30
0
 42
0.07898692638487362
  0
VERTEX
  8
1
 10
92.15277247684911
 20
-0.002880125844744515
 30
0
 42
0.08212966727521236
  0
VERTEX
  8
1
 10
92.21111945904077
 20
0.1582360573376212
 30
0
 42
0.06389946624312369
  0
VERTEX
  8
1
 10
92.21974382680843
 20
0.3313543466848678
 30
0
 42
0.04000878696499217
  0
VERTEX
  8
1
 10
92.19126294639865
 20
0.5141478159060253
 30
0
 42
0.02035105249554889
  0
VERTEX
  8
1
 10
92.13829418405815
 20
0.7042895387101222
 30
0
 42
0.004970359008640176
  0
VERTEX
  8
1
 10
92.07345490603356
 20
0.8994525888061897
 30
0
 42
-0.008627421896862064
  0
VERTEX
  8
1
 10
92.00936247857155
 20
1.097310039903256
 30
0
 42
-0.02287723215715982
  0
VERTEX
  8
1
 10
91.95863426791877
 20
1.295534965710352
 30
0
 42
-0.03958414371900223
  0
VERTEX
  8
1
 10
91.93388764032189
 20
1.491800439936506
 30
0
 42
-0.05835261719843783
  0
VERTEX
  8
1
 10
91.94773996202758
 20
1.683779536290749
 30
0
 42
-0.07311688766150475
  0
VERTEX
  8
1
 10
92.01280859928244
 20
1.869145328482108
 30
0
 42
-0.07410974315436439
  0
VERTEX
  8
1
 10
92.14171091833318
 20
2.045570890219616
 30
0
 42
-0.0615182561305597
  0
VERTEX
  8
1
 10
92.34706428542644
 20
2.210729295212301
 30
0
  0
SEQEND
  8
1
  0
POLYLINE
  8
1
 62
2
 66
1
  0
VERTEX
  8
1
 10
92.04766544757111
 20
-0.478130463772557
 30
0
 42
0.04084544511864694
  0
VERTEX
  8
1
 10
92.33088447051489
 20
-0.3669821568306564
 30
0
 42
0.05980431768476966
  0
VERTEX
  8
1
 10
92.52652878029464
 20
-0.2368509648509635
 30
0
 42
0.07898692638487351
  0
VERTEX
  8
1
 10
92.64721574315702
 20
-0.0900638141244493
 30
0
 42
0.08212966727521232
  0
VERTEX
  8
1
 10
92.70556272534869
 20
0.07105236905791634
 30
0
 42
0.06389946624320507
  0
VERTEX
  8
1
 10
92.71418709311632
 20
0.2441706584051629
 30
0
 42
0.04000878696514704
  0
VERTEX
  8
1
 10
92.68570621270655
 20
0.4269641276263204
 30
0
 42
0.02035105249547943
  0
VERTEX
  8
1
 10
92.63273745036607
 20
0.6171058504304174
 30
0
 42
0.004970359008640058
  0
VERTEX
  8
1
 10
92.56789817234147
 20
0.8122689005264848
 30
0
 42
-0.008627421896732738
  0
VERTEX
  8
1
 10
92.50380574487946
 20
1.010126351623551
 30
0
 42
-0.02287723215715982
  0
VERTEX
  8
1
 10
92.45307753422668
 20
1.208351277430647
 30
0
 42
-0.03958414371907303
  0
VERTEX
  8
1
 10
92.42833090662981
 20
1.4046167516568
 30
0
 42
-0.0583526171985107
  0
VERTEX
  8
1
 10
92.4421832283355
 20
1.596595848011044
 30
0
 42
-0.0731168876613645
  0
VERTEX
  8
1
 10
92.50725186559035
 20
1.781961640202403
 30
0
 42
-0.07410974315452999
  0
VERTEX
  8
1
 10
92.6361541846411
 20
1.958387201939911
 30
0
 42
-0.06151825613067852
  0
VERTEX
  8
1
 10
92.84150755173435
 20
2.123545606932596
 30
0
  0
SEQEND
  8
1
  0
POLYLINE
  8
1
 62
2
 66
1
  0
VERTEX
  8
1
 10
92.3360277532874
 20
6.7
 30
0
 42
0.06141788265140794
  0
VERTEX
  8
1
 10
92.16206441251951
 20
6.482639124560576
 30
0
 42
0.07275715139027157
  0
VERTEX
  8
1
 10
92.07256719993502
 20
6.265188690718765
 30
0
 42
0.06866918810237294
  0
VERTEX
  8
1
 10
92.05183686733459
 20
6.047741907729384
 30
0
 42
0.05117623526274688
  0
VERTEX
  8
1
 10
92.08417416651895
 20
5.830391984847246
 30
0
 42
0.03116322124184584
  0
VERTEX
  8
1
 10
92.15387984928886
 20
5.613232131327167
 30
0
 42
0.01373643087091467
  0
VERTEX
  8
1
 10
92.24525466744498
 20
5.396355556423959
 30
0
 42
-0.001620863733560257
  0
VERTEX
  8
1
 10
92.34259937278807
 20
5.179855469392439
 30
0
 42
-0.01712720875210935
  0
VERTEX
  8
1
 10
92.4302147171188
 20
4.963825079487418
 30
0
 42
-0.03503475000676044
  0
VERTEX
  8
1
 10
92.49240145223797
 20
4.748357595963717
 30
0
 42
-0.05587715927102701
  0
VERTEX
  8
1
 10
92.51346032994623
 20
4.533546228076144
 30
0
 42
-0.07413976755898039
  0
VERTEX
  8
1
 10
92.47769210204429
 20
4.319484185079515
 30
0
 42
-0.07785266422035884
  0
VERTEX
  8
1
 10
92.36939752033294
 20
4.106264676228647
 30
0
  0
VERTEX
  8
1
 10
92.2831468317364
 20
4
 30
0
  0
SEQEND
  8
1
  0
POLYLINE
  8
1
 62
2
 66
1
  0
VERTEX
  8
1
 10
92.84720999493941
 20
6.7
 30
0
 42
0.06141788265144755
  0
VERTEX
  8
1
 10
92.67324665417154
 20
6.482639124560576
 30
0
 42
0.07275715139026447
  0
VERTEX
  8
1
 10
92.58374944158702
 20
6.265188690718765
 30
0
 42
0.06866918810237524
  0
VERTEX
  8
1
 10
92.56301910898661
 20
6.047741907729384
 30
0
 42
0.05117623526313393
  0
VERTEX
  8
1
 10
92.59535640817097
 20
5.830391984847246
 30
0
 42
0.03116322124190733
  0
VERTEX
  8
1
 10
92.66506209094086
 20
5.613232131327167
 30
0
 42
0.0137364308709716
  0
VERTEX
  8
1
 10
92.75643690909698
 20
5.396355556423959
 30
0
 42
-0.00162086373366921
  0
VERTEX
  8
1
 10
92.85378161444007
 20
5.179855469392439
 30
0
 42
-0.0171272087521642
  0
VERTEX
  8
1
 10
92.94139695877081
 20
4.963825079487418
 30
0
 42
-0.03503475000664155
  0
VERTEX
  8
1
 10
93.00358369388998
 20
4.748357595963717
 30
0
 42
-0.0558771592711555
  0
VERTEX
  8
1
 10
93.02464257159824
 20
4.533546228076144
 30
0
 42
-0.07413976755884995
  0
VERTEX
  8
1
 10
92.9888743436963
 20
4.319484185079515
 30
0
 42
-0.07785266422024616
  0
VERTEX
  8
1
 10
92.88057976198495
 20
4.106264676228647
 30
0
  0
VERTEX
  8
1
 10
92.79432907338841
 20
4
 30
0
  0
SEQEND
  8
1
  0
POLYLINE
  8
1
 62
2
 66
1
  0
VERTEX
  8
1
 10
69.73539383531366
 20
4
 30
0
 42
-0.006199534391914337
  0
VERTEX
  8
1
 10
69.8985076698109
 20
3.769595436361624
 30
0
 42
-0.0130191129935542
  0
VERTEX
  8
1
 10
70.05050122483664
 20
3.536415738148857
 30
0
 42
-0.02067132706157741
  0
VERTEX
  8
1
 10
70.18310583788558
 20
3.299453618356663
 30
0
 42
-0.0294236628304121
  0
VERTEX
  8
1
 10
70.28805284645237
 20
3.057701789980004
 30
0
 42
-0.03895784937155061
  0
VERTEX
  8
1
 10
70.35707358803171
 20
2.810152966013842
 30
0
 42
-0.04777794108810102
  0
VERTEX
  8
1
 10
70.38189940011826
 20
2.555799859453142
 30
0
 42
-0.05314376146138686
  0
VERTEX
  8
1
 10
70.35426162020669
 20
2.293635183292862
 30
0
 42
-0.05277756558199916
  0
VERTEX
  8
1
 10
70.26589158579169
 20
2.022651650527972
 30
0
 42
-0.0471828051555222
  0
VERTEX
  8
1
 10
70.10852063436795
 20
1.741841974153428
 30
0
 42
-0.03913058272321547
  0
VERTEX
  8
1
 10
69.87388010343011
 20
1.450198867164198
 30
0
  0
VERTEX
  8
1
 10
69.7249997886105
 20
1.3
 30
0
  0
SEQEND
  8
1
  0
ARC
  8
1
 62
7
 10
3.435994085659829
 20
12
 30
0
 40
0.5
 50
0
 51
90
  0
ARC
  8
1
 62
7
 10
3.435994085659829
 20
-4
 30
0
 40
0.5
 50
270
 51
0
  0
ARC
  8
1
 62
7
 10
-3.564005914340171
 20
-4
 30
0
 40
0.5000000000000004
 50
180
 51
270
  0
ARC
  8
1
 62
7
 10
-3.564005914340171
 20
12
 30
0
 40
0.5
 50
90
 51
180
  0
ARC
  8
1
 62
7
 10
33
 20
9.5
 30
0
 40
1.000000000000001
 50
120
 51
180
  0
ARC
  8
1
 62
7
 10
43
 20
9.5
 30
0
 40
1.000000000000001
 50
60.00000000000002
 51
90
  0
ARC
  8
1
 62
7
 10
43
 20
-1.5
 30
0
 40
1
 50
299.9999999999999
 51
0
  0
ARC
  8
1
 62
7
 10
33
 20
-1.5
 30
0
 40
1
 50
240
 51
270
  0
ARC
  8
1
 62
7
 10
33
 20
9.5
 30
0
 40
1
 50
90
 51
120
  0
ARC
  8
1
 62
7
 10
33
 20
-1.5
 30
0
 40
1
 50
180
 51
240
  0
ARC
  8
1
 62
7
 10
43
 20
9.5
 30
0
 40
1
 50
0
 51
60.00000000000002
  0
ARC
  8
1
 62
7
 10
43
 20
-1.5
 30
0
 40
1
 50
270
 51
299.9999999999999
  0
ARC
  8
1
 62
7
 10
44
 20
13.5
 30
0
 40
1
 50
270
 51
0
  0
ARC
  8
1
 62
7
 10
44
 20
-5.5
 30
0
 40
1
 50
0
 51
90
  0
ARC
  8
1
 62
7
 10
48.5
 20
-5
 30
0
 40
0.5
 50
270
 51
0
  0
ARC
  8
1
 62
7
 10
48.5
 20
13
 30
0
 40
0.5
 50
0
 51
90
  0
ARC
  8
1
 62
7
 10
64
 20
7.781218562354546
 30
0
 40
0.5
 50
0
 51
86.30861401354878
  0
ARC
  8
1
 62
7
 10
64
 20
0.2187814376454539
 30
0
 40
0.5
 50
273.6913859864512
 51
0
  0
ARC
  8
1
 62
7
 10
49.5
 20
-1.718781437645454
 30
0
 40
0.4999999999999998
 50
93.69138598645125
 51
180
  0
ARC
  8
1
 62
7
 10
49.5
 20
9.718781437645454
 30
0
 40
0.5
 50
180
 51
266.3086140135487
  0
TEXT
  8
1
 62
2
 10
91.46588958661411
 20
-31.84209079747124
 30
0
 40
2.5
  1
D2P1º°ÄB
 41
0.9
  0
ENDBLK
  8
0
  0
BLOCK
  8
0
  2
US00771-01_DB_TOP_
 70
0
 10
-85.97540092849121
 20
-78.61489843669565
 30
0
  0
INSERT
  8
0
  2
B
 10
21.9125938833098
 20
-5.5
 30
0
  0
ENDBLK
  8
0
  0
ENDSEC
  0
SECTION
  2
ENTITIES
  0
INSERT
  8
0
  2
US00771-01_DB_TOP_
 10
0
 20
0
 30
0
 41
2
 42
2
 43
2
  0
ENDSEC
  0
EOF
