  0
SECTION
  2
HEADER
  9
$ACADVER
  1
AC1009
  9
$INSBASE
 10
0
 20
0
  9
$EXTMIN
 10
32.061486580782
 20
19.07563783486857
  9
$EXTMAX
 10
273.061486580782
 20
223.1373694300783
  9
$LIMMIN
 10
32.061486580782
 20
19.07563783486857
  9
$LIMMAX
 10
273.061486580782
 20
223.1373694300783
  9
$VIEWCTR
 10
10
 20
10
  9
$VIEWSIZE
 40
10
  9
$SNAPMODE
 70
0
  9
$SNAPUNIT
 10
1
 20
1
  9
$SNAPBASE
 10
0
 20
0
  9
$SNAPANG
 50
0
  9
$SNAPSTYLE
 70
0
  9
$SNAPISOPAIR
 70
0
  9
$GRIDMODE
 70
0
  9
$GRIDUNIT
 10
0
 20
0
  9
$ORTHOMODE
 70
0
  9
$REGENMODE
 70
1
  9
$FILLMODE
 70
1
  9
$QTEXTMODE
 70
0
  9
$DRAGMODE
 70
2
  9
$LTSCALE
 40
1
  9
$OSMODE
 70
0
  9
$ATTMODE
 70
1
  9
$TEXTSIZE
 40
3.5
  9
$TRACEWID
 40
0.5
  9
$TEXTSTYLE
  7
STANDARD
  9
$CLAYER
  8
0
  9
$CELTYPE
  6
BYLAYER
  9
$CECOLOR
 62
256
  9
$DIMSCALE
 40
1
  9
$DIMASZ
 40
0.18
  9
$DIMEXO
 40
0.0625
  9
$DIMDLI
 40
0.38
  9
$DIMRND
 40
0
  9
$DIMDLE
 40
0
  9
$DIMEXE
 40
0.18
  9
$DIMTP
 40
0
  9
$DIMTM
 40
0
  9
$DIMTXT
 40
0.18
  9
$DIMCEN
 40
0.09
  9
$DIMTSZ
 40
0
  9
$DIMTOL
 70
0
  9
$DIMLIM
 70
0
  9
$DIMTIH
 70
1
  9
$DIMTOH
 70
1
  9
$DIMSE1
 70
0
  9
$DIMSE2
 70
0
  9
$DIMTAD
 70
0
  9
$DIMZIN
 70
0
  9
$DIMBLK
  1

  9
$DIMASO
 70
1
  9
$DIMSHO
 70
1
  9
$DIMPOST
  1

  9
$DIMAPOST
  1

  9
$DIMALT
 70
0
  9
$DIMALTD
 70
2
  9
$DIMALTF
 40
25.4
  9
$DIMLFAC
 40
1
  9
$DIMTOFL
 70
0
  9
$DIMTVP
 40
0
  9
$DIMTIX
 70
0
  9
$DIMSOXD
 70
0
  9
$DIMSAH
 70
0
  9
$DIMBLK1
  1

  9
$DIMBLK2
  1

  9
$DIMSTYLE
  2
*UNNAMED
  9
$DIMCLRD
 70
0
  9
$DIMCLRE
 70
0
  9
$DIMCLRT
 70
0
  9
$DIMTFAC
 40
1
  9
$DIMGAP
 40
0.09
  9
$LUNITS
 70
2
  9
$LUPREC
 70
4
  9
$AXISMODE
 70
0
  9
$AXISUNIT
 10
0
 20
0
  9
$SKETCHINC
 40
0.1
  9
$FILLETRAD
 40
2
  9
$AUNITS
 70
0
  9
$AUPREC
 70
0
  9
$MENU
  1
ACAD
  9
$ELEVATION
 40
0
  9
$THICKNESS
 40
0
  9
$VIEWDIR
 10
0
 20
0
 30
1
  9
$LIMCHECK
 70
0
  9
$BLIPMODE
 70
1
  9
$CHAMFERA
 40
0
  9
$CHAMFERB
 40
0
  9
$FASTZOOM
 70
1
  9
$SKPOLY
 70
0
  9
$ANGBASE
 50
0
  9
$ANGDIR
 70
0
  9
$PDMODE
 70
0
  9
$PDSIZE
 40
0
  9
$PLINEWID
 40
0
  9
$COORDS
 70
2
  0
ENDSEC
  0
SECTION
  2
TABLES
  0
TABLE
  2
DIMSTYLE
 70
0
  0
ENDTAB
  0
TABLE
  2
LTYPE
 70
9
  0
LTYPE
  2
CONTINUOUS
 70
64
  3
Solid line
 72
65
 73
0
 40
0
  0
LTYPE
  2
BORDER
 70
64
  3
__ __ . __ __ .
 72
65
 73
6
 40
11.09868421052632
 49
3.171052631578947
 49
-1.585526315789474
 49
3.171052631578947
 49
-1.585526315789474
 49
0
 49
-1.585526315789474
  0
LTYPE
  2
CENTER
 70
64
  3
____ _ ____ _
 72
65
 73
4
 40
12.68421052631579
 49
7.927631578947368
 49
-1.585526315789474
 49
1.585526315789474
 49
-1.585526315789474
  0
LTYPE
  2
DASHDOT
 70
64
  3
__ . __ . __ .
 72
65
 73
4
 40
6.342105263157895
 49
3.171052631578947
 49
-1.585526315789474
 49
0
 49
-1.585526315789474
  0
LTYPE
  2
DASHED
 70
64
  3
__ __ __ __ __
 72
65
 73
2
 40
4.756578947368421
 49
3.171052631578947
 49
-1.585526315789474
  0
LTYPE
  2
DIVIDE
 70
64
  3
__ . . __ . . 
 72
65
 73
6
 40
7.927631578947368
 49
3.171052631578947
 49
-1.585526315789474
 49
0
 49
-1.585526315789474
 49
0
 49
-1.585526315789474
  0
LTYPE
  2
DOT
 70
64
  3
..............
 72
65
 73
4
 40
3.171052631578947
 49
0
 49
-1.585526315789474
 49
0
 49
-1.585526315789474
  0
LTYPE
  2
HIDDEN
 70
64
  3
_ _ _ _ _ _ _
 72
65
 73
2
 40
2.378289473684211
 49
1.585526315789474
 49
-0.7927631578947368
  0
LTYPE
  2
PHANTOM
 70
64
  3
_____ _ _ _____ _ _ 
 72
65
 73
6
 40
15.85526315789474
 49
7.927631578947368
 49
-1.585526315789474
 49
1.585526315789474
 49
-1.585526315789474
 49
1.585526315789474
 49
-1.585526315789474
  0
ENDTAB
  0
TABLE
  2
LAYER
 70
4
  0
LAYER
  2
1
 70
0
 62
7
  6
CONTINUOUS
  0
LAYER
  2
2
 70
0
 62
7
  6
CONTINUOUS
  0
LAYER
  2
0
 70
0
 62
7
  6
CONTINUOUS
  0
ENDTAB
  0
TABLE
  2
STYLE
 70
4
  0
STYLE
  2
STANDARD
 70
0
 40
0
 41
1
 50
0
 71
0
 42
3.5
  3
txt
  4

  0
STYLE
  2
SIMPLEX
 70
0
 40
0
 41
1
 50
0
 71
0
 42
3.5
  3
simplex
  4

  0
STYLE
  2
COMPLEX
 70
0
 40
0
 41
1
 50
0
 71
0
 42
3.5
  3
complex
  4

  0
STYLE
  2
ITALIC
 70
0
 40
0
 41
1
 50
0
 71
0
 42
3.5
  3
italic
  4

  0
ENDTAB
  0
TABLE
  2
VIEW
 70
0
  0
ENDTAB
  0
ENDSEC
  0
SECTION
  2
BLOCKS
  0
ENDSEC
  0
SECTION
  2
ENTITIES
  0
LINE
  8
1
 62
3
 10
193.061486580782
 20
149.479576279258
 30
0
 11
216.061486580782
 21
149.479576279258
 31
0
  0
LINE
  8
1
 62
3
 10
216.061486580782
 20
153.479576279258
 30
0
 11
193.061486580782
 21
153.479576279258
 31
0
  0
LINE
  8
1
 62
3
 10
81.64406227573778
 20
153.479576279258
 30
0
 11
79.561486580782
 21
153.479576279258
 31
0
  0
LINE
  8
1
 62
3
 10
79.561486580782
 20
153.479576279258
 30
0
 11
79.561486580782
 21
149.479576279258
 31
0
  0
LINE
  8
1
 62
3
 10
79.561486580782
 20
149.479576279258
 30
0
 11
81.64406227573784
 21
149.479576279258
 31
0
  0
LINE
  8
1
 62
1
 10
225.561486580782
 20
103.229576279258
 30
0
 11
235.061486580782
 21
103.229576279258
 31
0
  0
LINE
  8
1
 62
1
 10
235.061486580782
 20
169.6976060221552
 30
0
 11
225.561486580782
 21
169.6976060221552
 31
0
  0
LINE
  8
1
 62
1
 10
56.06148658078189
 20
152.479576279258
 30
0
 11
42.061486580782
 21
152.479576279258
 31
0
  0
LINE
  8
1
 62
1
 10
49.061486580782
 20
159.479576279258
 30
0
 11
49.061486580782
 21
145.479576279258
 31
0
  0
LINE
  8
1
 62
3
 10
50.5862006374972
 20
151.5466222100483
 30
0
 11
49.80681936682777
 21
152.3260034807178
 31
0
  0
LINE
  8
1
 62
3
 10
50.5862006374972
 20
153.4125303484678
 30
0
 11
49.80681936682777
 21
152.6331490777983
 31
0
  0
LINE
  8
1
 62
3
 10
48.12853251157219
 20
150.9548622225428
 30
0
 11
48.90791378224162
 21
151.7342434932123
 31
0
  0
LINE
  8
1
 62
3
 10
49.9944406499917
 20
150.9548622225428
 30
0
 11
49.21505937932227
 21
151.7342434932123
 31
0
  0
LINE
  8
1
 62
3
 10
47.53677252406669
 20
153.4125303484678
 30
0
 11
48.31615379473612
 21
152.6331490777984
 31
0
  0
LINE
  8
1
 62
3
 10
47.53677252406669
 20
151.5466222100483
 30
0
 11
48.31615379473612
 21
152.3260034807178
 31
0
  0
LINE
  8
1
 62
3
 10
49.9944406499917
 20
154.0042903359733
 30
0
 11
49.21505937932227
 21
153.2249090653038
 31
0
  0
LINE
  8
1
 62
3
 10
48.12853251157219
 20
154.0042903359733
 30
0
 11
48.90791378224162
 21
153.2249090653038
 31
0
  0
LINE
  8
1
 62
1
 10
84.06148658078189
 20
104.479576279258
 30
0
 11
70.061486580782
 21
104.479576279258
 31
0
  0
LINE
  8
1
 62
3
 10
78.5862006374972
 20
103.5466222100483
 30
0
 11
77.80681936682777
 21
104.3260034807178
 31
0
  0
LINE
  8
1
 62
3
 10
78.5862006374972
 20
105.4125303484678
 30
0
 11
77.80681936682777
 21
104.6331490777983
 31
0
  0
LINE
  8
1
 62
3
 10
76.12853251157219
 20
102.9548622225428
 30
0
 11
76.90791378224162
 21
103.7342434932123
 31
0
  0
LINE
  8
1
 62
3
 10
77.9944406499917
 20
102.9548622225428
 30
0
 11
77.21505937932227
 21
103.7342434932123
 31
0
  0
LINE
  8
1
 62
3
 10
75.53677252406669
 20
105.4125303484678
 30
0
 11
76.31615379473612
 21
104.6331490777984
 31
0
  0
LINE
  8
1
 62
3
 10
75.53677252406669
 20
103.5466222100483
 30
0
 11
76.31615379473612
 21
104.3260034807178
 31
0
  0
LINE
  8
1
 62
3
 10
77.9944406499917
 20
106.0042903359733
 30
0
 11
77.21505937932227
 21
105.2249090653038
 31
0
  0
LINE
  8
1
 62
3
 10
76.12853251157219
 20
106.0042903359733
 30
0
 11
76.90791378224162
 21
105.2249090653038
 31
0
  0
LINE
  8
1
 62
1
 10
112.0614865807819
 20
152.479576279258
 30
0
 11
98.061486580782
 21
152.479576279258
 31
0
  0
LINE
  8
1
 62
1
 10
105.061486580782
 20
159.479576279258
 30
0
 11
105.061486580782
 21
145.479576279258
 31
0
  0
LINE
  8
1
 62
3
 10
106.5862006374972
 20
151.5466222100483
 30
0
 11
105.8068193668278
 21
152.3260034807178
 31
0
  0
LINE
  8
1
 62
3
 10
106.5862006374972
 20
153.4125303484678
 30
0
 11
105.8068193668278
 21
152.6331490777983
 31
0
  0
LINE
  8
1
 62
3
 10
104.1285325115722
 20
150.9548622225428
 30
0
 11
104.9079137822416
 21
151.7342434932123
 31
0
  0
LINE
  8
1
 62
3
 10
105.9944406499917
 20
150.9548622225428
 30
0
 11
105.2150593793223
 21
151.7342434932123
 31
0
  0
LINE
  8
1
 62
3
 10
103.5367725240667
 20
153.4125303484678
 30
0
 11
104.3161537947361
 21
152.6331490777984
 31
0
  0
LINE
  8
1
 62
3
 10
103.5367725240667
 20
151.5466222100483
 30
0
 11
104.3161537947361
 21
152.3260034807178
 31
0
  0
LINE
  8
1
 62
3
 10
105.9944406499917
 20
154.0042903359733
 30
0
 11
105.2150593793223
 21
153.2249090653038
 31
0
  0
LINE
  8
1
 62
3
 10
104.1285325115722
 20
154.0042903359733
 30
0
 11
104.9079137822416
 21
153.2249090653038
 31
0
  0
LINE
  8
2
 62
1
 10
102.311486580782
 20
169.729576279258
 30
0
 11
118.311486580782
 21
169.729576279258
 31
0
  0
LINE
  8
2
 62
1
 10
110.311486580782
 20
161.729576279258
 30
0
 11
110.311486580782
 21
177.729576279258
 31
0
  0
LINE
  8
2
 62
1
 10
110.311486580782
 20
111.229576279258
 30
0
 11
110.311486580782
 21
95.229576279258
 31
0
  0
LINE
  8
2
 62
1
 10
122.061486580782
 20
136.479576279258
 30
0
 11
58.848885629635
 21
136.479576279258
 31
0
  0
LINE
  8
2
 62
1
 10
118.311486580782
 20
103.229576279258
 30
0
 11
102.311486580782
 21
103.229576279258
 31
0
  0
LINE
  8
2
 62
1
 10
77.061486580782
 20
91.479576279258
 30
0
 11
77.061486580782
 21
181.479576279258
 31
0
  0
LINE
  8
2
 62
1
 10
43.811486580782
 20
161.729576279258
 30
0
 11
43.811486580782
 21
177.729576279258
 31
0
  0
LINE
  8
2
 62
1
 10
43.811486580782
 20
111.229576279258
 30
0
 11
43.811486580782
 21
95.229576279258
 31
0
  0
LINE
  8
2
 62
1
 10
35.811486580782
 20
103.229576279258
 30
0
 11
51.811486580782
 21
103.229576279258
 31
0
  0
LINE
  8
2
 62
1
 10
35.811486580782
 20
169.729576279258
 30
0
 11
51.811486580782
 21
169.729576279258
 31
0
  0
LINE
  8
2
 62
1
 10
218.061486580782
 20
136.479576279258
 30
0
 11
273.061486580782
 21
136.479576279258
 31
0
  0
LINE
  8
2
 62
1
 10
188.061486580782
 20
151.479576279258
 30
0
 11
234.061486580782
 21
151.479576279258
 31
0
  0
LINE
  8
1
 62
3
 10
223.561486580782
 20
134.479576279258
 30
0
 11
229.061486580782
 21
134.479576279258
 31
0
  0
LINE
  8
1
 62
3
 10
37.061486580782
 20
169.729576279258
 30
0
 11
37.061486580782
 21
103.229576279258
 31
0
  0
LINE
  8
1
 62
3
 10
43.811486580782
 20
176.479576279258
 30
0
 11
110.311486580782
 21
176.479576279258
 31
0
  0
LINE
  8
1
 62
3
 10
43.811486580782
 20
96.479576279258
 30
0
 11
110.311486580782
 21
96.479576279258
 31
0
  0
LINE
  8
1
 62
3
 10
117.061486580782
 20
169.729576279258
 30
0
 11
117.061486580782
 21
103.229576279258
 31
0
  0
LINE
  8
1
 62
3
 10
228.061486580782
 20
109.979576279258
 30
0
 11
229.061486580782
 21
109.979576279258
 31
0
  0
LINE
  8
1
 62
3
 10
229.061486580782
 20
104.729576279258
 30
0
 11
229.061486580782
 21
168.229576279258
 31
0
  0
LINE
  8
1
 62
3
 10
228.061486580782
 20
109.979576279258
 30
0
 11
228.061486580782
 21
96.72957627925798
 31
0
  0
LINE
  8
1
 62
3
 10
228.061486580782
 20
162.979576279258
 30
0
 11
229.061486580782
 21
162.979576279258
 31
0
  0
LINE
  8
1
 62
3
 10
228.061486580782
 20
162.979576279258
 30
0
 11
228.061486580782
 21
176.229576279258
 31
0
  0
LINE
  8
1
 62
3
 10
223.061486580782
 20
167.979576279258
 30
0
 11
223.061486580782
 21
134.979576279258
 31
0
  0
LINE
  8
1
 62
3
 10
223.561486580782
 20
168.479576279258
 30
0
 11
228.061486580782
 21
168.479576279258
 31
0
  0
LINE
  8
1
 62
3
 10
267.061486580782
 20
176.579576279258
 30
0
 11
228.061486580782
 21
176.229576279258
 31
0
  0
LINE
  8
1
 62
3
 10
268.061486580782
 20
175.479576279258
 30
0
 11
267.061486580782
 21
175.479576279258
 31
0
  0
LINE
  8
1
 62
3
 10
267.061486580782
 20
96.379576279258
 30
0
 11
228.061486580782
 21
96.72957627925798
 31
0
  0
LINE
  8
1
 62
3
 10
267.061486580782
 20
96.379576279258
 30
0
 11
267.061486580782
 21
176.579576279258
 31
0
  0
LINE
  8
1
 62
3
 10
268.061486580782
 20
97.479576279258
 30
0
 11
267.061486580782
 21
97.479576279258
 31
0
  0
LINE
  8
1
 62
3
 10
268.061486580782
 20
175.479576279258
 30
0
 11
268.061486580782
 21
97.479576279258
 31
0
  0
LINE
  8
1
 62
1
 10
57.09883156637671
 20
151.479576279258
 30
0
 11
58.848885629635
 21
151.479576279258
 31
0
  0
LINE
  8
1
 62
1
 10
58.848885629635
 20
151.479576279258
 30
0
 11
96.06052207793645
 21
151.479576279258
 31
0
  0
LINE
  8
2
 62
1
 10
58.848885629635
 20
136.479576279258
 30
0
 11
32.061486580782
 21
136.479576279258
 31
0
  0
LINE
  8
1
 62
3
 10
223.061486580782
 20
156.479576279258
 30
0
 11
193.061486580782
 21
156.479576279258
 31
0
  0
LINE
  8
1
 62
3
 10
193.061486580782
 20
156.479576279258
 30
0
 11
193.061486580782
 21
146.479576279258
 31
0
  0
LINE
  8
1
 62
3
 10
193.061486580782
 20
146.479576279258
 30
0
 11
223.061486580782
 21
146.479576279258
 31
0
  0
LINE
  8
1
 62
2
 10
75.23087764203606
 20
19.07563783486857
 30
0
 11
247.2308776420363
 21
19.07563783486857
 31
0
  0
LINE
  8
1
 62
2
 10
85.23087764203606
 20
61.07563783486857
 30
0
 11
85.23087764203606
 21
19.07563783486857
 31
0
  0
LINE
  8
1
 62
2
 10
105.2308776420361
 20
61.07563783486857
 30
0
 11
105.2308776420361
 21
19.07563783486857
 31
0
  0
LINE
  8
1
 62
2
 10
180.2308776420361
 20
61.07563783486857
 30
0
 11
180.2308776420361
 21
19.07563783486857
 31
0
  0
LINE
  8
1
 62
2
 10
200.2308776420361
 20
61.07563783486857
 30
0
 11
200.2308776420361
 21
19.07563783486857
 31
0
  0
LINE
  8
1
 62
2
 10
75.23087764203606
 20
68.07563783486857
 30
0
 11
75.23087764203606
 21
19.07563783486857
 31
0
  0
LINE
  8
1
 62
2
 10
247.2308776420363
 20
68.07563783486857
 30
0
 11
247.2308776420363
 21
19.07563783486857
 31
0
  0
LINE
  8
1
 62
2
 10
75.23087764203606
 20
33.07563783486857
 30
0
 11
247.2308776420363
 21
33.07563783486857
 31
0
  0
LINE
  8
1
 62
2
 10
75.23087764203606
 20
40.07563783486857
 30
0
 11
247.2308776420363
 21
40.07563783486857
 31
0
  0
LINE
  8
1
 62
2
 10
75.23087764203606
 20
47.07563783486857
 30
0
 11
247.2308776420363
 21
47.07563783486857
 31
0
  0
LINE
  8
1
 62
2
 10
75.23087764203606
 20
54.07563783486857
 30
0
 11
247.2308776420363
 21
54.07563783486857
 31
0
  0
LINE
  8
1
 62
2
 10
75.23087764203606
 20
61.07563783486857
 30
0
 11
247.2308776420363
 21
61.07563783486857
 31
0
  0
LINE
  8
1
 62
2
 10
75.23087764203606
 20
68.07563783486857
 30
0
 11
247.2308776420363
 21
68.07563783486857
 31
0
  0
LINE
  8
1
 62
2
 10
232.92682063988
 20
27.4111295304173
 30
0
 11
209.92682063988
 21
27.4111295304173
 31
0
  0
LINE
  8
1
 62
2
 10
209.92682063988
 20
27.4111295304173
 30
0
 11
209.92682063988
 21
23.4111295304173
 31
0
  0
LINE
  8
1
 62
2
 10
209.92682063988
 20
23.4111295304173
 30
0
 11
232.92682063988
 21
23.4111295304173
 31
0
  0
LINE
  8
1
 62
2
 10
206.890015191136
 20
27.4111295304173
 30
0
 11
206.890015191136
 21
23.4111295304173
 31
0
  0
LINE
  8
1
 62
2
 10
206.890015191136
 20
23.4111295304173
 30
0
 11
202.890015191136
 21
23.4111295304173
 31
0
  0
LINE
  8
1
 62
2
 10
202.890015191136
 20
23.4111295304173
 30
0
 11
202.890015191136
 21
27.4111295304173
 31
0
  0
LINE
  8
1
 62
2
 10
202.890015191136
 20
27.4111295304173
 30
0
 11
206.890015191136
 21
27.4111295304173
 31
0
  0
ARC
  8
1
 62
3
 10
216.061486580782
 20
151.479576279258
 30
0
 40
2
 50
270
 51
0
  0
ARC
  8
1
 62
3
 10
216.061486580782
 20
151.479576279258
 30
0
 40
2
 50
0
 51
90
  0
ARC
  8
1
 62
3
 10
49.061486580782
 20
152.479576279258
 30
0
 40
0.7434374999999792
 50
350.8377712759727
 51
9.162228724042523
  0
ARC
  8
1
 62
3
 10
49.061486580782
 20
152.479576279258
 30
0
 40
1.787499999999959
 50
301.4619589546524
 51
328.5380410453477
  0
ARC
  8
1
 62
3
 10
49.061486580782
 20
152.479576279258
 30
0
 40
0.7434374999999749
 50
260.837771275961
 51
279.1622287240304
  0
ARC
  8
1
 62
3
 10
49.061486580782
 20
152.479576279258
 30
0
 40
1.787500000000056
 50
211.4619589546504
 51
238.5380410453446
  0
ARC
  8
1
 62
3
 10
49.061486580782
 20
152.479576279258
 30
0
 40
0.7434375000001302
 50
170.837771275959
 51
189.1622287240259
  0
ARC
  8
1
 62
3
 10
49.061486580782
 20
152.479576279258
 30
0
 40
1.787500000000115
 50
121.4619589546535
 51
148.5380410453464
  0
ARC
  8
1
 62
3
 10
49.061486580782
 20
152.479576279258
 30
0
 40
0.7434375000001533
 50
80.837771275972
 51
99.16222872403665
  0
ARC
  8
1
 62
3
 10
49.061486580782
 20
152.479576279258
 30
0
 40
1.787500000000018
 50
31.46195895465544
 51
58.53804104534957
  0
ARC
  8
1
 62
3
 10
77.061486580782
 20
104.479576279258
 30
0
 40
0.7434374999999792
 50
350.8377712759727
 51
9.162228724043604
  0
ARC
  8
1
 62
3
 10
77.061486580782
 20
104.479576279258
 30
0
 40
1.787499999999959
 50
301.4619589546524
 51
328.5380410453477
  0
ARC
  8
1
 62
3
 10
77.061486580782
 20
104.479576279258
 30
0
 40
0.7434374999999738
 50
260.8377712759615
 51
279.1622287240299
  0
ARC
  8
1
 62
3
 10
77.061486580782
 20
104.479576279258
 30
0
 40
1.787500000000056
 50
211.4619589546504
 51
238.5380410453446
  0
ARC
  8
1
 62
3
 10
77.061486580782
 20
104.479576279258
 30
0
 40
0.7434375000001253
 50
170.8377712759578
 51
189.162228724026
  0
ARC
  8
1
 62
3
 10
77.061486580782
 20
104.479576279258
 30
0
 40
1.787500000000103
 50
121.4619589546538
 51
148.5380410453469
  0
ARC
  8
1
 62
3
 10
77.061486580782
 20
104.479576279258
 30
0
 40
0.7434375000001662
 50
80.83777127597273
 51
99.16222872403593
  0
ARC
  8
1
 62
3
 10
77.061486580782
 20
104.479576279258
 30
0
 40
1.78750000000001
 50
31.46195895465505
 51
58.53804104534934
  0
ARC
  8
1
 62
3
 10
105.061486580782
 20
152.479576279258
 30
0
 40
0.7434374999999512
 50
350.8377712759723
 51
9.162228724042873
  0
ARC
  8
1
 62
3
 10
105.061486580782
 20
152.479576279258
 30
0
 40
1.787499999999959
 50
301.4619589546524
 51
328.5380410453477
  0
ARC
  8
1
 62
3
 10
105.061486580782
 20
152.479576279258
 30
0
 40
0.7434374999999693
 50
260.8377712759636
 51
279.1622287240277
  0
ARC
  8
1
 62
3
 10
105.061486580782
 20
152.479576279258
 30
0
 40
1.787500000000043
 50
211.4619589546507
 51
238.538041045345
  0
ARC
  8
1
 62
3
 10
105.061486580782
 20
152.479576279258
 30
0
 40
0.743437500000081
 50
170.8377712759584
 51
189.1622287240265
  0
ARC
  8
1
 62
3
 10
105.061486580782
 20
152.479576279258
 30
0
 40
1.787500000000107
 50
121.4619589546531
 51
148.5380410453462
  0
ARC
  8
1
 62
3
 10
105.061486580782
 20
152.479576279258
 30
0
 40
0.7434375000001475
 50
80.8377712759747
 51
99.16222872403395
  0
ARC
  8
1
 62
3
 10
105.061486580782
 20
152.479576279258
 30
0
 40
1.787500000000018
 50
31.46195895465544
 51
58.53804104534957
  0
ARC
  8
1
 62
2
 10
232.92682063988
 20
25.4111295304173
 30
0
 40
2
 50
270
 51
90
  0
CIRCLE
  8
1
 62
3
 10
77.061486580782
 20
151.479576279258
 30
0
 40
5
  0
CIRCLE
  8
1
 62
3
 10
49.061486580782
 20
152.479576279258
 30
0
 40
4
  0
CIRCLE
  8
1
 62
3
 10
49.061486580782
 20
152.479576279258
 30
0
 40
3.25
  0
CIRCLE
  8
1
 62
3
 10
77.061486580782
 20
104.479576279258
 30
0
 40
4
  0
CIRCLE
  8
1
 62
3
 10
77.061486580782
 20
104.479576279258
 30
0
 40
3.25
  0
CIRCLE
  8
1
 62
3
 10
105.061486580782
 20
152.479576279258
 30
0
 40
4
  0
CIRCLE
  8
1
 62
3
 10
105.061486580782
 20
152.479576279258
 30
0
 40
3.25
  0
CIRCLE
  8
1
 62
3
 10
43.811486580782
 20
103.229576279258
 30
0
 40
6.75
  0
CIRCLE
  8
1
 62
3
 10
110.311486580782
 20
103.229576279258
 30
0
 40
6.75
  0
CIRCLE
  8
1
 62
3
 10
43.811486580782
 20
169.729576279258
 30
0
 40
6.75
  0
CIRCLE
  8
1
 62
3
 10
110.311486580782
 20
169.729576279258
 30
0
 40
6.75
  0
CIRCLE
  8
1
 62
3
 10
110.311486580782
 20
169.729576279258
 30
0
 40
2.75
  0
CIRCLE
  8
1
 62
3
 10
43.811486580782
 20
103.229576279258
 30
0
 40
2.75
  0
CIRCLE
  8
1
 62
3
 10
110.311486580782
 20
103.229576279258
 30
0
 40
2.75
  0
CIRCLE
  8
1
 62
3
 10
43.811486580782
 20
169.729576279258
 30
0
 40
2.75
  0
CIRCLE
  8
1
 62
3
 10
77.061486580782
 20
151.479576279258
 30
0
 40
17
  0
CIRCLE
  8
1
 62
3
 10
77.061486580782
 20
151.479576279258
 30
0
 40
5.749999999999943
  0
ARC
  8
1
 62
3
 10
223.561486580782
 20
167.979576279258
 30
0
 40
0.5
 50
90
 51
180
  0
ARC
  8
1
 62
3
 10
223.561486580782
 20
134.979576279258
 30
0
 40
0.5
 50
180
 51
270
  0
ARC
  8
1
 62
3
 10
49.83554557981347
 20
152.3547296937035
 30
0
 40
0.04062499999999931
 50
170.8377712759907
 51
225
  0
ARC
  8
1
 62
3
 10
49.83554557981347
 20
152.6044228648127
 30
0
 40
0.04062499999991843
 50
135.0000000001134
 51
189.1622287240093
  0
ARC
  8
1
 62
3
 10
48.93663999522732
 20
151.7055172802266
 30
0
 40
0.04062499999997578
 50
80.83777127594473
 51
134.9999999999929
  0
ARC
  8
1
 62
3
 10
49.18633316633657
 20
151.7055172802266
 30
0
 40
0.04062499999999882
 50
45
 51
99.16222872404536
  0
ARC
  8
1
 62
3
 10
48.28742758175042
 20
152.6044228648127
 30
0
 40
0.04062499999999231
 50
350.8377712759891
 51
45.00000000000708
  0
ARC
  8
1
 62
3
 10
48.28742758175042
 20
152.3547296937035
 30
0
 40
0.0406249999999938
 50
314.999999999993
 51
9.162228724010907
  0
ARC
  8
1
 62
3
 10
49.18633316633657
 20
153.2536352782896
 30
0
 40
0.04062499999997465
 50
260.8377712759546
 51
314.9999999998866
  0
ARC
  8
1
 62
3
 10
48.93663999522732
 20
153.2536352782896
 30
0
 40
0.04062500000007419
 50
225.0000000001205
 51
279.1622287240552
  0
ARC
  8
1
 62
3
 10
77.83554557981347
 20
104.3547296937035
 30
0
 40
0.04062499999999705
 50
170.8377712760105
 51
225
  0
ARC
  8
1
 62
3
 10
77.83554557981347
 20
104.6044228648127
 30
0
 40
0.04062499999991843
 50
135.0000000001134
 51
189.1622287239895
  0
ARC
  8
1
 62
3
 10
76.93663999522732
 20
103.7055172802266
 30
0
 40
0.04062499999996175
 50
80.83777127594154
 51
135
  0
ARC
  8
1
 62
3
 10
77.18633316633657
 20
103.7055172802266
 30
0
 40
0.04062499999999882
 50
45
 51
99.16222872405847
  0
ARC
  8
1
 62
3
 10
76.28742758175042
 20
104.6044228648127
 30
0
 40
0.04062499999999705
 50
350.8377712760105
 51
44.99999999998583
  0
ARC
  8
1
 62
3
 10
76.28742758175042
 20
104.3547296937035
 30
0
 40
0.04062499999999882
 50
315
 51
9.162228723989525
  0
ARC
  8
1
 62
3
 10
77.18633316633657
 20
105.2536352782896
 30
0
 40
0.04062499999994772
 50
260.8377712759383
 51
314.999999999915
  0
ARC
  8
1
 62
3
 10
76.93663999522732
 20
105.2536352782896
 30
0
 40
0.04062500000005911
 50
225.000000000085
 51
279.1622287240617
  0
ARC
  8
1
 62
3
 10
105.8355455798135
 20
152.3547296937035
 30
0
 40
0.04062500000005543
 50
170.8377712760035
 51
225
  0
ARC
  8
1
 62
3
 10
105.8355455798135
 20
152.6044228648127
 30
0
 40
0.04062499999991843
 50
135.0000000001134
 51
189.1622287239966
  0
ARC
  8
1
 62
3
 10
104.9366399952273
 20
151.7055172802266
 30
0
 40
0.04062499999998484
 50
80.83777127586559
 51
135
  0
ARC
  8
1
 62
3
 10
105.1863331663366
 20
151.7055172802266
 30
0
 40
0.04062499999999882
 50
45
 51
99.16222872413441
  0
ARC
  8
1
 62
3
 10
104.2874275817504
 20
152.6044228648127
 30
0
 40
0.04062500000005543
 50
350.8377712760035
 51
45.00000000001417
  0
ARC
  8
1
 62
3
 10
104.2874275817504
 20
152.3547296937035
 30
0
 40
0.04062499999998877
 50
314.9999999999858
 51
9.162228723996547
  0
ARC
  8
1
 62
3
 10
105.1863331663366
 20
153.2536352782896
 30
0
 40
0.04062499999998484
 50
260.8377712758656
 51
314.9999999998866
  0
ARC
  8
1
 62
3
 10
104.9366399952273
 20
153.2536352782896
 30
0
 40
0.04062500000007921
 50
225.0000000001134
 51
279.1622287241344
  0
TEXT
  8
1
 62
2
 10
136.4483873073384
 20
220.2936194300783
 30
0
 40
3.5
  1
8H25FBN-100
 41
0.8100000000000001
  0
TEXT
  8
1
 62
2
 10
136.4483873073384
 20
214.1686194300783
 30
0
 40
3.5
  1
8H30FBN-100
 41
0.8100000000000001
  0
TEXT
  8
1
 62
2
 10
136.4483873073384
 20
208.0436194300783
 30
0
 40
3.5
  1
8H50FBN-100
 41
0.8100000000000001
  0
TEXT
  8
1
 62
2
 10
243.2619984902191
 20
48.07563783486857
 30
0
 40
4
  1
黒
 41
0.8100000000000001
 73
2
 11
243.2619984902191
 21
50.07563783486857
 31
0
  0
TEXT
  8
1
 62
2
 10
186.6308776420361
 20
34.57563783486857
 30
0
 40
4
  1
Ｓ
 41
0.9
 72
1
 73
2
 11
190.2308776420361
 21
36.57563783486857
 31
0
  0
TEXT
  8
1
 62
2
 10
107.2308776420361
 20
34.57563783486857
 30
0
 40
4
  1
バネ座金　　　　　　　　２号　５
 41
0.765
 73
2
 11
107.2308776420361
 21
36.57563783486857
 31
0
  0
TEXT
  8
1
 62
2
 10
107.2308776420361
 20
41.57563783486857
 30
0
 40
4
  1
六角ナット　　　　　　　Ｍ５
 41
0.765
 73
2
 11
107.2308776420361
 21
43.57563783486857
 31
0
  0
TEXT
  8
1
 62
2
 10
84.43087764203607
 20
34.57563783486857
 30
0
 40
4
  1
座　金
 41
0.9
 72
1
 73
2
 11
95.23087764203606
 21
36.57563783486857
 31
0
  0
TEXT
  8
1
 62
2
 10
84.43087764203607
 20
41.57563783486857
 30
0
 40
4
  1
ナット
 41
0.9
 72
1
 73
2
 11
95.23087764203606
 21
43.57563783486857
 31
0
  0
TEXT
  8
1
 62
2
 10
76.63087764203607
 20
34.57563783486857
 30
0
 40
4
  1
４
 41
0.9
 72
1
 73
2
 11
80.23087764203606
 21
36.57563783486857
 31
0
  0
TEXT
  8
1
 62
2
 10
76.63087764203607
 20
41.57563783486857
 30
0
 40
4
  1
４
 41
0.9
 72
1
 73
2
 11
80.23087764203606
 21
43.57563783486857
 31
0
  0
TEXT
  8
1
 62
2
 10
201.0923622230465
 20
48.57563783486857
 30
0
 40
4
  1
Ｅｐ－Ｆｅ／Ｚｎ　８／ＣＭ　２
 41
0.468
 73
2
 11
201.0923622230465
 21
50.57563783486857
 31
0
  0
TEXT
  8
1
 62
2
 10
174.0308776420361
 20
48.57563783486857
 30
0
 40
4
  1
ＳＷＲＭ１２
 41
0.675
 72
1
 73
2
 11
190.2308776420361
 21
50.57563783486857
 31
0
  0
TEXT
  8
1
 62
2
 10
107.2308776420361
 20
48.57563783486857
 30
0
 40
4
  1
十字穴付ナベ　小ネジ　　Ｍ５×６０
 41
0.765
 73
2
 11
107.2308776420361
 21
50.57563783486857
 31
0
  0
TEXT
  8
1
 62
2
 10
80.83087764203606
 20
48.57563783486857
 30
0
 40
4
  1
取付ネジ
 41
0.9
 72
1
 73
2
 11
95.23087764203606
 21
50.57563783486857
 31
0
  0
TEXT
  8
1
 62
2
 10
76.63087764203607
 20
48.57563783486857
 30
0
 40
4
  1
４
 41
0.9
 72
1
 73
2
 11
80.23087764203606
 21
50.57563783486857
 31
0
  0
TEXT
  8
1
 62
2
 10
131.0308776420361
 20
62.57563783486857
 30
0
 40
4
  1
付　　属　　品
 41
0.9
 72
1
 73
2
 11
156.2308776420361
 21
64.57563783486857
 31
0
  0
TEXT
  8
1
 62
2
 10
204.3308776420361
 20
55.57563783486857
 30
0
 40
4
  1
備　　考
 41
0.9
 72
1
 73
2
 11
218.7308776420361
 21
57.57563783486857
 31
0
  0
TEXT
  8
1
 62
2
 10
175.8308776420361
 20
55.57563783486857
 30
0
 40
4
  1
坑　　質
 41
0.9
 72
1
 73
2
 11
190.2308776420361
 21
57.57563783486857
 31
0
  0
TEXT
  8
1
 62
2
 10
110.3308776420361
 20
55.57563783486857
 30
0
 40
4
  1
呼　　　　　　　称
 41
0.9
 72
1
 73
2
 11
142.7308776420361
 21
57.57563783486857
 31
0
  0
TEXT
  8
1
 62
2
 10
80.83087764203606
 20
55.57563783486857
 30
0
 40
4
  1
品　　名
 41
0.9
 72
1
 73
2
 11
95.23087764203606
 21
57.57563783486857
 31
0
  0
TEXT
  8
1
 62
2
 10
73.03087764203606
 20
55.57563783486857
 30
0
 40
4
  1
数量
 41
0.9
 72
1
 73
2
 11
80.23087764203606
 21
57.57563783486857
 31
0
  0
TEXT
  8
1
 62
2
 10
76.63087764203607
 20
27.57563783486857
 30
0
 40
4
  1
１
 41
0.9
 72
1
 73
2
 11
80.23087764203606
 21
29.57563783486857
 31
0
  0
TEXT
  8
1
 62
2
 10
88.03087764203606
 20
27.57563783486857
 30
0
 40
4
  1
キー
 41
0.9
 72
1
 73
2
 11
95.23087764203606
 21
29.57563783486857
 31
0
  0
TEXT
  8
1
 62
2
 10
107.2308776420361
 20
27.57563783486857
 30
0
 40
4
  1
　　　　　　　　　　　　４×４×２５
 41
0.765
 73
2
 11
107.2308776420361
 21
29.57563783486857
 31
0
  0
TEXT
  8
1
 62
2
 10
175.8308776420361
 20
27.57563783486857
 30
0
 40
4
  1
Ｓ４５Ｃ
 41
0.9
 72
1
 73
2
 11
190.2308776420361
 21
29.57563783486857
 31
0
  0
TEXT
  8
1
 62
2
 10
201.0923622230465
 20
41.57563783486857
 30
0
 40
4
  1
Ｅｐ－Ｆｅ／Ｚｎ　８／ＣＭ　２
 41
0.468
 73
2
 11
201.0923622230465
 21
43.57563783486857
 31
0
  0
TEXT
  8
1
 62
2
 10
201.0923622230465
 20
34.57563783486857
 30
0
 40
4
  1
Ｅｐ－Ｆｅ／Ｚｎ　８／ＣＭ　２
 41
0.468
 73
2
 11
201.0923622230465
 21
36.57563783486857
 31
0
  0
TEXT
  8
1
 62
2
 10
243.2619984902191
 20
41.07563783486857
 30
0
 40
4
  1
黒
 41
0.8100000000000001
 73
2
 11
243.2619984902191
 21
43.07563783486857
 31
0
  0
TEXT
  8
1
 62
2
 10
243.2619984902191
 20
34.07563783486857
 30
0
 40
4
  1
黒
 41
0.8100000000000001
 73
2
 11
243.2619984902191
 21
36.07563783486857
 31
0
  0
TEXT
  8
1
 62
2
 10
174.0308776420361
 20
41.57563783486857
 30
0
 40
4
  1
ＳＷＲＭ１２
 41
0.675
 72
1
 73
2
 11
190.2308776420361
 21
43.57563783486857
 31
0
  0
ENDSEC
  0
EOF
