  0
SECTION
  2
HEADER
  9
$ACADVER
  1
AC1009
  9
$INSBASE
 10
0
 20
0
  9
$EXTMIN
 10
452.6147207955261
 20
284.7645731056298
  9
$EXTMAX
 10
705.0147207955258
 20
499.4086914991113
  9
$LIMMIN
 10
452.6147207955261
 20
284.7645731056298
  9
$LIMMAX
 10
705.0147207955258
 20
499.4086914991113
  9
$VIEWCTR
 10
10
 20
10
  9
$VIEWSIZE
 40
10
  9
$SNAPMODE
 70
0
  9
$SNAPUNIT
 10
1
 20
1
  9
$SNAPBASE
 10
0
 20
0
  9
$SNAPANG
 50
0
  9
$SNAPSTYLE
 70
0
  9
$SNAPISOPAIR
 70
0
  9
$GRIDMODE
 70
0
  9
$GRIDUNIT
 10
0
 20
0
  9
$ORTHOMODE
 70
0
  9
$REGENMODE
 70
1
  9
$FILLMODE
 70
1
  9
$QTEXTMODE
 70
0
  9
$DRAGMODE
 70
2
  9
$LTSCALE
 40
1
  9
$OSMODE
 70
0
  9
$ATTMODE
 70
1
  9
$TEXTSIZE
 40
3.5
  9
$TRACEWID
 40
0.5
  9
$TEXTSTYLE
  7
STANDARD
  9
$CLAYER
  8
0
  9
$CELTYPE
  6
BYLAYER
  9
$CECOLOR
 62
256
  9
$DIMSCALE
 40
1
  9
$DIMASZ
 40
0.18
  9
$DIMEXO
 40
0.0625
  9
$DIMDLI
 40
0.38
  9
$DIMRND
 40
0
  9
$DIMDLE
 40
0
  9
$DIMEXE
 40
0.18
  9
$DIMTP
 40
0
  9
$DIMTM
 40
0
  9
$DIMTXT
 40
0.18
  9
$DIMCEN
 40
0.09
  9
$DIMTSZ
 40
0
  9
$DIMTOL
 70
0
  9
$DIMLIM
 70
0
  9
$DIMTIH
 70
1
  9
$DIMTOH
 70
1
  9
$DIMSE1
 70
0
  9
$DIMSE2
 70
0
  9
$DIMTAD
 70
0
  9
$DIMZIN
 70
0
  9
$DIMBLK
  1

  9
$DIMASO
 70
1
  9
$DIMSHO
 70
1
  9
$DIMPOST
  1

  9
$DIMAPOST
  1

  9
$DIMALT
 70
0
  9
$DIMALTD
 70
2
  9
$DIMALTF
 40
25.4
  9
$DIMLFAC
 40
1
  9
$DIMTOFL
 70
0
  9
$DIMTVP
 40
0
  9
$DIMTIX
 70
0
  9
$DIMSOXD
 70
0
  9
$DIMSAH
 70
0
  9
$DIMBLK1
  1

  9
$DIMBLK2
  1

  9
$DIMSTYLE
  2
*UNNAMED
  9
$DIMCLRD
 70
0
  9
$DIMCLRE
 70
0
  9
$DIMCLRT
 70
0
  9
$DIMTFAC
 40
1
  9
$DIMGAP
 40
0.09
  9
$LUNITS
 70
2
  9
$LUPREC
 70
4
  9
$AXISMODE
 70
0
  9
$AXISUNIT
 10
0
 20
0
  9
$SKETCHINC
 40
0.1
  9
$FILLETRAD
 40
2
  9
$AUNITS
 70
0
  9
$AUPREC
 70
0
  9
$MENU
  1
ACAD
  9
$ELEVATION
 40
0
  9
$THICKNESS
 40
0
  9
$VIEWDIR
 10
0
 20
0
 30
1
  9
$LIMCHECK
 70
0
  9
$BLIPMODE
 70
1
  9
$CHAMFERA
 40
0
  9
$CHAMFERB
 40
0
  9
$FASTZOOM
 70
1
  9
$SKPOLY
 70
0
  9
$ANGBASE
 50
0
  9
$ANGDIR
 70
0
  9
$PDMODE
 70
0
  9
$PDSIZE
 40
0
  9
$PLINEWID
 40
0
  9
$COORDS
 70
2
  0
ENDSEC
  0
SECTION
  2
TABLES
  0
TABLE
  2
DIMSTYLE
 70
0
  0
ENDTAB
  0
TABLE
  2
LTYPE
 70
9
  0
LTYPE
  2
CONTINUOUS
 70
64
  3
Solid line
 72
65
 73
0
 40
0
  0
LTYPE
  2
BORDER
 70
64
  3
__ __ . __ __ .
 72
65
 73
6
 40
11.6236842105263
 49
3.321052631578943
 49
-1.660526315789472
 49
3.321052631578943
 49
-1.660526315789472
 49
0
 49
-1.660526315789472
  0
LTYPE
  2
CENTER
 70
64
  3
____ _ ____ _
 72
65
 73
4
 40
13.28421052631577
 49
8.302631578947358
 49
-1.660526315789472
 49
1.660526315789472
 49
-1.660526315789472
  0
LTYPE
  2
DASHDOT
 70
64
  3
__ . __ . __ .
 72
65
 73
4
 40
6.642105263157887
 49
3.321052631578943
 49
-1.660526315789472
 49
0
 49
-1.660526315789472
  0
LTYPE
  2
DASHED
 70
64
  3
__ __ __ __ __
 72
65
 73
2
 40
4.981578947368415
 49
3.321052631578943
 49
-1.660526315789472
  0
LTYPE
  2
DIVIDE
 70
64
  3
__ . . __ . . 
 72
65
 73
6
 40
8.302631578947358
 49
3.321052631578943
 49
-1.660526315789472
 49
0
 49
-1.660526315789472
 49
0
 49
-1.660526315789472
  0
LTYPE
  2
DOT
 70
64
  3
..............
 72
65
 73
4
 40
3.321052631578943
 49
0
 49
-1.660526315789472
 49
0
 49
-1.660526315789472
  0
LTYPE
  2
HIDDEN
 70
64
  3
_ _ _ _ _ _ _
 72
65
 73
2
 40
2.490789473684207
 49
1.660526315789472
 49
-0.8302631578947358
  0
LTYPE
  2
PHANTOM
 70
64
  3
_____ _ _ _____ _ _ 
 72
65
 73
6
 40
16.60526315789472
 49
8.302631578947358
 49
-1.660526315789472
 49
1.660526315789472
 49
-1.660526315789472
 49
1.660526315789472
 49
-1.660526315789472
  0
ENDTAB
  0
TABLE
  2
LAYER
 70
3
  0
LAYER
  2
1
 70
0
 62
7
  6
CONTINUOUS
  0
LAYER
  2
0
 70
0
 62
7
  6
CONTINUOUS
  0
ENDTAB
  0
TABLE
  2
STYLE
 70
4
  0
STYLE
  2
STANDARD
 70
0
 40
0
 41
1
 50
0
 71
0
 42
3.5
  3
txt
  4

  0
STYLE
  2
SIMPLEX
 70
0
 40
0
 41
1
 50
0
 71
0
 42
3.5
  3
simplex
  4

  0
STYLE
  2
COMPLEX
 70
0
 40
0
 41
1
 50
0
 71
0
 42
3.5
  3
complex
  4

  0
STYLE
  2
ITALIC
 70
0
 40
0
 41
1
 50
0
 71
0
 42
3.5
  3
italic
  4

  0
ENDTAB
  0
TABLE
  2
VIEW
 70
0
  0
ENDTAB
  0
ENDSEC
  0
SECTION
  2
BLOCKS
  0
BLOCK
  8
0
  2
____M3_________1
 70
0
 10
493.194720795526
 20
433.2645731056298
 30
0
  0
ENDBLK
  8
0
  0
BLOCK
  8
0
  2
____M3_________2
 70
0
 10
513.114720795526
 20
398.7645731056298
 30
0
  0
ENDBLK
  8
0
  0
BLOCK
  8
0
  2
____M3_________3
 70
0
 10
533.034720795526
 20
433.2645731056298
 30
0
  0
ENDBLK
  8
0
  0
BLOCK
  8
0
  2
AS42276-01_DB
 70
0
 10
433.1878792213585
 20
584.1253198261137
 30
0
  0
ENDBLK
  8
0
  0
ENDSEC
  0
SECTION
  2
ENTITIES
  0
LINE
  8
1
 62
2
 10
452.6147207955261
 20
284.7645731056298
 30
0
 11
624.246720795526
 21
284.7645731056298
 31
0
  0
LINE
  8
1
 62
2
 10
462.6147207955261
 20
319.7645731056298
 30
0
 11
462.6147207955261
 21
284.7645731056298
 31
0
  0
LINE
  8
1
 62
2
 10
482.6147207955261
 20
319.7645731056298
 30
0
 11
482.6147207955261
 21
284.7645731056298
 31
0
  0
LINE
  8
1
 62
2
 10
557.6147207955261
 20
319.7645731056298
 30
0
 11
557.6147207955261
 21
284.7645731056298
 31
0
  0
LINE
  8
1
 62
2
 10
577.6147207955262
 20
319.7645731056298
 30
0
 11
577.6147207955262
 21
284.7645731056298
 31
0
  0
LINE
  8
1
 62
2
 10
452.6147207955261
 20
326.7645731056298
 30
0
 11
452.6147207955261
 21
284.7645731056298
 31
0
  0
LINE
  8
1
 62
2
 10
624.246720795526
 20
326.7645731056298
 30
0
 11
624.246720795526
 21
284.7645731056298
 31
0
  0
LINE
  8
1
 62
2
 10
452.6147207955261
 20
291.7645731056298
 30
0
 11
624.246720795526
 21
291.7645731056298
 31
0
  0
LINE
  8
1
 62
2
 10
452.6147207955261
 20
298.7645731056298
 30
0
 11
624.246720795526
 21
298.7645731056298
 31
0
  0
LINE
  8
1
 62
2
 10
452.6147207955261
 20
305.7645731056298
 30
0
 11
624.246720795526
 21
305.7645731056298
 31
0
  0
LINE
  8
1
 62
2
 10
452.6147207955261
 20
312.7645731056298
 30
0
 11
624.246720795526
 21
312.7645731056298
 31
0
  0
LINE
  8
1
 62
2
 10
452.6147207955261
 20
319.7645731056298
 30
0
 11
624.246720795526
 21
319.7645731056298
 31
0
  0
LINE
  8
1
 62
2
 10
452.6147207955261
 20
326.7645731056298
 30
0
 11
624.246720795526
 21
326.7645731056298
 31
0
  0
LINE
  8
1
 62
3
 10
532.3049876060535
 20
434.5175653131803
 30
0
 11
532.9160269772061
 21
433.9065259420277
 31
0
  0
LINE
  8
1
 62
3
 10
533.7644539849985
 20
434.5175653131803
 30
0
 11
533.1534146138458
 21
433.9065259420277
 31
0
  0
LINE
  8
1
 62
3
 10
531.7817285879754
 20
432.5348399161574
 30
0
 11
532.3927679591282
 21
433.1458792873099
 31
0
  0
LINE
  8
1
 62
3
 10
531.7817285879754
 20
433.9943062951023
 30
0
 11
532.3927679591282
 21
433.3832669239497
 31
0
  0
LINE
  8
1
 62
3
 10
533.1534146138458
 20
432.6226202692319
 30
0
 11
533.1595495636658
 21
432.6164853194121
 31
0
  0
LINE
  8
1
 62
3
 10
533.1595495636658
 20
432.6164853194121
 30
0
 11
533.7644539849985
 21
432.0115808980793
 31
0
  0
LINE
  8
1
 62
3
 10
532.3049876060535
 20
432.0115808980793
 30
0
 11
532.9160269772061
 21
432.6226202692319
 31
0
  0
LINE
  8
1
 62
3
 10
534.2877130030765
 20
433.9943062951023
 30
0
 11
533.6766736319239
 21
433.3832669239497
 31
0
  0
LINE
  8
1
 62
3
 10
534.2877130030765
 20
432.5348399161574
 30
0
 11
533.6766736319239
 21
433.1458792873099
 31
0
  0
LINE
  8
1
 62
3
 10
514.3677130030765
 20
398.0348399161574
 30
0
 11
513.756673631924
 21
398.64587928731
 31
0
  0
LINE
  8
1
 62
3
 10
514.3677130030765
 20
399.4943062951023
 30
0
 11
513.756673631924
 21
398.8832669239497
 31
0
  0
LINE
  8
1
 62
3
 10
512.3849876060536
 20
397.5115808980793
 30
0
 11
512.9960269772062
 21
398.1226202692319
 31
0
  0
LINE
  8
1
 62
3
 10
513.2395495636658
 20
398.116485319412
 30
0
 11
513.8444539849985
 21
397.5115808980793
 31
0
  0
LINE
  8
1
 62
3
 10
513.2334146138459
 20
398.1226202692319
 30
0
 11
513.2395495636658
 21
398.116485319412
 31
0
  0
LINE
  8
1
 62
3
 10
511.8617285879755
 20
399.4943062951023
 30
0
 11
512.4727679591281
 21
398.8832669239497
 31
0
  0
LINE
  8
1
 62
3
 10
511.8617285879755
 20
398.0348399161574
 30
0
 11
512.4727679591281
 21
398.64587928731
 31
0
  0
LINE
  8
1
 62
3
 10
513.8444539849985
 20
400.0175653131803
 30
0
 11
513.2334146138459
 21
399.4065259420277
 31
0
  0
LINE
  8
1
 62
3
 10
512.3849876060536
 20
400.0175653131803
 30
0
 11
512.9960269772062
 21
399.4065259420277
 31
0
  0
LINE
  8
1
 62
3
 10
492.4649876060535
 20
434.5175653131803
 30
0
 11
493.0760269772061
 21
433.9065259420277
 31
0
  0
LINE
  8
1
 62
3
 10
493.9244539849985
 20
434.5175653131803
 30
0
 11
493.3134146138459
 21
433.9065259420277
 31
0
  0
LINE
  8
1
 62
3
 10
491.9417285879755
 20
432.5348399161574
 30
0
 11
492.5527679591281
 21
433.1458792873099
 31
0
  0
LINE
  8
1
 62
3
 10
491.9417285879755
 20
433.9943062951023
 30
0
 11
492.5527679591281
 21
433.3832669239497
 31
0
  0
LINE
  8
1
 62
3
 10
493.3134146138459
 20
432.6226202692319
 30
0
 11
493.3195495636658
 21
432.6164853194121
 31
0
  0
LINE
  8
1
 62
3
 10
493.3195495636658
 20
432.6164853194121
 30
0
 11
493.9244539849984
 21
432.0115808980793
 31
0
  0
LINE
  8
1
 62
3
 10
492.4649876060535
 20
432.0115808980793
 30
0
 11
493.0760269772062
 21
432.6226202692319
 31
0
  0
LINE
  8
1
 62
3
 10
494.4477130030765
 20
433.9943062951023
 30
0
 11
493.8366736319239
 21
433.3832669239497
 31
0
  0
LINE
  8
1
 62
3
 10
494.4477130030765
 20
432.5348399161574
 30
0
 11
493.8366736319239
 21
433.1458792873099
 31
0
  0
LINE
  8
1
 62
3
 10
644.3998856026618
 20
435.7645731056304
 30
0
 11
655.0147207955259
 21
435.7645731056298
 31
0
  0
LINE
  8
1
 62
1
 10
513.114720795526
 20
421.7645731056298
 30
0
 11
478.714720795526
 21
421.7645731056298
 31
0
  0
LINE
  8
1
 62
1
 10
518.814720795526
 20
398.7645731056298
 30
0
 11
507.414720795526
 21
398.7645731056298
 31
0
  0
LINE
  8
1
 62
1
 10
493.194720795526
 20
427.5645731056299
 30
0
 11
493.194720795526
 21
438.9645731056298
 31
0
  0
LINE
  8
1
 62
1
 10
498.8947207955259
 20
433.2645731056298
 30
0
 11
487.494720795526
 21
433.2645731056298
 31
0
  0
LINE
  8
1
 62
1
 10
533.034720795526
 20
438.9645731056298
 30
0
 11
533.034720795526
 21
427.5645731056299
 31
0
  0
LINE
  8
1
 62
1
 10
538.734720795526
 20
433.2645731056298
 30
0
 11
527.334720795526
 21
433.2645731056298
 31
0
  0
LINE
  8
1
 62
1
 10
528.114720795526
 20
431.7645731056298
 30
0
 11
498.114720795526
 21
431.7645731056298
 31
0
  0
LINE
  8
1
 62
1
 10
480.6147207955261
 20
397.0145731056298
 30
0
 11
496.1147207955261
 21
397.0145731056298
 31
0
  0
LINE
  8
1
 62
1
 10
488.3647207955261
 20
389.2645731056298
 30
0
 11
488.3647207955261
 21
404.7645731056298
 31
0
  0
LINE
  8
1
 62
1
 10
537.864720795526
 20
404.7645731056298
 30
0
 11
537.864720795526
 21
389.2645731056298
 31
0
  0
LINE
  8
1
 62
1
 10
530.114720795526
 20
397.0145731056298
 30
0
 11
545.614720795526
 21
397.0145731056298
 31
0
  0
LINE
  8
1
 62
1
 10
488.3647207955261
 20
438.7645731056298
 30
0
 11
488.3647207955261
 21
454.2645731056298
 31
0
  0
LINE
  8
1
 62
1
 10
496.1147207955261
 20
446.5145731056298
 30
0
 11
480.6147207955261
 21
446.5145731056298
 31
0
  0
LINE
  8
1
 62
1
 10
545.614720795526
 20
446.5145731056298
 30
0
 11
530.114720795526
 21
446.5145731056298
 31
0
  0
LINE
  8
1
 62
1
 10
537.864720795526
 20
454.2645731056298
 30
0
 11
537.864720795526
 21
438.7645731056298
 31
0
  0
LINE
  8
1
 62
1
 10
513.114720795526
 20
456.1645731056298
 30
0
 11
513.114720795526
 21
387.3645731056298
 31
0
  0
LINE
  8
1
 62
1
 10
547.5147207955259
 20
421.7645731056298
 30
0
 11
513.114720795526
 21
421.7645731056298
 31
0
  0
LINE
  8
1
 62
1
 10
705.0147207955258
 20
421.7645731056298
 30
0
 11
650.0147207955259
 21
421.7645731056298
 31
0
  0
LINE
  8
1
 62
3
 10
699.0147207955258
 20
391.2645731056298
 30
0
 11
662.5027392804224
 21
392.2645731056298
 31
0
  0
LINE
  8
1
 62
3
 10
655.0147207955259
 20
441.7645731056298
 30
0
 11
658.0147207955259
 21
441.7645731056298
 31
0
  0
LINE
  8
1
 62
3
 10
658.0147207955259
 20
402.7670990415641
 30
0
 11
658.0147207955259
 21
392.2645731056298
 31
0
  0
LINE
  8
1
 62
3
 10
658.0147207955259
 20
392.2645731056298
 30
0
 11
662.5027392804224
 21
392.2645731056298
 31
0
  0
LINE
  8
1
 62
3
 10
658.0147207955259
 20
451.2645731056298
 30
0
 11
658.0147207955259
 21
440.7645731056298
 31
0
  0
LINE
  8
1
 62
3
 10
700.0147207955258
 20
451.2645731056298
 30
0
 11
699.0147207955258
 21
451.2645731056298
 31
0
  0
LINE
  8
1
 62
3
 10
655.0147207955259
 20
441.7645731056298
 30
0
 11
655.0147207955259
 21
421.7645731056298
 31
0
  0
LINE
  8
1
 62
3
 10
700.0147207955258
 20
451.2645731056298
 30
0
 11
700.0147207955258
 21
392.2645731056298
 31
0
  0
LINE
  8
1
 62
1
 10
669.0147207955259
 20
431.7645731056298
 30
0
 11
621.0147207955261
 21
431.7645731056298
 31
0
  0
LINE
  8
1
 62
1
 10
666.0147207955259
 20
397.0145731056298
 30
0
 11
655.5147207955259
 21
397.0145731056299
 31
0
  0
LINE
  8
1
 62
3
 10
543.614720795526
 20
446.5145731056298
 30
0
 11
543.614720795526
 21
397.0196238683584
 31
0
  0
LINE
  8
1
 62
3
 10
537.864720795526
 20
391.2645731056298
 30
0
 11
488.3647207955261
 21
391.2645731056298
 31
0
  0
LINE
  8
1
 62
3
 10
482.614720795526
 20
397.0145731056298
 30
0
 11
482.614720795526
 21
446.5145731056298
 31
0
  0
LINE
  8
1
 62
3
 10
488.3647207955261
 20
452.2645731056298
 30
0
 11
537.864720795526
 21
452.2645731056298
 31
0
  0
LINE
  8
1
 62
3
 10
700.0147207955258
 20
392.2645731056298
 30
0
 11
699.0147207955258
 21
392.2645731056298
 31
0
  0
LINE
  8
1
 62
3
 10
659.0147207955259
 20
445.0145731056298
 30
0
 11
659.0147207955259
 21
398.5145731056298
 31
0
  0
LINE
  8
1
 62
3
 10
699.0147207955258
 20
452.2645731056298
 30
0
 11
699.0147207955258
 21
391.2645731056298
 31
0
  0
LINE
  8
1
 62
3
 10
626.0147207955262
 20
427.7645731056298
 30
0
 11
655.0147207955259
 21
427.7645731056298
 31
0
  0
LINE
  8
1
 62
1
 10
666.0147207955259
 20
446.5145731056298
 30
0
 11
655.5147207955259
 21
446.5145731056298
 31
0
  0
LINE
  8
1
 62
3
 10
662.5027392804224
 20
451.2645731056298
 30
0
 11
699.0147207955258
 21
452.2645731056298
 31
0
  0
LINE
  8
1
 62
3
 10
662.5027392804224
 20
451.2645731056298
 30
0
 11
699.0147207955258
 21
452.2645731056298
 31
0
  0
LINE
  8
1
 62
3
 10
662.5027392804224
 20
451.2645731056298
 30
0
 11
658.0147207955259
 21
451.2645731056298
 31
0
  0
LINE
  8
1
 62
3
 10
658.0147207955259
 20
440.7645731056298
 30
0
 11
659.0147207955259
 21
440.7645731056298
 31
0
  0
LINE
  8
1
 62
3
 10
655.0147207955259
 20
421.7645731056298
 30
0
 11
659.0147207955259
 21
421.7645731056298
 31
0
  0
LINE
  8
1
 62
3
 10
658.0147207955259
 20
402.7670990415641
 30
0
 11
659.0147207955259
 21
402.7670990415641
 31
0
  0
LINE
  8
1
 62
3
 10
626.0147207955262
 20
434.7645731056298
 30
0
 11
626.0147207955262
 21
427.7645731056298
 31
0
  0
LINE
  8
1
 62
3
 10
626.0147207955262
 20
434.7645731056298
 30
0
 11
639.0147207955261
 21
434.7645731056298
 31
0
  0
LINE
  8
1
 62
3
 10
510.4689694844614
 20
434.7645731056298
 30
0
 11
515.7604721065906
 21
434.7645731056298
 31
0
  0
ARC
  8
1
 62
3
 10
533.034720795526
 20
433.2645731056298
 30
0
 40
1.450000000000019
 50
30.21619828525336
 51
59.78380171475052
  0
ARC
  8
1
 62
3
 10
533.034720795526
 20
433.2645731056298
 30
0
 40
0.6349999999999911
 50
82.54155094370304
 51
97.45844905630712
  0
ARC
  8
1
 62
3
 10
533.034720795526
 20
433.2645731056298
 30
0
 40
1.450000000000019
 50
120.2161982852534
 51
149.7838017147489
  0
ARC
  8
1
 62
3
 10
533.034720795526
 20
433.2645731056298
 30
0
 40
0.6350000000000132
 50
172.5415509436878
 51
187.4584490563071
  0
ARC
  8
1
 62
3
 10
533.034720795526
 20
433.2645731056298
 30
0
 40
1.450000000000032
 50
210.2161982852453
 51
239.7838017147467
  0
ARC
  8
1
 62
3
 10
533.034720795526
 20
433.2645731056298
 30
0
 40
0.6349999999998367
 50
262.5415509436909
 51
277.458449056299
  0
ARC
  8
1
 62
3
 10
533.034720795526
 20
433.2645731056298
 30
0
 40
1.449999999999962
 50
300.2161982852495
 51
329.7838017147524
  0
ARC
  8
1
 62
3
 10
533.034720795526
 20
433.2645731056298
 30
0
 40
0.6349999999998931
 50
352.5415509436915
 51
7.458449056313543
  0
ARC
  8
1
 62
3
 10
513.114720795526
 20
398.7645731056298
 30
0
 40
0.6349999999999911
 50
352.5415509437031
 51
7.458449056312213
  0
ARC
  8
1
 62
3
 10
513.114720795526
 20
398.7645731056298
 30
0
 40
1.450000000000019
 50
300.2161982852534
 51
329.7838017147524
  0
ARC
  8
1
 62
3
 10
513.114720795526
 20
398.7645731056298
 30
0
 40
0.6349999999999494
 50
262.5415509436922
 51
277.4584490563179
  0
ARC
  8
1
 62
3
 10
513.114720795526
 20
398.7645731056298
 30
0
 40
1.449999999999884
 50
210.2161982852487
 51
239.7838017147544
  0
ARC
  8
1
 62
3
 10
513.114720795526
 20
398.7645731056298
 30
0
 40
0.6349999999999005
 50
172.5415509436865
 51
187.4584490562983
  0
ARC
  8
1
 62
3
 10
513.114720795526
 20
398.7645731056298
 30
0
 40
1.449999999999905
 50
120.2161982852456
 51
149.7838017147455
  0
ARC
  8
1
 62
3
 10
513.114720795526
 20
398.7645731056298
 30
0
 40
0.6350000000000206
 50
82.54155094368271
 51
97.45844905630712
  0
ARC
  8
1
 62
3
 10
513.114720795526
 20
398.7645731056298
 30
0
 40
1.450000000000019
 50
30.21619828525336
 51
59.78380171474664
  0
ARC
  8
1
 62
3
 10
493.194720795526
 20
433.2645731056298
 30
0
 40
1.450000000000019
 50
30.21619828525336
 51
59.78380171474858
  0
ARC
  8
1
 62
3
 10
493.194720795526
 20
433.2645731056298
 30
0
 40
0.6350000000000058
 50
82.54155094369287
 51
97.45844905630712
  0
ARC
  8
1
 62
3
 10
493.194720795526
 20
433.2645731056298
 30
0
 40
1.44999999999999
 50
120.2161982852514
 51
149.7838017147467
  0
ARC
  8
1
 62
3
 10
493.194720795526
 20
433.2645731056298
 30
0
 40
0.6349999999999568
 50
172.5415509436871
 51
187.4584490563078
  0
ARC
  8
1
 62
3
 10
493.194720795526
 20
433.2645731056298
 30
0
 40
1.449999999999934
 50
210.2161982852475
 51
239.7838017147486
  0
ARC
  8
1
 62
3
 10
493.194720795526
 20
433.2645731056298
 30
0
 40
0.6349999999998367
 50
262.5415509436909
 51
277.4584490563091
  0
ARC
  8
1
 62
3
 10
493.194720795526
 20
433.2645731056298
 30
0
 40
1.449999999999962
 50
300.2161982852495
 51
329.7838017147524
  0
ARC
  8
1
 62
3
 10
493.194720795526
 20
433.2645731056298
 30
0
 40
0.6349999999999494
 50
352.5415509436922
 51
7.458449056312879
  0
ARC
  8
1
 62
3
 10
639.0147207955261
 20
449.7645731056298
 30
0
 40
15
 50
270
 51
291.0394697813226
  0
CIRCLE
  8
1
 62
3
 10
533.034720795526
 20
433.2645731056298
 30
0
 40
2.799999999999841
  0
CIRCLE
  8
1
 62
3
 10
513.114720795526
 20
398.7645731056298
 30
0
 40
2.800000000000068
  0
CIRCLE
  8
1
 62
3
 10
493.194720795526
 20
433.2645731056298
 30
0
 40
2.800000000000011
  0
CIRCLE
  8
1
 62
3
 10
513.1188421728998
 20
398.7960544770825
 30
0
 40
3.514999999999986
  0
CIRCLE
  8
1
 62
3
 10
493.1988421728998
 20
433.2960544770825
 30
0
 40
3.514999999999873
  0
CIRCLE
  8
1
 62
3
 10
533.0388421728997
 20
433.2960544770825
 30
0
 40
3.5150000000001
  0
CIRCLE
  8
1
 62
3
 10
513.114720795526
 20
431.7645731056298
 30
0
 40
10
  0
CIRCLE
  8
1
 62
3
 10
488.364720795526
 20
397.0145731056298
 30
0
 40
2.250000000000114
  0
CIRCLE
  8
1
 62
3
 10
537.864720795526
 20
397.0145731056298
 30
0
 40
2.25
  0
CIRCLE
  8
1
 62
3
 10
488.364720795526
 20
446.5145731056298
 30
0
 40
2.25
  0
CIRCLE
  8
1
 62
3
 10
537.864720795526
 20
446.5145731056298
 30
0
 40
2.25
  0
CIRCLE
  8
1
 62
3
 10
537.864720795526
 20
446.5145731056298
 30
0
 40
5.75
  0
CIRCLE
  8
1
 62
3
 10
488.364720795526
 20
446.5145731056298
 30
0
 40
5.75
  0
CIRCLE
  8
1
 62
3
 10
488.364720795526
 20
397.0145731056298
 30
0
 40
5.75
  0
CIRCLE
  8
1
 62
3
 10
537.864720795526
 20
397.0170984869945
 30
0
 40
5.750000554569628
  0
CIRCLE
  8
1
 62
3
 10
513.114720795526
 20
431.7645731056298
 30
0
 40
4
  0
CIRCLE
  8
1
 62
3
 10
513.114720795526
 20
431.7645731056298
 30
0
 40
4.75
  0
ARC
  8
1
 62
3
 10
532.9466682710576
 20
433.9371672358791
 30
0
 40
0.04333333333331332
 50
224.9999999999468
 51
277.4584490563352
  0
ARC
  8
1
 62
3
 10
533.1227733199944
 20
433.9371672358791
 30
0
 40
0.04333333333331635
 50
262.5415509436648
 51
315.0000000000532
  0
ARC
  8
1
 62
3
 10
532.3621266652766
 20
433.1765205811613
 30
0
 40
0.04333333333339371
 50
315.0000000001595
 51
7.458449056315692
  0
ARC
  8
1
 62
3
 10
532.3621266652766
 20
433.3526256300982
 30
0
 40
0.04333333333341431
 50
352.5415509438334
 51
44.99999999994686
  0
ARC
  8
1
 62
3
 10
533.1227733199944
 20
432.5919789753805
 30
0
 40
0.04333333333331332
 50
44.99999999994686
 51
97.45844905631569
  0
ARC
  8
1
 62
3
 10
532.9466682710576
 20
432.5919789753805
 30
0
 40
0.04333333333342907
 50
82.54155094368431
 51
135.0000000000532
  0
ARC
  8
1
 62
3
 10
533.7073149257753
 20
433.3526256300982
 30
0
 40
0.04333333333339371
 50
134.9999999999469
 51
187.4584490561666
  0
ARC
  8
1
 62
3
 10
533.7073149257753
 20
433.1765205811613
 30
0
 40
0.04333333333342907
 50
172.5415509436843
 51
224.9999999999468
  0
ARC
  8
1
 62
3
 10
513.7873149257753
 20
398.6765205811614
 30
0
 40
0.04333333333331635
 50
172.5415509436648
 51
225.0000000001063
  0
ARC
  8
1
 62
3
 10
513.7873149257753
 20
398.8526256300983
 30
0
 40
0.04333333333323293
 50
134.9999999999469
 51
187.4584490563352
  0
ARC
  8
1
 62
3
 10
513.0266682710576
 20
398.0919789753805
 30
0
 40
0.04333333333330159
 50
82.54155094381385
 51
135.0000000000532
  0
ARC
  8
1
 62
3
 10
513.2027733199946
 20
398.0919789753805
 30
0
 40
0.04333333333323293
 50
45.00000000005314
 51
97.4584490563352
  0
ARC
  8
1
 62
3
 10
512.4421266652768
 20
398.8526256300983
 30
0
 40
0.04333333333331635
 50
352.5415509436648
 51
45.00000000005314
  0
ARC
  8
1
 62
3
 10
512.4421266652768
 20
398.6765205811614
 30
0
 40
0.04333333333327312
 50
314.9999999998937
 51
7.458449056335204
  0
ARC
  8
1
 62
3
 10
513.2027733199946
 20
399.4371672358791
 30
0
 40
0.04333333333331635
 50
262.5415509436648
 51
314.9999999999469
  0
ARC
  8
1
 62
3
 10
513.0266682710576
 20
399.4371672358791
 30
0
 40
0.04333333333331332
 50
224.9999999999468
 51
277.4584490561862
  0
ARC
  8
1
 62
3
 10
493.1066682710575
 20
433.9371672358791
 30
0
 40
0.04333333333331332
 50
224.9999999999468
 51
277.4584490563352
  0
ARC
  8
1
 62
3
 10
493.2827733199944
 20
433.9371672358791
 30
0
 40
0.04333333333330897
 50
262.5415509437393
 51
315.0000000001063
  0
ARC
  8
1
 62
3
 10
492.5221266652767
 20
433.1765205811613
 30
0
 40
0.04333333333331332
 50
315.0000000000532
 51
7.458449056325448
  0
ARC
  8
1
 62
3
 10
492.5221266652767
 20
433.3526256300982
 30
0
 40
0.04333333333335795
 50
352.5415509438236
 51
45.00000000005314
  0
ARC
  8
1
 62
3
 10
493.2827733199944
 20
432.5919789753805
 30
0
 40
0.04333333333335351
 50
44.99999999989371
 51
97.45844905624116
  0
ARC
  8
1
 62
3
 10
493.1066682710575
 20
432.5919789753805
 30
0
 40
0.04333333333342907
 50
82.54155094368431
 51
134.9999999999469
  0
ARC
  8
1
 62
3
 10
493.8673149257753
 20
433.3526256300982
 30
0
 40
0.04333333333339371
 50
134.9999999999469
 51
187.4584490561764
  0
ARC
  8
1
 62
3
 10
493.8673149257753
 20
433.1765205811613
 30
0
 40
0.04333333333337271
 50
172.5415509436746
 51
224.9999999999468
  0
TEXT
  8
1
 62
2
 10
620.2778416437089
 20
306.7645731056298
 30
0
 40
4
  1
黒
 41
0.8100000000000001
 73
2
 11
620.2778416437089
 21
308.7645731056298
 31
0
  0
TEXT
  8
1
 62
2
 10
564.0147207955262
 20
293.2645731056298
 30
0
 40
4
  1
Ｓ
 41
0.9
 72
1
 73
2
 11
567.6147207955262
 21
295.2645731056298
 31
0
  0
TEXT
  8
1
 62
2
 10
484.6147207955261
 20
293.2645731056298
 30
0
 40
4
  1
バネ座金　　　　　　　　２号　４
 41
0.765
 73
2
 11
484.6147207955261
 21
295.2645731056298
 31
0
  0
TEXT
  8
1
 62
2
 10
484.6147207955261
 20
300.2645731056298
 30
0
 40
4
  1
六角ナット　　　　　　　Ｍ４
 41
0.765
 73
2
 11
484.6147207955261
 21
302.2645731056298
 31
0
  0
TEXT
  8
1
 62
2
 10
461.8147207955261
 20
293.2645731056298
 30
0
 40
4
  1
座　金
 41
0.9
 72
1
 73
2
 11
472.6147207955261
 21
295.2645731056298
 31
0
  0
TEXT
  8
1
 62
2
 10
461.8147207955261
 20
300.2645731056298
 30
0
 40
4
  1
ナット
 41
0.9
 72
1
 73
2
 11
472.6147207955261
 21
302.2645731056298
 31
0
  0
TEXT
  8
1
 62
2
 10
454.0147207955261
 20
293.2645731056298
 30
0
 40
4
  1
４
 41
0.9
 72
1
 73
2
 11
457.6147207955261
 21
295.2645731056298
 31
0
  0
TEXT
  8
1
 62
2
 10
454.0147207955261
 20
300.2645731056298
 30
0
 40
4
  1
４
 41
0.9
 72
1
 73
2
 11
457.6147207955261
 21
302.2645731056298
 31
0
  0
TEXT
  8
1
 62
2
 10
578.4762053765365
 20
307.2645731056298
 30
0
 40
4
  1
Ｅｐ－Ｆｅ／Ｚｎ　８／ＣＭ　２
 41
0.468
 73
2
 11
578.4762053765365
 21
309.2645731056298
 31
0
  0
TEXT
  8
1
 62
2
 10
551.4147207955261
 20
307.2645731056298
 30
0
 40
4
  1
ＳＷＲＭ１２
 41
0.675
 72
1
 73
2
 11
567.6147207955262
 21
309.2645731056298
 31
0
  0
TEXT
  8
1
 62
2
 10
484.6147207955261
 20
307.2645731056298
 30
0
 40
4
  1
十字穴付ナベ　小ネジ　　Ｍ４×６０
 41
0.765
 73
2
 11
484.6147207955261
 21
309.2645731056298
 31
0
  0
TEXT
  8
1
 62
2
 10
458.2147207955262
 20
307.2645731056298
 30
0
 40
4
  1
取付ネジ
 41
0.9
 72
1
 73
2
 11
472.6147207955261
 21
309.2645731056298
 31
0
  0
TEXT
  8
1
 62
2
 10
454.0147207955261
 20
307.2645731056298
 30
0
 40
4
  1
４
 41
0.9
 72
1
 73
2
 11
457.6147207955261
 21
309.2645731056298
 31
0
  0
TEXT
  8
1
 62
2
 10
508.4147207955262
 20
321.2645731056298
 30
0
 40
4
  1
付　　属　　品
 41
0.9
 72
1
 73
2
 11
533.6147207955262
 21
323.2645731056298
 31
0
  0
TEXT
  8
1
 62
2
 10
581.7147207955262
 20
314.2645731056298
 30
0
 40
4
  1
備　　考
 41
0.9
 72
1
 73
2
 11
596.1147207955262
 21
316.2645731056298
 31
0
  0
TEXT
  8
1
 62
2
 10
553.2147207955262
 20
314.2645731056298
 30
0
 40
4
  1
坑　　質
 41
0.9
 72
1
 73
2
 11
567.6147207955262
 21
316.2645731056298
 31
0
  0
TEXT
  8
1
 62
2
 10
487.7147207955262
 20
314.2645731056298
 30
0
 40
4
  1
呼　　　　　　　称
 41
0.9
 72
1
 73
2
 11
520.1147207955262
 21
316.2645731056298
 31
0
  0
TEXT
  8
1
 62
2
 10
458.2147207955262
 20
314.2645731056298
 30
0
 40
4
  1
品　　名
 41
0.9
 72
1
 73
2
 11
472.6147207955261
 21
316.2645731056298
 31
0
  0
TEXT
  8
1
 62
2
 10
450.4147207955261
 20
314.2645731056298
 30
0
 40
4
  1
数量
 41
0.9
 72
1
 73
2
 11
457.6147207955261
 21
316.2645731056298
 31
0
  0
TEXT
  8
1
 62
2
 10
578.4762053765365
 20
300.2645731056298
 30
0
 40
4
  1
Ｅｐ－Ｆｅ／Ｚｎ　８／ＣＭ　２
 41
0.468
 73
2
 11
578.4762053765365
 21
302.2645731056298
 31
0
  0
TEXT
  8
1
 62
2
 10
578.4762053765365
 20
293.2645731056298
 30
0
 40
4
  1
Ｅｐ－Ｆｅ／Ｚｎ　８／ＣＭ　２
 41
0.468
 73
2
 11
578.4762053765365
 21
295.2645731056298
 31
0
  0
TEXT
  8
1
 62
2
 10
620.2778416437089
 20
299.7645731056298
 30
0
 40
4
  1
黒
 41
0.8100000000000001
 73
2
 11
620.2778416437089
 21
301.7645731056298
 31
0
  0
TEXT
  8
1
 62
2
 10
620.2778416437089
 20
292.7645731056298
 30
0
 40
4
  1
黒
 41
0.8100000000000001
 73
2
 11
620.2778416437089
 21
294.7645731056298
 31
0
  0
TEXT
  8
1
 62
2
 10
551.4147207955261
 20
300.2645731056298
 30
0
 40
4
  1
ＳＷＲＭ１２
 41
0.675
 72
1
 73
2
 11
567.6147207955262
 21
302.2645731056298
 31
0
  0
TEXT
  8
1
 62
2
 10
579.0491161109774
 20
495.3461914991113
 30
0
 40
5
  1
6H25FBN-100
 41
0.8100000000000001
  0
TEXT
  8
1
 62
2
 10
579.0491161109774
 20
486.5961914991113
 30
0
 40
5
  1
6H30FBN-100
 41
0.8100000000000001
  0
TEXT
  8
1
 62
2
 10
579.0491161109774
 20
477.8461914991113
 30
0
 40
5
  1
6H50FBN-100
 41
0.8100000000000001
  0
INSERT
  8
0
  2
____M3_________1
 10
493.194720795526
 20
433.2645731056298
 30
0
  0
INSERT
  8
0
  2
____M3_________2
 10
513.114720795526
 20
398.7645731056298
 30
0
  0
INSERT
  8
0
  2
____M3_________3
 10
533.034720795526
 20
433.2645731056298
 30
0
  0
INSERT
  8
0
  2
AS42276-01_DB
 10
433.1878792213585
 20
584.1253198261137
 30
0
  0
ENDSEC
  0
EOF
