  0
SECTION
  2
HEADER
  9
$ACADVER
  1
AC1003
  9
$INSBASE
 10
0.000000
 20
0.000000
  9
$EXTMIN
 10
0.000000
 20
0.000000
  9
$EXTMAX
 10
594.000000
 20
420.000000
  9
$LIMMIN
 10
0.000000
 20
0.000000
  9
$LIMMAX
 10
594.000000
 20
420.000000
  9
$VIEWCTR
 10
297.000000
 20
210.000000
  9
$VIEWSIZE
 40
420.000000
  9
$PEXTMIN
 10
0.000000
 20
0.000000
 30
0.000000
  9
$PEXTMAX
 10
594.000000
 20
420.000000
 30
0.000000
  9
$SNAPMODE
 70
     0
  9
$SNAPUNIT
 10
1.000000
 20
1.000000
  9
$SNAPBASE
 10
0.000000
 20
0.000000
  9
$SNAPANG
 50
0.000000
  9
$SNAPISOPAIR
 70
     0
  9
$SNAPSTYLE
 70
     0
  9
$GRIDMODE
 70
     0
  9
$GRIDUNIT
 10
0.000000
 20
0.000000
  9
$ORTHOMODE
 70
     0
  9
$REGENMODE
 70
     1
  9
$FILLMODE
 70
     1
  9
$QTEXTMODE
 70
     0
  9
$DRAGMODE
 70
     2
  9
$LTSCALE
 40
0.250000
  9
$OSMODE
 70
     0
  9
$ATTMODE
 70
     1
  9
$TEXTSIZE
 40
0.200000
  9
$TRACEWID
 40
0.050000
  9
$TEXTSTYLE
  7
STANDARD
  9
$CLAYER
  8
0
  9
$CELTYPE
  6
BYLAYER
  9
$CECOLOR
 62
   256
  9
$DIMSCALE
 40
1.000000
  9
$DIMASZ
 40
1.000000
  9
$DIMEXO
 40
0.000000
  9
$DIMDLI
 40
0.500000
  9
$DIMRND
 40
0.000000
  9
$DIMDLE
 40
0.000000
  9
$DIMEXE
 40
0.000000
  9
$DIMTP
 40
0.000000
  9
$DIMTM
 40
0.000000
  9
$DIMTXT
 40
0.180000
  9
$DIMCEN
 40
0.000000
  9
$DIMTSZ
 40
0.000000
  9
$DIMTOL
 70
     0
  9
$DIMLIM
 70
     0
  9
$DIMTIH
 70
     1
  9
$DIMTOH
 70
     1
  9
$DIMSE1
 70
     0
  9
$DIMSE2
 70
     0
  9
$DIMTAD
 70
     0
  9
$DIMZIN
 70
     0
  9
$DIMBLK
  1

  9
$DIMASO
 70
     0
  9
$DIMSHO
 70
     0
  9
$DIMPOST
  1

  9
$DIMAPOST
  1

  9
$DIMALT
 70
     0
  9
$DIMALTD
 70
     0
  9
$DIMALTF
 40
25.400000
  9
$DIMLFAC
 40
1.000000
  9
$DIMTOFL
 70
     0
  9
$DIMTVP
 40
0.000000
  9
$DIMTIX
 70
     0
  9
$DIMSOXD
 70
     0
  9
$DIMSAH
 70
     0
  9
$DIMBLKL
  1

  9
$DIMBLKR
  1

  9
$LUNITS
 70
     2
  9
$LUPREC
 70
     2
  9
$AXISMODE
 70
     0
  9
$AXISUNIT
 10
1.000000
 20
1.000000
  9
$SKETCHINC
 40
0.000000
  9
$FILLETRAD
 40
0.000000
  9
$AUNITS
 70
     1
  9
$AUPREC
 70
     2
  9
$MENU
  1
ACAD
  9
$ELEVATION
 40
0.000000
  9
$THICKNESS
 40
0.000000
  9
$VIEWDIR
 10
0.000000
 20
0.000000
 30
1.000000
  9
$LIMCHECK
 70
     1
  9
$BLIPMODE
 70
     1
  9
$CHAMFERA
 40
0.000000
  9
$CHAMFERB
 40
0.000000
  9
$FASTZOOM
 70
     1
  9
$SKPOLY
 70
     0
  9
$TDCREATE
 40
0.000000
  9
$TDUPDATE
 40
0.000000
  9
$TDINDWG
 40
0.000000
  9
$TDUSRTIMER
 40
0.000000
  9
$USRTIMER
 70
     1
  9
$ANGBASE
 50
0.000000
  9
$ANGDIR
 70
     0
  9
$PDMODE
 70
     0
  9
$PDSIZE
 40
0.000000
  9
$PLINEWID
 40
0.000000
  9
$COORDS
 70
     2
  9
$USERI1
 70
     0
  9
$USERI2
 70
     0
  9
$USERI3
 70
     0
  9
$USERI4
 70
     0
  9
$USERI5
 70
     0
  9
$USERR1
 40
0.000000
  9
$USERR2
 40
0.000000
  9
$USERR3
 40
0.000000
  9
$USERR4
 40
0.000000
  9
$USERR5
 40
0.000000
  0
ENDSEC
  0
SECTION
  2
TABLES
  0
TABLE
  2
LTYPE
 70
     5
  0
LTYPE
  2
CONTINUOUS
 70
    64
  3
Solid line
 72
    65
 73
     0
 40
0.0
  0
LTYPE
  2
HIDDEN
 70
    64
  3
------------------------
 72
    65
 73
     2
 40
12.6
 49
8.4
 49
-4.2
  0
LTYPE
  2
DOT
 70
    64
  3
ÑÑÑÑÑÑÑÑÑÑÑÑÑÑÑÑÑÑÑÑÑÑÑÑ
 72
    65
 73
     2
 40
8.0
 49
6.0
 49
-2.0
  0
LTYPE
  2
DASHDOT
 70
    64
  3
--Ñ--Ñ--Ñ--Ñ--Ñ--Ñ--Ñ--
 72
    65
 73
     4
 40
50.5
 49
30.0
 49
-9.0
 49
2.5
 49
-9.0
  0
LTYPE
  2
DIVIDE
 70
    64
  3
--ÑÑ--ÑÑ--ÑÑ--ÑÑ--ÑÑ--
 72
    65
 73
     6
 40
58.0
 49
30.0
 49
-9.0
 49
2.5
 49
-5.0
 49
2.5
 49
-9.0
  0
ENDTAB
  0
TABLE
  2
LAYER
 70
1
  0
LAYER
  2
1
 70
64
 62
7
  6
CONTINUOUS
  0
ENDTAB
  0
TABLE
  2
STYLE
 70
     2
  0
STYLE
  2
STANDARD
 70
    64
 40
0.0
 41
1.0
 50
0.0
 71
     0
 42
0.2
  3
TXT
  4

  0
STYLE
  2
KANJI
 70
    64
 40
0.0
 41
1.0
 50
0.0
 71
     0
 42
0.2
  3
TXT
  4
BIGFONT
  0
ENDTAB
  0
TABLE
  2
VIEW
 70
     0
  0
ENDTAB
  0
ENDSEC
  0
SECTION
  2
BLOCKS
  0
ENDSEC
  0
SECTION
  2
ENTITIES
  0
LINE
  8
1
 62
7
  6
CONTINUOUS
 10
128.546657
 20
86.863263
 11
137.396541
 21
86.863263
  0
LINE
  8
1
 62
7
  6
DASHDOT
 10
70.637716
 20
188.349721
 11
68.150006
 21
188.349721
  0
LINE
  8
1
 62
7
  6
CONTINUOUS
 10
86.878053
 20
213.418441
 11
127.499397
 21
213.418441
  0
LINE
  8
1
 62
7
  6
CONTINUOUS
 10
90.067862
 20
117.889577
 11
121.256316
 21
117.889577
  0
LINE
  8
1
 62
7
  6
CONTINUOUS
 10
172.342580
 20
77.478587
 11
172.342580
 21
73.563988
  0
LINE
  8
1
 62
7
  6
CONTINUOUS
 10
171.992580
 20
73.563988
 11
171.992580
 21
56.839577
  0
LINE
  8
1
 62
7
  6
CONTINUOUS
 10
171.992580
 20
73.563988
 11
172.342580
 21
73.563988
  0
LINE
  8
1
 62
7
  6
CONTINUOUS
 10
171.992580
 20
77.478587
 11
171.992580
 21
75.775125
  0
LINE
  8
1
 62
7
  6
CONTINUOUS
 10
171.992580
 20
77.478587
 11
171.992580
 21
73.563988
  0
LINE
  8
1
 62
7
  6
CONTINUOUS
 10
171.992580
 20
77.478587
 11
172.342580
 21
77.478587
  0
LINE
  8
1
 62
7
  6
DASHDOT
 10
179.391281
 20
76.900125
 11
170.969536
 21
76.900125
  0
LINE
  8
1
 62
7
  6
CONTINUOUS
 10
175.642580
 20
73.775739
 11
173.242580
 21
73.775739
  0
LINE
  8
1
 62
7
  6
CONTINUOUS
 10
175.642580
 20
73.775739
 11
175.642580
 21
75.775125
  0
LINE
  8
1
 62
7
  6
CONTINUOUS
 10
175.642580
 20
79.536121
 11
173.242580
 21
79.536121
  0
LINE
  8
1
 62
7
  6
CONTINUOUS
 10
175.642580
 20
73.775739
 11
175.642580
 21
75.775125
  0
LINE
  8
1
 62
7
  6
CONTINUOUS
 10
175.642580
 20
78.025125
 11
175.642580
 21
79.536121
  0
LINE
  8
1
 62
7
  6
CONTINUOUS
 10
175.642580
 20
78.025125
 11
175.642580
 21
79.536121
  0
LINE
  8
1
 62
7
  6
CONTINUOUS
 10
171.992580
 20
78.025125
 11
171.992580
 21
77.478587
  0
LINE
  8
1
 62
7
  6
CONTINUOUS
 10
175.642580
 20
75.775125
 11
175.642580
 21
78.025125
  0
LINE
  8
1
 62
7
  6
CONTINUOUS
 10
175.642580
 20
75.775125
 11
175.642580
 21
78.025125
  0
LINE
  8
1
 62
7
  6
CONTINUOUS
 10
173.242580
 20
79.536121
 11
173.242580
 21
73.775739
  0
LINE
  8
1
 62
7
  6
CONTINUOUS
 10
177.492580
 20
74.210536
 11
177.492580
 21
77.438514
  0
LINE
  8
1
 62
7
  6
CONTINUOUS
 10
83.295998
 20
219.418441
 11
104.746925
 21
219.418441
  0
LINE
  8
1
 62
7
  6
CONTINUOUS
 10
84.718035
 20
151.425341
 11
113.025424
 21
151.425341
  0
LINE
  8
1
 62
7
  6
DASHDOT
 10
49.115106
 20
80.831047
 11
46.338785
 21
78.922935
  0
LINE
  8
1
 62
7
  6
CONTINUOUS
 10
81.137716
 20
102.839577
 11
49.115106
 21
80.831047
  0
LINE
  8
1
 62
7
  6
DASHDOT
 10
81.137716
 20
102.839577
 11
35.159963
 21
102.839577
  0
LINE
  8
1
 62
7
  6
DASHDOT
 10
81.137716
 20
102.839577
 11
81.137716
 21
56.963887
  0
LINE
  8
1
 62
7
  6
CONTINUOUS
 10
112.921268
 20
80.995348
 11
81.137716
 21
102.839577
  0
LINE
  8
1
 62
7
  6
DASHDOT
 10
98.637716
 20
102.839577
 11
81.137716
 21
102.839577
  0
LINE
  8
1
 62
7
  6
DASHDOT
 10
81.137716
 20
207.407185
 11
81.137716
 21
177.369813
  0
LINE
  8
1
 62
7
  6
DASHDOT
 10
176.738514
 20
140.339577
 11
171.333951
 21
140.339577
  0
LINE
  8
1
 62
7
  6
DASHDOT
 10
176.593587
 20
59.339577
 11
171.098575
 21
59.339577
  0
LINE
  8
1
 62
7
  6
CONTINUOUS
 10
175.642580
 20
60.631397
 11
173.242580
 21
58.545109
  0
LINE
  8
1
 62
7
  6
CONTINUOUS
 10
175.642580
 20
56.839577
 11
171.992580
 21
56.839577
  0
LINE
  8
1
 62
7
  6
CONTINUOUS
 10
175.642580
 20
56.839577
 11
175.642580
 21
60.631397
  0
LINE
  8
1
 62
7
  6
CONTINUOUS
 10
175.642580
 20
139.047758
 11
173.242580
 21
141.134046
  0
LINE
  8
1
 62
7
  6
CONTINUOUS
 10
175.642580
 20
142.839577
 11
171.992580
 21
142.839577
  0
LINE
  8
1
 62
7
  6
CONTINUOUS
 10
175.642580
 20
142.839577
 11
175.642580
 21
139.047758
  0
LINE
  8
1
 62
7
  6
CONTINUOUS
 10
177.492580
 20
97.464577
 11
177.492580
 21
102.214577
  0
LINE
  8
1
 62
7
  6
CONTINUOUS
 10
175.642580
 20
97.464577
 11
177.492580
 21
97.464577
  0
LINE
  8
1
 62
7
  6
CONTINUOUS
 10
177.492580
 20
102.214577
 11
177.492580
 21
137.439577
  0
LINE
  8
1
 62
7
  6
CONTINUOUS
 10
175.642580
 20
102.214577
 11
177.492580
 21
102.214577
  0
LINE
  8
1
 62
7
  6
CONTINUOUS
 10
177.492580
 20
63.414342
 11
177.492580
 21
97.464577
  0
LINE
  8
1
 62
7
  6
CONTINUOUS
 10
197.492580
 20
102.214577
 11
197.492580
 21
97.464577
  0
LINE
  8
1
 62
7
  6
CONTINUOUS
 10
179.242580
 20
118.825260
 11
179.242580
 21
113.839577
  0
LINE
  8
1
 62
7
  6
CONTINUOUS
 10
179.242580
 20
120.110100
 11
179.242580
 21
118.825260
  0
LINE
  8
1
 62
7
  6
CONTINUOUS
 10
179.242580
 20
120.854101
 11
179.242580
 21
120.110100
  0
LINE
  8
1
 62
7
  6
CONTINUOUS
 10
175.242598
 20
116.387068
 11
175.242598
 21
115.339577
  0
LINE
  8
1
 62
7
  6
CONTINUOUS
 10
179.242580
 20
132.419358
 11
179.242580
 21
120.854101
  0
LINE
  8
1
 62
7
  6
CONTINUOUS
 10
173.655995
 20
115.339577
 11
175.242598
 21
115.339577
  0
LINE
  8
1
 62
7
  6
CONTINUOUS
 10
173.242580
 20
118.289577
 11
173.242580
 21
141.134046
  0
LINE
  8
1
 62
7
  6
CONTINUOUS
 10
173.655995
 20
118.339577
 11
175.242598
 21
118.339577
  0
LINE
  8
1
 62
7
  6
CONTINUOUS
 10
172.925610
 20
115.339577
 11
173.242598
 21
115.339577
  0
LINE
  8
1
 62
7
  6
CONTINUOUS
 10
172.492598
 20
115.089577
 11
172.492598
 21
115.389577
  0
LINE
  8
1
 62
7
  6
CONTINUOUS
 10
172.492598
 20
115.089577
 11
172.492598
 21
115.339577
  0
LINE
  8
1
 62
7
  6
CONTINUOUS
 10
172.492598
 20
115.089577
 11
172.925610
 21
115.339577
  0
LINE
  8
1
 62
7
  6
CONTINUOUS
 10
172.925610
 20
118.339577
 11
173.242598
 21
118.339577
  0
LINE
  8
1
 62
7
  6
CONTINUOUS
 10
172.492598
 20
118.589577
 11
172.925610
 21
118.339577
  0
LINE
  8
1
 62
7
  6
CONTINUOUS
 10
172.492598
 20
118.589577
 11
172.492598
 21
118.789577
  0
LINE
  8
1
 62
7
  6
CONTINUOUS
 10
172.492598
 20
118.589577
 11
172.492598
 21
118.839577
  0
LINE
  8
1
 62
7
  6
CONTINUOUS
 10
173.242598
 20
118.589577
 11
173.242598
 21
118.339577
  0
LINE
  8
1
 62
7
  6
CONTINUOUS
 10
171.992598
 20
118.839577
 11
171.992598
 21
119.089577
  0
LINE
  8
1
 62
7
  6
CONTINUOUS
 10
172.042598
 20
114.889577
 11
172.492598
 21
114.889577
  0
LINE
  8
1
 62
7
  6
CONTINUOUS
 10
172.492598
 20
118.789577
 11
172.042598
 21
118.789577
  0
LINE
  8
1
 62
7
  6
CONTINUOUS
 10
172.042598
 20
118.789577
 11
172.042598
 21
114.889577
  0
LINE
  8
1
 62
7
  6
CONTINUOUS
 10
172.492598
 20
114.889577
 11
172.492598
 21
115.089577
  0
LINE
  8
1
 62
7
  6
CONTINUOUS
 10
172.492598
 20
118.289577
 11
173.342598
 21
118.289577
  0
LINE
  8
1
 62
7
  6
CONTINUOUS
 10
172.492598
 20
118.289577
 11
172.492598
 21
118.589577
  0
LINE
  8
1
 62
7
  6
CONTINUOUS
 10
172.492598
 20
115.389577
 11
173.342598
 21
115.389577
  0
LINE
  8
1
 62
7
  6
CONTINUOUS
 10
173.742598
 20
117.989577
 11
173.742598
 21
118.289577
  0
LINE
  8
1
 62
7
  6
CONTINUOUS
 10
173.742598
 20
115.689577
 11
173.742598
 21
115.389577
  0
LINE
  8
1
 62
7
  6
CONTINUOUS
 10
173.742598
 20
118.289577
 11
173.482790
 21
118.439577
  0
LINE
  8
1
 62
7
  6
CONTINUOUS
 10
173.742598
 20
115.389577
 11
173.482790
 21
115.239577
  0
LINE
  8
1
 62
7
  6
CONTINUOUS
 10
173.342598
 20
118.289577
 11
173.342598
 21
118.439577
  0
LINE
  8
1
 62
7
  6
CONTINUOUS
 10
173.342598
 20
118.439577
 11
173.482790
 21
118.439577
  0
LINE
  8
1
 62
7
  6
CONTINUOUS
 10
173.482790
 20
115.239577
 11
173.342598
 21
115.239577
  0
LINE
  8
1
 62
7
  6
CONTINUOUS
 10
173.342598
 20
115.389577
 11
173.342598
 21
115.239577
  0
LINE
  8
1
 62
7
  6
CONTINUOUS
 10
172.292598
 20
117.989577
 11
173.742598
 21
117.989577
  0
LINE
  8
1
 62
7
  6
CONTINUOUS
 10
172.492598
 20
117.589577
 11
172.292598
 21
117.589577
  0
LINE
  8
1
 62
7
  6
CONTINUOUS
 10
172.492598
 20
116.089577
 11
172.292598
 21
116.089577
  0
LINE
  8
1
 62
7
  6
CONTINUOUS
 10
172.492598
 20
116.089577
 11
172.492598
 21
117.589577
  0
LINE
  8
1
 62
7
  6
CONTINUOUS
 10
172.292598
 20
115.689577
 11
173.742598
 21
115.689577
  0
LINE
  8
1
 62
7
  6
CONTINUOUS
 10
172.292598
 20
117.989577
 11
172.292598
 21
117.589577
  0
LINE
  8
1
 62
7
  6
CONTINUOUS
 10
172.292598
 20
116.089577
 11
172.292598
 21
115.689577
  0
LINE
  8
1
 62
7
  6
CONTINUOUS
 10
177.492598
 20
115.339577
 11
177.492598
 21
118.339577
  0
LINE
  8
1
 62
7
  6
CONTINUOUS
 10
175.242598
 20
115.339577
 11
177.492598
 21
115.339577
  0
LINE
  8
1
 62
7
  6
CONTINUOUS
 10
175.242598
 20
118.339577
 11
175.805202
 21
118.339577
  0
LINE
  8
1
 62
7
  6
CONTINUOUS
 10
175.242598
 20
118.339577
 11
175.242598
 21
118.095626
  0
LINE
  8
1
 62
7
  6
CONTINUOUS
 10
173.242598
 20
115.339577
 11
173.342598
 21
115.339577
  0
LINE
  8
1
 62
7
  6
CONTINUOUS
 10
173.242598
 20
118.339577
 11
173.342598
 21
118.339577
  0
LINE
  8
1
 62
7
  6
CONTINUOUS
 10
172.492598
 20
118.339577
 11
172.492598
 21
118.589577
  0
LINE
  8
1
 62
7
  6
CONTINUOUS
 10
172.492598
 20
114.839577
 11
172.492598
 21
115.089577
  0
LINE
  8
1
 62
7
  6
CONTINUOUS
 10
171.992598
 20
114.839577
 11
172.492598
 21
114.839577
  0
LINE
  8
1
 62
7
  6
CONTINUOUS
 10
171.992598
 20
118.839577
 11
171.992598
 21
114.839577
  0
LINE
  8
1
 62
7
  6
CONTINUOUS
 10
171.992598
 20
118.839577
 11
172.492598
 21
118.839577
  0
LINE
  8
1
 62
7
  6
CONTINUOUS
 10
188.492580
 20
113.839577
 11
192.742580
 21
113.839577
  0
LINE
  8
1
 62
7
  6
CONTINUOUS
 10
183.492580
 20
114.839577
 11
188.492580
 21
114.839577
  0
LINE
  8
1
 62
7
  6
DASHDOT
 10
188.492580
 20
99.839577
 11
198.356089
 21
99.839577
  0
LINE
  8
1
 62
7
  6
CONTINUOUS
 10
188.492580
 20
114.839577
 11
188.492580
 21
99.839577
  0
LINE
  8
1
 62
7
  6
DASHDOT
 10
183.492580
 20
99.839577
 11
188.492580
 21
99.839577
  0
LINE
  8
1
 62
7
  6
CONTINUOUS
 10
183.492580
 20
99.839577
 11
183.492580
 21
114.839577
  0
LINE
  8
1
 62
7
  6
CONTINUOUS
 10
192.742580
 20
132.419358
 11
192.742580
 21
142.539577
  0
LINE
  8
1
 62
7
  6
CONTINUOUS
 10
179.242580
 20
132.419358
 11
179.242580
 21
142.539577
  0
LINE
  8
1
 62
7
  6
CONTINUOUS
 10
179.242580
 20
132.419358
 11
192.742580
 21
132.419358
  0
LINE
  8
1
 62
7
  6
CONTINUOUS
 10
192.742580
 20
137.439577
 11
192.992580
 21
137.439577
  0
LINE
  8
1
 62
7
  6
CONTINUOUS
 10
179.242580
 20
142.539577
 11
192.742580
 21
142.539577
  0
LINE
  8
1
 62
7
  6
CONTINUOUS
 10
192.742580
 20
113.839577
 11
192.742580
 21
132.419358
  0
LINE
  8
1
 62
7
  6
CONTINUOUS
 10
179.242580
 20
113.839577
 11
183.492580
 21
113.839577
  0
LINE
  8
1
 62
7
  6
DASHDOT
 10
49.177601
 20
80.873999
 11
49.115106
 21
80.831047
  0
LINE
  8
1
 62
7
  6
DASHDOT
 10
112.921268
 20
80.995348
 11
115.926073
 21
78.930203
  0
LINE
  8
1
 62
7
  6
CONTINUOUS
 10
183.492580
 20
62.239577
 11
192.992580
 21
62.239577
  0
LINE
  8
1
 62
7
  6
DASHDOT
 10
170.206110
 20
99.839577
 11
183.492580
 21
99.839577
  0
LINE
  8
1
 62
7
  6
CONTINUOUS
 10
172.342580
 20
97.464577
 11
172.342580
 21
102.214577
  0
LINE
  8
1
 62
7
  6
CONTINUOUS
 10
173.242580
 20
97.464577
 11
173.242580
 21
102.214577
  0
LINE
  8
1
 62
7
  6
CONTINUOUS
 10
175.642580
 20
97.464577
 11
173.242580
 21
97.464577
  0
LINE
  8
1
 62
7
  6
CONTINUOUS
 10
173.242580
 20
102.214577
 11
173.242580
 21
115.389577
  0
LINE
  8
1
 62
7
  6
CONTINUOUS
 10
175.642580
 20
102.214577
 11
173.242580
 21
102.214577
  0
LINE
  8
1
 62
7
  6
CONTINUOUS
 10
194.492580
 20
62.239577
 11
194.492580
 21
137.439577
  0
LINE
  8
1
 62
7
  6
CONTINUOUS
 10
197.142580
 20
97.464577
 11
197.142580
 21
102.214577
  0
LINE
  8
1
 62
7
  6
CONTINUOUS
 10
173.242580
 20
141.134046
 11
173.242580
 21
142.839577
  0
LINE
  8
1
 62
7
  6
CONTINUOUS
 10
177.492580
 20
137.439577
 11
175.642580
 21
139.047758
  0
LINE
  8
1
 62
7
  6
CONTINUOUS
 10
192.992580
 20
137.439577
 11
194.492580
 21
137.439577
  0
LINE
  8
1
 62
7
  6
CONTINUOUS
 10
194.492580
 20
62.239577
 11
194.492580
 21
57.339577
  0
LINE
  8
1
 62
7
  6
CONTINUOUS
 10
192.992580
 20
62.239577
 11
194.492580
 21
62.239577
  0
LINE
  8
1
 62
7
  6
CONTINUOUS
 10
194.992580
 20
56.839577
 11
195.492580
 21
56.839577
  0
LINE
  8
1
 62
7
  6
CONTINUOUS
 10
194.992580
 20
142.839577
 11
195.492580
 21
142.839577
  0
LINE
  8
1
 62
7
  6
CONTINUOUS
 10
194.492580
 20
142.339577
 11
194.492580
 21
137.439577
  0
LINE
  8
1
 62
7
  6
CONTINUOUS
 10
171.992580
 20
142.839577
 11
171.992580
 21
102.214577
  0
LINE
  8
1
 62
7
  6
CONTINUOUS
 10
173.242580
 20
56.839577
 11
173.242580
 21
58.545109
  0
LINE
  8
1
 62
7
  6
CONTINUOUS
 10
197.492580
 20
58.839577
 11
197.492580
 21
97.464577
  0
LINE
  8
1
 62
7
  6
CONTINUOUS
 10
177.492580
 20
63.414342
 11
177.492580
 21
62.239577
  0
LINE
  8
1
 62
7
  6
CONTINUOUS
 10
177.492580
 20
62.239577
 11
183.492580
 21
62.239577
  0
LINE
  8
1
 62
7
  6
CONTINUOUS
 10
177.492580
 20
137.439577
 11
179.242580
 21
137.439577
  0
LINE
  8
1
 62
7
  6
CONTINUOUS
 10
177.492580
 20
62.239577
 11
175.642580
 21
60.631397
  0
LINE
  8
1
 62
7
  6
CONTINUOUS
 10
173.242580
 20
58.545109
 11
173.242580
 21
97.464577
  0
LINE
  8
1
 62
7
  6
CONTINUOUS
 10
197.142580
 20
97.464577
 11
197.492580
 21
97.464577
  0
LINE
  8
1
 62
7
  6
CONTINUOUS
 10
197.142580
 20
102.214577
 11
197.492580
 21
102.214577
  0
LINE
  8
1
 62
7
  6
CONTINUOUS
 10
197.492580
 20
102.214577
 11
197.492580
 21
140.839577
  0
LINE
  8
1
 62
7
  6
CONTINUOUS
 10
172.342580
 20
97.464577
 11
171.992580
 21
97.464577
  0
LINE
  8
1
 62
7
  6
CONTINUOUS
 10
171.992580
 20
97.464577
 11
171.992580
 21
77.478587
  0
LINE
  8
1
 62
7
  6
CONTINUOUS
 10
172.342580
 20
102.214577
 11
171.992580
 21
102.214577
  0
LINE
  8
1
 62
7
  6
CONTINUOUS
 10
171.992580
 20
102.214577
 11
171.992580
 21
97.464577
  0
LINE
  8
1
 62
7
  6
DASHDOT
 10
193.572830
 20
140.339577
 11
198.547339
 21
140.339577
  0
LINE
  8
1
 62
7
  6
DASHDOT
 10
198.768392
 20
59.339577
 11
192.871806
 21
59.339577
  0
LINE
  8
1
 62
7
  6
CONTINUOUS
 10
88.319776
 20
111.507260
 11
88.760593
 21
114.007260
  0
LINE
  8
1
 62
7
  6
CONTINUOUS
 10
88.573633
 20
111.507260
 11
88.319776
 21
111.507260
  0
LINE
  8
1
 62
7
  6
CONTINUOUS
 10
89.014450
 20
114.007260
 11
88.573633
 21
111.507260
  0
LINE
  8
1
 62
7
  6
CONTINUOUS
 10
88.760593
 20
114.007260
 11
89.014450
 21
114.007260
  0
LINE
  8
1
 62
7
  6
CONTINUOUS
 10
87.999023
 20
114.007260
 11
88.043105
 21
114.257260
  0
LINE
  8
1
 62
7
  6
CONTINUOUS
 10
88.252880
 20
114.007260
 11
87.999023
 21
114.007260
  0
LINE
  8
1
 62
7
  6
CONTINUOUS
 10
87.812063
 20
111.507260
 11
88.252880
 21
114.007260
  0
LINE
  8
1
 62
7
  6
CONTINUOUS
 10
87.558206
 20
111.507260
 11
87.812063
 21
111.507260
  0
LINE
  8
1
 62
7
  6
CONTINUOUS
 10
87.514124
 20
111.257260
 11
87.558206
 21
111.507260
  0
LINE
  8
1
 62
7
  6
CONTINUOUS
 10
89.291121
 20
111.257260
 11
87.514124
 21
111.257260
  0
LINE
  8
1
 62
7
  6
CONTINUOUS
 10
89.335202
 20
111.507260
 11
89.291121
 21
111.257260
  0
LINE
  8
1
 62
7
  6
CONTINUOUS
 10
89.081346
 20
111.507260
 11
89.335202
 21
111.507260
  0
LINE
  8
1
 62
7
  6
CONTINUOUS
 10
89.522163
 20
114.007260
 11
89.081346
 21
111.507260
  0
LINE
  8
1
 62
7
  6
CONTINUOUS
 10
89.776020
 20
114.007260
 11
89.522163
 21
114.007260
  0
LINE
  8
1
 62
7
  6
CONTINUOUS
 10
89.820102
 20
114.257260
 11
89.776020
 21
114.007260
  0
LINE
  8
1
 62
7
  6
CONTINUOUS
 10
88.043105
 20
114.257260
 11
89.820102
 21
114.257260
  0
LINE
  8
1
 62
7
  6
CONTINUOUS
 10
71.339757
 20
88.339577
 11
90.935675
 21
88.339577
  0
LINE
  8
1
 62
7
  6
DASHDOT
 10
98.637716
 20
102.839577
 11
127.615733
 21
102.839577
  0
LINE
  8
1
 62
7
  6
CONTINUOUS
 10
95.280609
 20
194.556828
 11
96.694823
 21
193.142614
  0
LINE
  8
1
 62
7
  6
CONTINUOUS
 10
95.280609
 20
193.142614
 11
96.694823
 21
194.556828
  0
LINE
  8
1
 62
7
  6
CONTINUOUS
 10
95.704941
 20
88.472073
 11
98.627292
 21
94.216079
  0
LINE
  8
1
 62
7
  6
CONTINUOUS
 10
61.303587
 20
97.657172
 11
48.609952
 21
117.429541
  0
LINE
  8
1
 62
7
  6
CONTINUOUS
 10
87.462272
 20
122.339577
 11
110.981853
 21
122.339577
  0
LINE
  8
1
 62
7
  6
CONTINUOUS
 10
89.585092
 20
192.024721
 11
89.585092
 21
191.774721
  0
LINE
  8
1
 62
7
  6
CONTINUOUS
 10
89.585092
 20
195.924721
 11
89.585092
 21
195.674721
  0
LINE
  8
1
 62
7
  6
CONTINUOUS
 10
92.621649
 20
191.774721
 11
92.621649
 21
187.899721
  0
LINE
  8
1
 62
7
  6
CONTINUOUS
 10
89.585092
 20
191.774721
 11
92.621649
 21
191.774721
  0
LINE
  8
1
 62
7
  6
CONTINUOUS
 10
92.621649
 20
192.024721
 11
92.621649
 21
191.774721
  0
LINE
  8
1
 62
7
  6
CONTINUOUS
 10
89.585092
 20
192.024721
 11
92.621649
 21
192.024721
  0
LINE
  8
1
 62
7
  6
CONTINUOUS
 10
92.621649
 20
195.674721
 11
92.621649
 21
192.024721
  0
LINE
  8
1
 62
7
  6
CONTINUOUS
 10
89.585092
 20
195.674721
 11
92.621649
 21
195.674721
  0
LINE
  8
1
 62
7
  6
CONTINUOUS
 10
92.621649
 20
195.924721
 11
92.621649
 21
195.674721
  0
LINE
  8
1
 62
7
  6
CONTINUOUS
 10
89.585092
 20
195.924721
 11
92.621649
 21
195.924721
  0
LINE
  8
1
 62
7
  6
DASHDOT
 10
72.437716
 20
188.349721
 11
74.748015
 21
188.349721
  0
LINE
  8
1
 62
7
  6
CONTINUOUS
 10
92.621649
 20
138.642919
 11
92.703089
 21
139.141811
  0
LINE
  8
1
 62
7
  6
CONTINUOUS
 10
87.666888
 20
139.868349
 11
87.753712
 21
140.360753
  0
LINE
  8
1
 62
7
  6
CONTINUOUS
 10
92.621649
 20
187.899721
 11
92.621649
 21
187.099721
  0
LINE
  8
1
 62
7
  6
CONTINUOUS
 10
87.666888
 20
187.899721
 11
92.621649
 21
187.899721
  0
LINE
  8
1
 62
7
  6
CONTINUOUS
 10
92.621649
 20
199.799721
 11
92.621649
 21
195.924721
  0
LINE
  8
1
 62
7
  6
CONTINUOUS
 10
87.666888
 20
199.799721
 11
92.621649
 21
199.799721
  0
LINE
  8
1
 62
7
  6
CONTINUOUS
 10
105.880983
 20
187.099721
 11
118.187716
 21
187.099721
  0
LINE
  8
1
 62
7
  6
CONTINUOUS
 10
105.880983
 20
200.599721
 11
118.187716
 21
200.599721
  0
LINE
  8
1
 62
7
  6
CONTINUOUS
 10
105.880983
 20
200.599721
 11
105.880983
 21
187.099721
  0
LINE
  8
1
 62
7
  6
CONTINUOUS
 10
118.437716
 20
191.349721
 11
118.437716
 21
196.349721
  0
LINE
  8
1
 62
7
  6
CONTINUOUS
 10
118.937716
 20
191.349721
 11
118.437716
 21
191.349721
  0
LINE
  8
1
 62
7
  6
CONTINUOUS
 10
118.437716
 20
196.349721
 11
118.437716
 21
200.349721
  0
LINE
  8
1
 62
7
  6
CONTINUOUS
 10
118.937716
 20
196.349721
 11
118.437716
 21
196.349721
  0
LINE
  8
1
 62
7
  6
CONTINUOUS
 10
93.226099
 20
142.070922
 11
90.027368
 21
142.635345
  0
LINE
  8
1
 62
7
  6
CONTINUOUS
 10
93.486650
 20
143.548582
 11
90.287851
 21
144.112616
  0
LINE
  8
1
 62
7
  6
DASHDOT
 10
81.137716
 20
148.046552
 11
81.137716
 21
102.839577
  0
LINE
  8
1
 62
7
  6
CONTINUOUS
 10
121.256316
 20
117.889577
 11
119.670870
 21
121.289577
  0
LINE
  8
1
 62
7
  6
CONTINUOUS
 10
119.670870
 20
121.289577
 11
119.600924
 21
121.439577
  0
LINE
  8
1
 62
7
  6
CONTINUOUS
 10
84.787716
 20
120.289577
 11
84.787716
 21
120.789577
  0
LINE
  8
1
 62
7
  6
CONTINUOUS
 10
119.600924
 20
121.439577
 11
119.437716
 21
121.789577
  0
LINE
  8
1
 62
7
  6
CONTINUOUS
 10
119.437716
 20
121.789577
 11
100.444413
 21
121.789577
  0
LINE
  8
1
 62
7
  6
CONTINUOUS
 10
97.794413
 20
121.789577
 11
85.787716
 21
121.789577
  0
LINE
  8
1
 62
7
  6
CONTINUOUS
 10
97.794413
 20
121.789577
 11
100.444413
 21
121.789577
  0
LINE
  8
1
 62
7
  6
CONTINUOUS
 10
118.735670
 20
100.464577
 11
124.072077
 21
100.464577
  0
LINE
  8
1
 62
7
  6
CONTINUOUS
 10
118.735670
 20
105.214577
 11
124.072077
 21
105.214577
  0
LINE
  8
1
 62
7
  6
CONTINUOUS
 10
110.777959
 20
79.586563
 11
115.175833
 21
76.563988
  0
LINE
  8
1
 62
7
  6
CONTINUOUS
 10
117.866263
 20
80.478587
 11
113.468389
 21
83.501162
  0
LINE
  8
1
 62
7
  6
CONTINUOUS
 10
47.099600
 20
76.563988
 11
51.497473
 21
79.586563
  0
LINE
  8
1
 62
7
  6
CONTINUOUS
 10
44.409170
 20
80.478587
 11
48.807043
 21
83.501162
  0
LINE
  8
1
 62
7
  6
CONTINUOUS
 10
38.203355
 20
100.464577
 11
43.539763
 21
100.464577
  0
LINE
  8
1
 62
7
  6
CONTINUOUS
 10
38.203355
 20
105.214577
 11
43.539763
 21
105.214577
  0
LINE
  8
1
 62
7
  6
CONTINUOUS
 10
119.433441
 20
121.839577
 11
119.588171
 21
121.839577
  0
LINE
  8
1
 62
7
  6
CONTINUOUS
 10
81.137716
 20
138.621022
 11
81.137716
 21
138.909077
  0
LINE
  8
1
 62
7
  6
DASHDOT
 10
81.137716
 20
138.909077
 11
81.137716
 21
138.621022
  0
LINE
  8
1
 62
7
  6
CONTINUOUS
 10
84.637716
 20
120.839577
 11
84.637716
 21
120.704557
  0
LINE
  8
1
 62
7
  6
CONTINUOUS
 10
81.137716
 20
122.339577
 11
87.462272
 21
122.339577
  0
LINE
  8
1
 62
7
  6
CONTINUOUS
 10
79.982164
 20
67.194534
 11
76.318902
 21
62.828829
  0
LINE
  8
1
 62
7
  6
CONTINUOUS
 10
79.982164
 20
67.194534
 11
79.982164
 21
67.208310
  0
LINE
  8
1
 62
7
  6
DASHDOT
 10
79.348206
 20
143.339577
 11
82.931476
 21
143.339577
  0
LINE
  8
1
 62
7
  6
DASHDOT
 10
78.987397
 20
62.339577
 11
83.264351
 21
62.339577
  0
LINE
  8
1
 62
7
  6
DASHDOT
 10
121.637716
 20
104.723669
 11
121.637716
 21
100.796649
  0
LINE
  8
1
 62
7
  6
DASHDOT
 10
40.637716
 20
104.961070
 11
40.637716
 21
100.776897
  0
LINE
  8
1
 62
7
  6
CONTINUOUS
 10
78.762716
 20
64.689577
 11
83.512716
 21
64.689577
  0
LINE
  8
1
 62
7
  6
CONTINUOUS
 10
78.762716
 20
64.689577
 11
78.762716
 21
59.905216
  0
LINE
  8
1
 62
7
  6
CONTINUOUS
 10
83.512716
 20
64.689577
 11
83.512716
 21
59.905216
  0
LINE
  8
1
 62
7
  6
DASHDOT
 10
82.931476
 20
143.339577
 11
84.191639
 21
143.339577
  0
LINE
  8
1
 62
7
  6
DASHDOT
 10
79.348206
 20
143.339577
 11
77.781866
 21
143.339577
  0
LINE
  8
1
 62
7
  6
CONTINUOUS
 10
71.737716
 20
87.339577
 11
72.737716
 21
87.339577
  0
LINE
  8
1
 62
7
  6
CONTINUOUS
 10
72.737716
 20
87.339577
 11
72.737716
 21
87.839577
  0
LINE
  8
1
 62
7
  6
CONTINUOUS
 10
89.537716
 20
87.339577
 11
90.537716
 21
87.339577
  0
LINE
  8
1
 62
7
  6
CONTINUOUS
 10
90.537716
 20
88.339577
 11
90.537716
 21
87.339577
  0
LINE
  8
1
 62
7
  6
CONTINUOUS
 10
89.537716
 20
87.339577
 11
89.537716
 21
88.339577
  0
LINE
  8
1
 62
7
  6
CONTINUOUS
 10
90.537716
 20
88.339577
 11
89.537716
 21
88.339577
  0
LINE
  8
1
 62
7
  6
CONTINUOUS
 10
71.737716
 20
87.339577
 11
71.737716
 21
88.339577
  0
LINE
  8
1
 62
7
  6
CONTINUOUS
 10
72.737716
 20
87.839577
 11
72.737716
 21
88.339577
  0
LINE
  8
1
 62
7
  6
CONTINUOUS
 10
71.737716
 20
88.339577
 11
72.737716
 21
88.339577
  0
LINE
  8
1
 62
7
  6
CONTINUOUS
 10
85.637716
 20
121.839577
 11
117.137716
 21
121.839577
  0
LINE
  8
1
 62
7
  6
CONTINUOUS
 10
84.637716
 20
120.704557
 11
84.637716
 21
120.839577
  0
LINE
  8
1
 62
7
  6
CONTINUOUS
 10
84.637716
 20
120.704557
 11
84.637716
 21
120.339577
  0
LINE
  8
1
 62
7
  6
CONTINUOUS
 10
78.362716
 20
145.749942
 11
78.362716
 21
139.797068
  0
LINE
  8
1
 62
7
  6
CONTINUOUS
 10
83.912716
 20
145.749942
 11
83.912716
 21
139.797068
  0
LINE
  8
1
 62
7
  6
CONTINUOUS
 10
119.712319
 20
121.839577
 11
117.137716
 21
121.839577
  0
LINE
  8
1
 62
7
  6
CONTINUOUS
 10
65.067256
 20
91.794656
 11
61.303587
 21
97.657172
  0
LINE
  8
1
 62
7
  6
CONTINUOUS
 10
89.381211
 20
82.327625
 11
81.682017
 21
67.194534
  0
LINE
  8
1
 62
7
  6
CONTINUOUS
 10
81.682017
 20
67.194534
 11
79.982164
 21
67.194534
  0
LINE
  8
1
 62
7
  6
CONTINUOUS
 10
50.101915
 20
120.381000
 11
59.272928
 21
106.095678
  0
LINE
  8
1
 62
7
  6
CONTINUOUS
 10
48.609952
 20
117.429541
 11
46.659246
 21
120.468077
  0
LINE
  8
1
 62
7
  6
CONTINUOUS
 10
47.697419
 20
124.126386
 11
50.101915
 21
120.381000
  0
LINE
  8
1
 62
7
  6
CONTINUOUS
 10
97.630139
 20
117.339577
 11
113.705684
 21
117.339577
  0
LINE
  8
1
 62
7
  6
CONTINUOUS
 10
114.592910
 20
122.339577
 11
114.434676
 21
122.339577
  0
LINE
  8
1
 62
7
  6
CONTINUOUS
 10
110.981853
 20
122.339577
 11
114.434676
 21
122.339577
  0
LINE
  8
1
 62
7
  6
CONTINUOUS
 10
113.705684
 20
117.339577
 11
117.900469
 21
117.339577
  0
LINE
  8
1
 62
7
  6
CONTINUOUS
 10
84.855645
 20
67.147324
 11
95.704941
 21
88.472073
  0
LINE
  8
1
 62
7
  6
CONTINUOUS
 10
121.436600
 20
117.839577
 11
90.151594
 21
117.839577
  0
LINE
  8
1
 62
7
  6
CONTINUOUS
 10
117.137716
 20
121.839577
 11
119.433441
 21
121.839577
  0
LINE
  8
1
 62
7
  6
CONTINUOUS
 10
89.585092
 20
143.006459
 11
90.027368
 21
142.635345
  0
LINE
  8
1
 62
7
  6
CONTINUOUS
 10
89.745319
 20
143.915151
 11
89.585092
 21
143.006459
  0
LINE
  8
1
 62
7
  6
CONTINUOUS
 10
89.745319
 20
143.915151
 11
90.287851
 21
144.112616
  0
LINE
  8
1
 62
7
  6
DASHDOT
 10
90.006933
 20
143.500580
 11
90.854662
 21
143.351102
  0
LINE
  8
1
 62
7
  6
DASHDOT
 10
90.464966
 20
143.777398
 11
90.336319
 21
143.047800
  0
LINE
  8
1
 62
7
  6
CONTINUOUS
 10
93.837716
 20
145.539577
 11
93.044245
 21
141.039577
  0
LINE
  8
1
 62
7
  6
CONTINUOUS
 10
118.437716
 20
187.320428
 11
118.437716
 21
191.349721
  0
LINE
  8
1
 62
7
  6
CONTINUOUS
 10
92.621649
 20
187.099721
 11
105.880983
 21
187.099721
  0
LINE
  8
1
 62
7
  6
CONTINUOUS
 10
92.621649
 20
200.599721
 11
92.621649
 21
199.849721
  0
LINE
  8
1
 62
7
  6
CONTINUOUS
 10
92.621649
 20
200.599721
 11
92.621649
 21
199.799721
  0
LINE
  8
1
 62
7
  6
CONTINUOUS
 10
92.621649
 20
187.849721
 11
92.621649
 21
187.099721
  0
LINE
  8
1
 62
7
  6
CONTINUOUS
 10
92.621649
 20
200.599721
 11
105.880983
 21
200.599721
  0
LINE
  8
1
 62
7
  6
CONTINUOUS
 10
108.192636
 20
143.586846
 11
118.248974
 21
135.587674
  0
LINE
  8
1
 62
7
  6
CONTINUOUS
 10
118.437716
 20
135.196370
 11
118.437716
 21
134.872871
  0
LINE
  8
1
 62
7
  6
CONTINUOUS
 10
105.874366
 20
145.430882
 11
105.880983
 21
145.425618
  0
LINE
  8
1
 62
7
  6
CONTINUOUS
 10
105.454855
 20
145.539577
 11
93.837716
 21
145.539577
  0
LINE
  8
1
 62
7
  6
CONTINUOUS
 10
105.737716
 20
145.539577
 11
105.874366
 21
145.430882
  0
LINE
  8
1
 62
7
  6
CONTINUOUS
 10
118.248974
 20
135.587674
 11
118.343345
 21
135.512608
  0
LINE
  8
1
 62
7
  6
CONTINUOUS
 10
118.437716
 20
134.872871
 11
118.437716
 21
135.316956
  0
LINE
  8
1
 62
7
  6
CONTINUOUS
 10
118.437716
 20
134.872871
 11
118.437716
 21
124.233736
  0
LINE
  8
1
 62
7
  6
CONTINUOUS
 10
105.880983
 20
145.425618
 11
105.806041
 21
145.485230
  0
LINE
  8
1
 62
7
  6
CONTINUOUS
 10
105.880983
 20
145.425618
 11
108.192636
 21
143.586846
  0
LINE
  8
1
 62
7
  6
CONTINUOUS
 10
105.650412
 20
145.539577
 11
105.454855
 21
145.539577
  0
LINE
  8
1
 62
7
  6
CONTINUOUS
 10
105.454855
 20
145.539577
 11
105.563108
 21
145.539577
  0
LINE
  8
1
 62
7
  6
CONTINUOUS
 10
93.037716
 20
141.039577
 11
92.703089
 21
139.141811
  0
LINE
  8
1
 62
7
  6
CONTINUOUS
 10
87.666888
 20
187.899721
 11
87.666888
 21
199.799721
  0
LINE
  8
1
 62
7
  6
CONTINUOUS
 10
82.262716
 20
180.199721
 11
83.512716
 21
180.199721
  0
LINE
  8
1
 62
7
  6
CONTINUOUS
 10
82.262716
 20
183.499721
 11
83.512716
 21
183.499721
  0
LINE
  8
1
 62
7
  6
HIDDEN
 10
82.262716
 20
183.499721
 11
82.262716
 21
180.199721
  0
LINE
  8
1
 62
7
  6
CONTINUOUS
 10
80.012716
 20
180.199721
 11
82.262716
 21
180.199721
  0
LINE
  8
1
 62
7
  6
CONTINUOUS
 10
80.012716
 20
183.499721
 11
82.262716
 21
183.499721
  0
LINE
  8
1
 62
7
  6
HIDDEN
 10
80.012716
 20
183.499721
 11
80.012716
 21
180.199721
  0
LINE
  8
1
 62
7
  6
CONTINUOUS
 10
83.512716
 20
181.099721
 11
78.762716
 21
181.099721
  0
LINE
  8
1
 62
7
  6
CONTINUOUS
 10
83.512716
 20
183.499721
 11
83.912716
 21
183.499721
  0
LINE
  8
1
 62
7
  6
CONTINUOUS
 10
83.512716
 20
183.499721
 11
83.512716
 21
181.099721
  0
LINE
  8
1
 62
7
  6
CONTINUOUS
 10
78.762716
 20
181.099721
 11
39.843248
 21
181.099721
  0
LINE
  8
1
 62
7
  6
CONTINUOUS
 10
78.762716
 20
183.499721
 11
80.012716
 21
183.499721
  0
LINE
  8
1
 62
7
  6
CONTINUOUS
 10
78.762716
 20
183.499721
 11
78.762716
 21
181.099721
  0
LINE
  8
1
 62
7
  6
CONTINUOUS
 10
82.262716
 20
202.349721
 11
118.737716
 21
202.349721
  0
LINE
  8
1
 62
7
  6
CONTINUOUS
 10
82.262716
 20
204.999721
 11
83.512716
 21
204.999721
  0
LINE
  8
1
 62
7
  6
HIDDEN
 10
82.262716
 20
204.999721
 11
82.262716
 21
202.349721
  0
LINE
  8
1
 62
7
  6
CONTINUOUS
 10
80.012716
 20
202.349721
 11
82.262716
 21
202.349721
  0
LINE
  8
1
 62
7
  6
CONTINUOUS
 10
80.012716
 20
204.999721
 11
82.262716
 21
204.999721
  0
LINE
  8
1
 62
7
  6
HIDDEN
 10
80.012716
 20
204.999721
 11
80.012716
 21
202.349721
  0
LINE
  8
1
 62
7
  6
CONTINUOUS
 10
71.637716
 20
191.749721
 11
71.637716
 21
193.349721
  0
LINE
  8
1
 62
7
  6
CONTINUOUS
 10
39.843248
 20
181.099721
 11
38.137716
 21
181.099721
  0
LINE
  8
1
 62
7
  6
CONTINUOUS
 10
43.537716
 20
185.349721
 11
39.843248
 21
181.099721
  0
LINE
  8
1
 62
7
  6
CONTINUOUS
 10
43.537716
 20
202.349721
 11
80.012716
 21
202.349721
  0
LINE
  8
1
 62
7
  6
CONTINUOUS
 10
43.537716
 20
200.849721
 11
43.537716
 21
202.349721
  0
LINE
  8
1
 62
7
  6
CONTINUOUS
 10
118.737716
 20
202.349721
 11
123.637716
 21
202.349721
  0
LINE
  8
1
 62
7
  6
CONTINUOUS
 10
118.737716
 20
200.849721
 11
118.737716
 21
202.349721
  0
LINE
  8
1
 62
7
  6
CONTINUOUS
 10
124.137716
 20
202.849721
 11
124.137716
 21
203.349721
  0
LINE
  8
1
 62
7
  6
CONTINUOUS
 10
38.137716
 20
202.849721
 11
38.137716
 21
203.349721
  0
LINE
  8
1
 62
7
  6
CONTINUOUS
 10
38.637716
 20
202.349721
 11
43.537716
 21
202.349721
  0
LINE
  8
1
 62
7
  6
CONTINUOUS
 10
38.137716
 20
179.849721
 11
78.762716
 21
179.849721
  0
LINE
  8
1
 62
7
  6
CONTINUOUS
 10
124.137716
 20
181.099721
 11
122.432185
 21
181.099721
  0
LINE
  8
1
 62
7
  6
CONTINUOUS
 10
122.137716
 20
205.349721
 11
83.512716
 21
205.349721
  0
LINE
  8
1
 62
7
  6
CONTINUOUS
 10
38.137716
 20
185.349721
 11
38.137716
 21
179.849721
  0
LINE
  8
1
 62
7
  6
CONTINUOUS
 10
124.137716
 20
185.349721
 11
124.137716
 21
179.849721
  0
LINE
  8
1
 62
7
  6
CONTINUOUS
 10
124.137716
 20
185.349721
 11
118.737716
 21
185.349721
  0
LINE
  8
1
 62
7
  6
CONTINUOUS
 10
38.137716
 20
185.349721
 11
43.537716
 21
185.349721
  0
LINE
  8
1
 62
7
  6
CONTINUOUS
 10
43.537716
 20
185.349721
 11
78.362716
 21
185.349721
  0
LINE
  8
1
 62
7
  6
CONTINUOUS
 10
117.562952
 20
185.349721
 11
118.737716
 21
185.349721
  0
LINE
  8
1
 62
7
  6
CONTINUOUS
 10
118.737716
 20
185.349721
 11
118.737716
 21
191.349721
  0
LINE
  8
1
 62
7
  6
CONTINUOUS
 10
43.537716
 20
185.349721
 11
43.537716
 21
200.849721
  0
LINE
  8
1
 62
7
  6
CONTINUOUS
 10
118.737716
 20
185.349721
 11
122.432185
 21
181.099721
  0
LINE
  8
1
 62
7
  6
CONTINUOUS
 10
122.432185
 20
181.099721
 11
83.512716
 21
181.099721
  0
LINE
  8
1
 62
7
  6
CONTINUOUS
 10
78.762716
 20
204.999721
 11
80.012716
 21
204.999721
  0
LINE
  8
1
 62
7
  6
CONTINUOUS
 10
83.512716
 20
204.999721
 11
83.512716
 21
205.349721
  0
LINE
  8
1
 62
7
  6
CONTINUOUS
 10
78.762716
 20
204.999721
 11
78.762716
 21
205.349721
  0
LINE
  8
1
 62
7
  6
CONTINUOUS
 10
78.762716
 20
205.349721
 11
40.137716
 21
205.349721
  0
LINE
  8
1
 62
7
  6
CONTINUOUS
 10
78.762716
 20
183.499721
 11
78.362716
 21
183.499721
  0
LINE
  8
1
 62
7
  6
CONTINUOUS
 10
78.762716
 20
180.199721
 11
80.012716
 21
180.199721
  0
LINE
  8
1
 62
7
  6
CONTINUOUS
 10
83.512716
 20
180.199721
 11
83.512716
 21
179.849721
  0
LINE
  8
1
 62
7
  6
CONTINUOUS
 10
83.512716
 20
179.849721
 11
124.137716
 21
179.849721
  0
LINE
  8
1
 62
7
  6
CONTINUOUS
 10
78.762716
 20
180.199721
 11
78.762716
 21
179.849721
  0
LINE
  8
1
 62
7
  6
CONTINUOUS
 10
78.762716
 20
179.849721
 11
83.512716
 21
179.849721
  0
LINE
  8
1
 62
7
  6
CONTINUOUS
 10
83.912716
 20
185.349721
 11
83.912716
 21
183.499721
  0
LINE
  8
1
 62
7
  6
CONTINUOUS
 10
83.912716
 20
185.349721
 11
117.562952
 21
185.349721
  0
LINE
  8
1
 62
7
  6
CONTINUOUS
 10
78.362716
 20
185.349721
 11
78.362716
 21
183.499721
  0
LINE
  8
1
 62
7
  6
DASHDOT
 10
71.637716
 20
191.149721
 11
71.637716
 21
185.023712
  0
LINE
  8
1
 62
7
  6
CONTINUOUS
 10
69.887716
 20
193.349721
 11
73.387716
 21
193.349721
  0
LINE
  8
1
 62
7
  6
CONTINUOUS
 10
70.926947
 20
195.149721
 11
72.348486
 21
195.149721
  0
LINE
  8
1
 62
7
  6
CONTINUOUS
 10
70.407331
 20
194.249721
 11
72.868101
 21
194.249721
  0
LINE
  8
1
 62
7
  6
DASHDOT
 10
72.437716
 20
188.349721
 11
70.637716
 21
188.349721
  0
LINE
  8
1
 62
7
  6
DASHDOT
 10
40.637716
 20
201.429971
 11
40.637716
 21
206.404480
  0
LINE
  8
1
 62
7
  6
DASHDOT
 10
121.637716
 20
206.625533
 11
121.637716
 21
200.728947
  0
LINE
  8
1
 62
7
  6
DASHDOT
 10
40.637716
 20
186.233404
 11
40.637716
 21
178.630617
  0
LINE
  8
1
 62
7
  6
DASHDOT
 10
121.637716
 20
186.427439
 11
121.637716
 21
178.504162
  0
LINE
  8
1
 62
7
  6
CONTINUOUS
 10
87.637716
 20
199.849721
 11
89.137716
 21
199.849721
  0
LINE
  8
1
 62
7
  6
CONTINUOUS
 10
89.137716
 20
199.849721
 11
89.137716
 21
200.849721
  0
LINE
  8
1
 62
7
  6
CONTINUOUS
 10
89.137716
 20
200.849721
 11
87.637716
 21
200.849721
  0
LINE
  8
1
 62
7
  6
CONTINUOUS
 10
87.637716
 20
200.849721
 11
87.637716
 21
199.849721
  0
LINE
  8
1
 62
7
  6
CONTINUOUS
 10
87.637716
 20
186.849721
 11
89.137716
 21
186.849721
  0
LINE
  8
1
 62
7
  6
CONTINUOUS
 10
89.137716
 20
186.849721
 11
89.137716
 21
187.849721
  0
LINE
  8
1
 62
7
  6
CONTINUOUS
 10
89.137716
 20
187.849721
 11
87.637716
 21
187.849721
  0
LINE
  8
1
 62
7
  6
CONTINUOUS
 10
87.637716
 20
187.849721
 11
87.637716
 21
186.849721
  0
LINE
  8
1
 62
7
  6
CONTINUOUS
 10
118.937716
 20
196.349721
 11
118.937716
 21
191.349721
  0
LINE
  8
1
 62
7
  6
CONTINUOUS
 10
118.737716
 20
196.349721
 11
118.737716
 21
200.849721
  0
LINE
  8
1
 62
7
  6
CONTINUOUS
 10
95.137716
 20
92.339577
 11
67.137716
 21
92.339577
  0
LINE
  8
1
 62
7
  6
DASHDOT
 10
76.137716
 20
89.339577
 11
86.137716
 21
89.339577
  0
LINE
  8
1
 62
7
  6
DASHDOT
 10
86.137716
 20
89.339577
 11
86.137716
 21
91.339577
  0
LINE
  8
1
 62
7
  6
DASHDOT
 10
86.137716
 20
91.339577
 11
76.137716
 21
91.339577
  0
LINE
  8
1
 62
7
  6
DASHDOT
 10
76.137716
 20
91.339577
 11
76.137716
 21
89.339577
  0
LINE
  8
1
 62
7
  6
CONTINUOUS
 10
35.810809
 20
169.958117
 11
62.701954
 21
169.958117
  0
LINE
  8
1
 62
7
  6
CONTINUOUS
 10
35.810809
 20
163.958117
 11
62.291479
 21
163.958117
  0
LINE
  8
1
 62
7
  6
CONTINUOUS
 10
54.791384
 20
152.617191
 11
72.067642
 21
152.617191
  0
ARC
  8
1
 62
7
  6
DASHDOT
 10
81.137716
 20
102.839577
 40
40.500000
 50
-142.560058
 51
-130.114030
  0
ARC
  8
1
 62
7
  6
CONTINUOUS
 10
81.137716
 20
102.839577
 40
17.500000
 50
55.952268
 51
124.047732
  0
ARC
  8
1
 62
7
  6
CONTINUOUS
 10
171.121232
 20
128.657350
 40
12.313222
 50
-81.487327
 51
-81.342977
  0
ARC
  8
1
 62
7
  6
CONTINUOUS
 10
172.987135
 20
116.258999
 40
0.225760
 50
93.180459
 51
-88.699589
  0
ARC
  8
1
 62
7
  6
CONTINUOUS
 10
173.047125
 20
116.759916
 40
0.298536
 50
116.442505
 51
-110.221655
  0
ARC
  8
1
 62
7
  6
CONTINUOUS
 10
173.022404
 20
117.249190
 40
0.246945
 50
121.603600
 51
-115.990387
  0
ARC
  8
1
 62
7
  6
CONTINUOUS
 10
171.947358
 20
126.764723
 40
10.782176
 50
-84.438739
 51
-47.421469
  0
ARC
  8
1
 62
7
  6
CONTINUOUS
 10
171.121232
 20
128.657350
 40
12.313222
 50
-81.342977
 51
-48.274653
  0
ARC
  8
1
 62
7
  6
CONTINUOUS
 10
171.824343
 20
127.301151
 40
10.331575
 50
-83.944789
 51
-44.109078
  0
ARC
  8
1
 62
7
  6
CONTINUOUS
 10
171.195505
 20
128.270415
 40
10.943360
 50
-81.076480
 51
-42.664169
  0
ARC
  8
1
 62
7
  6
DASHDOT
 10
81.137716
 20
102.839577
 40
40.500000
 50
-148.220784
 51
-142.560058
  0
ARC
  8
1
 62
7
  6
DASHDOT
 10
81.137716
 20
102.839577
 40
40.500000
 50
-37.410596
 51
-31.583048
  0
ARC
  8
1
 62
7
  6
CONTINUOUS
 10
54.913745
 20
110.170696
 40
10.409144
 50
105.064632
 51
114.599169
  0
ARC
  8
1
 62
7
  6
CONTINUOUS
 10
81.137716
 20
102.839577
 40
17.500000
 50
0.000000
 51
55.952268
  0
ARC
  8
1
 62
7
  6
CONTINUOUS
 10
81.137716
 20
102.839577
 40
17.500000
 50
-36.869898
 51
-0.000000
  0
ARC
  8
1
 62
7
  6
CONTINUOUS
 10
81.172516
 20
102.867611
 40
20.455388
 50
-44.728878
 51
42.159849
  0
ARC
  8
1
 62
7
  6
CONTINUOUS
 10
81.137716
 20
102.839577
 40
20.500000
 50
-165.356719
 51
-66.892892
  0
ARC
  8
1
 62
7
  6
CONTINUOUS
 10
81.137716
 20
102.839577
 40
20.500000
 50
72.030246
 51
172.740681
  0
ARC
  8
1
 62
7
  6
CONTINUOUS
 10
81.137716
 20
102.839577
 40
21.250000
 50
-50.391352
 51
42.258947
  0
ARC
  8
1
 62
7
  6
CONTINUOUS
 10
81.137716
 20
102.839577
 40
21.250000
 50
-170.780712
 51
-66.786591
  0
ARC
  8
1
 62
7
  6
CONTINUOUS
 10
103.074237
 20
88.648140
 40
19.008865
 50
-159.511896
 51
-146.388767
  0
ARC
  8
1
 62
7
  6
CONTINUOUS
 10
81.137716
 20
102.839577
 40
21.250000
 50
115.373388
 51
172.846982
  0
ARC
  8
1
 62
7
  6
CONTINUOUS
 10
85.064214
 20
106.101186
 40
31.170872
 50
3.655855
 51
8.694581
  0
ARC
  8
1
 62
7
  6
CONTINUOUS
 10
85.453045
 20
100.113149
 40
31.170872
 50
-68.344145
 51
-63.118150
  0
ARC
  8
1
 62
7
  6
CONTINUOUS
 10
79.878238
 20
97.892944
 40
31.170872
 50
-140.344145
 51
-135.239089
  0
ARC
  8
1
 62
7
  6
CONTINUOUS
 10
76.043988
 20
102.508818
 40
31.170872
 50
151.517996
 51
152.881850
  0
ARC
  8
1
 62
7
  6
CONTINUOUS
 10
79.249097
 20
107.581791
 40
31.170872
 50
75.655855
 51
80.881850
  0
ARC
  8
1
 62
7
  6
CONTINUOUS
 10
101.413333
 20
119.317053
 40
19.008865
 50
-87.511896
 51
-45.404988
  0
ARC
  8
1
 62
7
  6
CONTINUOUS
 10
106.662478
 20
112.322641
 40
10.409144
 50
-38.935368
 51
-24.000682
  0
ARC
  8
1
 62
7
  6
CONTINUOUS
 10
77.243403
 20
131.012024
 40
24.714811
 50
-20.542422
 51
-9.830499
  0
ARC
  8
1
 62
7
  6
CONTINUOUS
 10
104.889328
 20
125.458498
 40
3.553819
 50
82.062946
 51
157.955067
  0
ARC
  8
1
 62
7
  6
CONTINUOUS
 10
103.074237
 20
88.648140
 40
19.008865
 50
-136.923264
 51
-117.404988
  0
ARC
  8
1
 62
7
  6
CONTINUOUS
 10
98.044231
 20
81.494514
 40
10.409144
 50
-110.935368
 51
-96.000682
  0
ARC
  8
1
 62
7
  6
CONTINUOUS
 10
108.506080
 20
107.269698
 40
17.013194
 50
-108.988076
 51
-101.222801
  0
ARC
  8
1
 62
7
  6
CONTINUOUS
 10
106.727896
 20
115.249054
 40
24.714811
 50
-93.556211
 51
-81.830499
  0
ARC
  8
1
 62
7
  6
CONTINUOUS
 10
109.989239
 20
87.240083
 40
3.553819
 50
10.062946
 51
85.955067
  0
ARC
  8
1
 62
7
  6
CONTINUOUS
 10
108.506080
 20
107.269698
 40
17.013194
 50
-108.988076
 51
-101.222801
  0
ARC
  8
1
 62
7
  6
CONTINUOUS
 10
108.506080
 20
107.269698
 40
17.013194
 50
-120.817520
 51
-116.606910
  0
ARC
  8
1
 62
7
  6
CONTINUOUS
 10
108.506080
 20
107.269698
 40
17.013194
 50
-120.817520
 51
-116.606910
  0
ARC
  8
1
 62
7
  6
CONTINUOUS
 10
108.506080
 20
107.269698
 40
17.013194
 50
-116.606910
 51
-108.988076
  0
ARC
  8
1
 62
7
  6
CONTINUOUS
 10
108.506080
 20
107.269698
 40
17.013194
 50
-116.606910
 51
-108.988076
  0
ARC
  8
1
 62
7
  6
CONTINUOUS
 10
66.061755
 20
80.164539
 40
10.409144
 50
177.064632
 51
-168.000682
  0
ARC
  8
1
 62
7
  6
CONTINUOUS
 10
93.808301
 20
78.179699
 40
17.013194
 50
179.011924
 51
-173.222801
  0
ARC
  8
1
 62
7
  6
CONTINUOUS
 10
100.847631
 20
82.336609
 40
24.714811
 50
-165.556211
 51
-153.830499
  0
ARC
  8
1
 62
7
  6
CONTINUOUS
 10
75.217326
 20
70.579639
 40
3.553819
 50
-61.937054
 51
13.955067
  0
ARC
  8
1
 62
7
  6
CONTINUOUS
 10
74.419615
 20
77.591311
 40
19.008865
 50
128.488104
 51
170.595012
  0
ARC
  8
1
 62
7
  6
CONTINUOUS
 10
93.808301
 20
78.179699
 40
17.013194
 50
179.011924
 51
-173.222801
  0
ARC
  8
1
 62
7
  6
CONTINUOUS
 10
93.808301
 20
78.179699
 40
17.013194
 50
167.182480
 51
171.393090
  0
ARC
  8
1
 62
7
  6
CONTINUOUS
 10
93.808301
 20
78.179699
 40
17.013194
 50
167.182480
 51
171.393090
  0
ARC
  8
1
 62
7
  6
CONTINUOUS
 10
93.808301
 20
78.179699
 40
17.013194
 50
171.393090
 51
179.011924
  0
ARC
  8
1
 62
7
  6
CONTINUOUS
 10
93.808301
 20
78.179699
 40
17.013194
 50
171.393090
 51
179.011924
  0
ARC
  8
1
 62
7
  6
CONTINUOUS
 10
61.600204
 20
83.168814
 40
17.013194
 50
107.011924
 51
114.777199
  0
ARC
  8
1
 62
7
  6
CONTINUOUS
 10
67.728933
 20
77.758569
 40
24.714811
 50
122.443789
 51
134.169501
  0
ARC
  8
1
 62
7
  6
CONTINUOUS
 10
48.627191
 20
98.501334
 40
3.553819
 50
-133.937054
 51
-58.044933
  0
ARC
  8
1
 62
7
  6
CONTINUOUS
 10
55.049181
 20
101.426728
 40
19.008865
 50
56.488104
 51
98.595012
  0
ARC
  8
1
 62
7
  6
CONTINUOUS
 10
61.600204
 20
83.168814
 40
17.013194
 50
107.011924
 51
114.777199
  0
ARC
  8
1
 62
7
  6
CONTINUOUS
 10
61.600204
 20
83.168814
 40
17.013194
 50
96.251396
 51
99.393090
  0
ARC
  8
1
 62
7
  6
CONTINUOUS
 10
61.600204
 20
83.168814
 40
17.013194
 50
99.393090
 51
107.011924
  0
ARC
  8
1
 62
7
  6
CONTINUOUS
 10
61.600204
 20
83.168814
 40
17.013194
 50
99.393090
 51
107.011924
  0
ARC
  8
1
 62
7
  6
CONTINUOUS
 10
80.006372
 20
130.045497
 40
10.409144
 50
33.064632
 51
47.999318
  0
ARC
  8
1
 62
7
  6
CONTINUOUS
 10
56.392285
 20
115.342256
 40
17.013194
 50
35.011924
 51
42.777199
  0
ARC
  8
1
 62
7
  6
CONTINUOUS
 10
53.140718
 20
107.841630
 40
24.714811
 50
50.443789
 51
62.169501
  0
ARC
  8
1
 62
7
  6
CONTINUOUS
 10
66.965497
 20
132.418334
 40
3.553819
 50
154.062946
 51
-130.044933
  0
ARC
  8
1
 62
7
  6
CONTINUOUS
 10
71.732216
 20
127.214655
 40
19.008865
 50
-14.860313
 51
26.595012
  0
ARC
  8
1
 62
7
  6
CONTINUOUS
 10
56.392285
 20
115.342256
 40
17.013194
 50
35.011924
 51
42.777199
  0
ARC
  8
1
 62
7
  6
CONTINUOUS
 10
81.137716
 20
102.839577
 40
21.250000
 50
66.584486
 51
115.373388
  0
ARC
  8
1
 62
7
  6
CONTINUOUS
 10
56.392285
 20
115.342256
 40
17.013194
 50
23.182480
 51
27.393090
  0
ARC
  8
1
 62
7
  6
CONTINUOUS
 10
56.392285
 20
115.342256
 40
17.013194
 50
23.182480
 51
27.393090
  0
ARC
  8
1
 62
7
  6
CONTINUOUS
 10
56.392285
 20
115.342256
 40
17.013194
 50
27.393090
 51
35.011924
  0
ARC
  8
1
 62
7
  6
CONTINUOUS
 10
56.392285
 20
115.342256
 40
17.013194
 50
27.393090
 51
35.011924
  0
ARC
  8
1
 62
7
  6
CONTINUOUS
 10
81.137716
 20
102.839577
 40
37.600000
 50
67.380655
 51
72.216340
  0
ARC
  8
1
 62
7
  6
CONTINUOUS
 10
81.137716
 20
102.839577
 40
38.100000
 50
72.328865
 51
80.000000
  0
ARC
  8
1
 62
7
  6
CONTINUOUS
 10
81.137716
 20
102.839577
 40
37.600000
 50
72.216340
 51
80.000000
  0
ARC
  8
1
 62
7
  6
CONTINUOUS
 10
81.137716
 20
102.839577
 40
37.600000
 50
80.000000
 51
81.134793
  0
ARC
  8
1
 62
7
  6
CONTINUOUS
 10
81.137716
 20
102.839577
 40
41.000000
 50
49.185529
 51
67.365825
  0
ARC
  8
1
 62
7
  6
CONTINUOUS
 10
81.137716
 20
102.839577
 40
35.650000
 50
49.278963
 51
66.254296
  0
ARC
  8
1
 62
7
  6
CONTINUOUS
 10
81.137716
 20
102.839577
 40
43.000000
 50
48.301667
 51
68.398586
  0
ARC
  8
1
 62
7
  6
CONTINUOUS
 10
81.137716
 20
102.839577
 40
35.650000
 50
66.254296
 51
80.490475
  0
ARC
  8
1
 62
7
  6
CONTINUOUS
 10
81.137716
 20
102.839577
 40
41.000000
 50
98.482567
 51
123.229747
  0
ARC
  8
1
 62
7
  6
CONTINUOUS
 10
81.137716
 20
102.839577
 40
35.650000
 50
80.490475
 51
124.409806
  0
ARC
  8
1
 62
7
  6
CONTINUOUS
 10
81.137716
 20
102.839577
 40
43.000000
 50
-31.333796
 51
-3.166204
  0
ARC
  8
1
 62
7
  6
CONTINUOUS
 10
121.637716
 20
102.839577
 40
3.750000
 50
140.703520
 51
-140.703520
  0
ARC
  8
1
 62
7
  6
CONTINUOUS
 10
81.137716
 20
102.839577
 40
43.000000
 50
-3.166204
 51
3.166204
  0
ARC
  8
1
 62
7
  6
CONTINUOUS
 10
121.637716
 20
102.839577
 40
3.750000
 50
104.651522
 51
140.703520
  0
ARC
  8
1
 62
7
  6
CONTINUOUS
 10
81.137716
 20
102.839577
 40
43.000000
 50
-86.833796
 51
-37.666204
  0
ARC
  8
1
 62
7
  6
CONTINUOUS
 10
114.514827
 20
79.900125
 40
3.750000
 50
106.203520
 51
-175.203520
  0
ARC
  8
1
 62
7
  6
CONTINUOUS
 10
114.514827
 20
79.900125
 40
3.750000
 50
70.151522
 51
106.203520
  0
ARC
  8
1
 62
7
  6
CONTINUOUS
 10
81.137716
 20
102.839577
 40
43.000000
 50
-37.666204
 51
-31.333796
  0
ARC
  8
1
 62
7
  6
CONTINUOUS
 10
47.760606
 20
79.900125
 40
3.750000
 50
-40.848478
 51
-4.796480
  0
ARC
  8
1
 62
7
  6
CONTINUOUS
 10
81.137716
 20
102.839577
 40
43.000000
 50
-148.666204
 51
-142.333796
  0
ARC
  8
1
 62
7
  6
CONTINUOUS
 10
47.760606
 20
79.900125
 40
3.750000
 50
-4.796480
 51
73.796480
  0
ARC
  8
1
 62
7
  6
CONTINUOUS
 10
81.137716
 20
102.839577
 40
43.000000
 50
-176.833796
 51
-148.666204
  0
ARC
  8
1
 62
7
  6
CONTINUOUS
 10
40.637716
 20
102.839577
 40
3.750000
 50
-75.348478
 51
-39.296480
  0
ARC
  8
1
 62
7
  6
CONTINUOUS
 10
81.137716
 20
102.839577
 40
43.000000
 50
176.833796
 51
-176.833796
  0
ARC
  8
1
 62
7
  6
CONTINUOUS
 10
40.637716
 20
102.839577
 40
3.750000
 50
-39.296480
 51
39.296480
  0
ARC
  8
1
 62
7
  6
CONTINUOUS
 10
81.137716
 20
102.839577
 40
43.000000
 50
134.671654
 51
176.833796
  0
ARC
  8
1
 62
7
  6
CONTINUOUS
 10
81.137716
 20
102.839577
 40
41.000000
 50
-27.111914
 51
-7.388086
  0
ARC
  8
1
 62
7
  6
CONTINUOUS
 10
81.137716
 20
102.839577
 40
41.000000
 50
-138.111914
 51
-98.689843
  0
ARC
  8
1
 62
7
  6
CONTINUOUS
 10
81.137716
 20
102.839577
 40
41.000000
 50
-172.611914
 51
-152.888086
  0
ARC
  8
1
 62
7
  6
CONTINUOUS
 10
121.637716
 20
102.839577
 40
3.750000
 50
-140.703520
 51
-104.651522
  0
ARC
  8
1
 62
7
  6
CONTINUOUS
 10
114.514827
 20
79.900125
 40
3.750000
 50
-175.203520
 51
-139.151522
  0
ARC
  8
1
 62
7
  6
CONTINUOUS
 10
47.760606
 20
79.900125
 40
3.750000
 50
73.796480
 51
109.848478
  0
ARC
  8
1
 62
7
  6
CONTINUOUS
 10
40.637716
 20
102.839577
 40
3.750000
 50
39.296480
 51
75.348478
  0
ARC
  8
1
 62
7
  6
CONTINUOUS
 10
81.137716
 20
102.839577
 40
43.000000
 50
20.416210
 51
20.772066
  0
ARC
  8
1
 62
7
  6
CONTINUOUS
 10
81.137716
 20
102.839577
 40
43.000000
 50
-142.333796
 51
-93.166204
  0
ARC
  8
1
 62
7
  6
CONTINUOUS
 10
81.137716
 20
102.839577
 40
43.000000
 50
26.387800
 51
26.594575
  0
ARC
  8
1
 62
7
  6
CONTINUOUS
 10
81.137716
 20
102.839577
 40
43.000000
 50
-93.166204
 51
-86.833796
  0
ARC
  8
1
 62
7
  6
CONTINUOUS
 10
81.137716
 20
102.839577
 40
43.000000
 50
97.900502
 51
115.664894
  0
ARC
  8
1
 62
7
  6
CONTINUOUS
 10
81.137716
 20
102.839577
 40
43.000000
 50
26.594575
 51
47.473178
  0
ARC
  8
1
 62
7
  6
CONTINUOUS
 10
81.137716
 20
102.839577
 40
43.000000
 50
124.313420
 51
125.278393
  0
ARC
  8
1
 62
7
  6
CONTINUOUS
 10
81.137716
 20
102.839577
 40
43.000000
 50
125.278393
 51
134.671654
  0
ARC
  8
1
 62
7
  6
CONTINUOUS
 10
81.137716
 20
102.839577
 40
43.000000
 50
47.473178
 51
48.301667
  0
ARC
  8
1
 62
7
  6
CONTINUOUS
 10
81.137716
 20
102.839577
 40
43.000000
 50
115.664894
 51
124.313420
  0
ARC
  8
1
 62
7
  6
CONTINUOUS
 10
81.137716
 20
102.839577
 40
43.000000
 50
20.772066
 51
21.258303
  0
ARC
  8
1
 62
7
  6
CONTINUOUS
 10
81.137716
 20
102.839577
 40
43.000000
 50
26.222647
 51
26.387800
  0
ARC
  8
1
 62
7
  6
CONTINUOUS
 10
81.137716
 20
102.839577
 40
43.000000
 50
82.035485
 51
82.444498
  0
ARC
  8
1
 62
7
  6
CONTINUOUS
 10
81.137716
 20
102.839577
 40
43.000000
 50
93.700148
 51
97.467424
  0
ARC
  8
1
 62
7
  6
CONTINUOUS
 10
81.137716
 20
102.839577
 40
43.000000
 50
97.467424
 51
97.900502
  0
ARC
  8
1
 62
7
  6
CONTINUOUS
 10
81.137716
 20
102.839577
 40
43.000000
 50
81.034255
 51
82.035485
  0
ARC
  8
1
 62
7
  6
CONTINUOUS
 10
81.137716
 20
102.839577
 40
43.000000
 50
80.320674
 51
81.034255
  0
ARC
  8
1
 62
7
  6
CONTINUOUS
 10
81.137716
 20
102.839577
 40
43.000000
 50
73.198778
 51
80.320674
  0
ARC
  8
1
 62
7
  6
CONTINUOUS
 10
81.137716
 20
143.339577
 40
4.500000
 50
-51.926877
 51
-13.808831
  0
ARC
  8
1
 62
7
  6
CONTINUOUS
 10
81.137716
 20
102.839577
 40
41.000000
 50
98.482567
 51
98.731701
  0
ARC
  8
1
 62
7
  6
CONTINUOUS
 10
81.137716
 20
102.839577
 40
41.000000
 50
80.777506
 51
81.517433
  0
ARC
  8
1
 62
7
  6
CONTINUOUS
 10
81.137716
 20
102.839577
 40
43.000000
 50
86.299852
 51
93.700148
  0
ARC
  8
1
 62
7
  6
CONTINUOUS
 10
81.137716
 20
143.339577
 40
4.500000
 50
-166.191169
 51
-128.073123
  0
ARC
  8
1
 62
7
  6
CONTINUOUS
 10
81.137716
 20
102.839577
 40
43.000000
 50
82.444498
 51
86.299852
  0
ARC
  8
1
 62
7
  6
CONTINUOUS
 10
81.137716
 20
143.339577
 40
4.500000
 50
-128.073123
 51
-51.926877
  0
ARC
  8
1
 62
7
  6
CONTINUOUS
 10
81.137716
 20
102.839577
 40
43.000000
 50
21.258303
 51
26.222647
  0
ARC
  8
1
 62
7
  6
CONTINUOUS
 10
81.137716
 20
102.839577
 40
19.500000
 50
-26.246295
 51
38.246620
  0
ARC
  8
1
 62
7
  6
CONTINUOUS
 10
81.137716
 20
102.839577
 40
19.500000
 50
90.000000
 51
168.834655
  0
ARC
  8
1
 62
7
  6
CONTINUOUS
 10
81.137716
 20
102.839577
 40
19.500000
 50
-145.500000
 51
-70.798918
  0
ARC
  8
1
 62
7
  6
CONTINUOUS
 10
81.137716
 20
102.839577
 40
35.650000
 50
124.409806
 51
150.524884
  0
ARC
  8
1
 62
7
  6
CONTINUOUS
 10
81.137716
 20
102.839577
 40
35.650000
 50
155.841916
 51
-91.857500
  0
ARC
  8
1
 62
7
  6
CONTINUOUS
 10
81.137716
 20
102.839577
 40
41.000000
 50
123.229747
 51
144.499800
  0
ARC
  8
1
 62
7
  6
CONTINUOUS
 10
81.137716
 20
102.839577
 40
41.000000
 50
154.800230
 51
172.611914
  0
ARC
  8
1
 62
7
  6
CONTINUOUS
 10
81.137716
 20
102.839577
 40
41.000000
 50
7.388086
 51
18.428986
  0
ARC
  8
1
 62
7
  6
CONTINUOUS
 10
81.137716
 20
102.839577
 40
41.000000
 50
32.116707
 51
49.185529
  0
ARC
  8
1
 62
7
  6
CONTINUOUS
 10
81.137716
 20
102.839577
 40
35.650000
 50
33.160387
 51
49.278963
  0
ARC
  8
1
 62
7
  6
CONTINUOUS
 10
81.137716
 20
102.839577
 40
35.650000
 50
-0.000000
 51
23.999716
  0
ARC
  8
1
 62
7
  6
CONTINUOUS
 10
81.137716
 20
102.839577
 40
41.000000
 50
-79.908485
 51
-41.888086
  0
ARC
  8
1
 62
7
  6
CONTINUOUS
 10
81.137716
 20
102.839577
 40
35.650000
 50
-83.806679
 51
0.000000
  0
ARC
  8
1
 62
7
  6
CONTINUOUS
 10
81.137716
 20
102.839577
 40
43.000000
 50
3.166204
 51
20.416210
  0
ARC
  8
1
 62
7
  6
CONTINUOUS
 10
81.137716
 20
102.839577
 40
17.500000
 50
-143.130102
 51
-124.047732
  0
ARC
  8
1
 62
7
  6
CONTINUOUS
 10
81.137716
 20
102.839577
 40
17.500000
 50
-55.952268
 51
-36.869898
  0
ARC
  8
1
 62
7
  6
CONTINUOUS
 10
81.137716
 20
102.839577
 40
17.500000
 50
124.047732
 51
-143.130102
  0
ARC
  8
1
 62
7
  6
CONTINUOUS
 10
81.921003
 20
98.587020
 40
59.805027
 50
-99.491828
 51
-81.318875
  0
CIRCLE
  8
1
 62
7
  6
CONTINUOUS
 10
71.637716
 20
188.349721
 40
1.000000
  0
CIRCLE
  8
1
 62
7
  6
CONTINUOUS
 10
95.987716
 20
193.849721
 40
1.825000
  0
CIRCLE
  8
1
 62
7
  6
CONTINUOUS
 10
114.514827
 20
79.900125
 40
1.125000
  0
CIRCLE
  8
1
 62
7
  6
CONTINUOUS
 10
47.760606
 20
79.900125
 40
1.125000
  0
CIRCLE
  8
1
 62
7
  6
CONTINUOUS
 10
40.637716
 20
102.839577
 40
1.125000
  0
CIRCLE
  8
1
 62
7
  6
CONTINUOUS
 10
81.137716
 20
143.339577
 40
1.125000
  0
CIRCLE
  8
1
 62
7
  6
CONTINUOUS
 10
121.637716
 20
102.839577
 40
1.125000
  0
CIRCLE
  8
1
 62
7
  6
CONTINUOUS
 10
81.137716
 20
62.339577
 40
1.125000
  0
CIRCLE
  8
1
 62
7
  6
CONTINUOUS
 10
90.403816
 20
143.430599
 40
0.250000
  0
CIRCLE
  8
1
 62
7
  6
CONTINUOUS
 10
71.637716
 20
193.749721
 40
2.500000
  0
CIRCLE
  8
1
 62
7
  6
CONTINUOUS
 10
71.637716
 20
188.349721
 40
2.800000
  0
CIRCLE
  8
1
 62
7
  6
CONTINUOUS
 10
71.637716
 20
188.349721
 40
0.800000
  0
ARC
  8
1
 62
7
  6
CONTINUOUS
 10
64.596657
 20
140.302426
 40
32.469119
 50
3.532738
 51
4.446283
  0
ARC
  8
1
 62
7
  6
CONTINUOUS
 10
86.560681
 20
141.656535
 40
10.463393
 50
0.739711
 51
3.542932
  0
ARC
  8
1
 62
7
  6
CONTINUOUS
 10
91.104365
 20
141.713509
 40
5.919353
 50
-4.103345
 51
0.756077
  0
ARC
  8
1
 62
7
  6
CONTINUOUS
 10
93.051192
 20
141.573118
 40
3.967470
 50
-11.192048
 51
-4.092888
  0
ARC
  8
1
 62
7
  6
CONTINUOUS
 10
94.022542
 20
141.381658
 40
2.977432
 50
-27.407466
 51
-11.205863
  0
ARC
  8
1
 62
7
  6
CONTINUOUS
 10
91.212774
 20
142.792286
 40
6.121290
 50
-30.401243
 51
-27.022893
  0
ARC
  8
1
 62
7
  6
CONTINUOUS
 10
74.886129
 20
152.366021
 40
25.047878
 50
-31.223977
 51
-30.390338
  0
ARC
  8
1
 62
7
  6
CONTINUOUS
 10
107.123706
 20
132.823487
 40
12.650557
 50
148.774781
 51
150.424935
  0
ARC
  8
1
 62
7
  6
CONTINUOUS
 10
100.410593
 20
136.633202
 40
4.931760
 50
150.424935
 51
154.618738
  0
ARC
  8
1
 62
7
  6
CONTINUOUS
 10
99.318839
 20
137.151168
 40
3.723367
 50
154.618738
 51
164.677792
  0
ARC
  8
1
 62
7
  6
CONTINUOUS
 10
101.330365
 20
136.600038
 40
5.809027
 50
164.677792
 51
171.144755
  0
ARC
  8
1
 62
7
  6
CONTINUOUS
 10
102.250132
 20
136.456743
 40
6.739890
 50
171.144755
 51
176.808533
  0
ARC
  8
1
 62
7
  6
CONTINUOUS
 10
113.499820
 20
135.829468
 40
18.007053
 50
176.808533
 51
178.963112
  0
ARC
  8
1
 62
7
  6
CONTINUOUS
 10
119.233397
 20
135.725695
 40
23.741569
 50
178.963112
 51
-179.386555
  0
ARC
  8
1
 62
7
  6
CONTINUOUS
 10
48.423880
 20
142.958931
 40
39.485432
 50
3.028115
 51
3.419655
  0
ARC
  8
1
 62
7
  6
CONTINUOUS
 10
74.812753
 20
144.354671
 40
13.059674
 50
1.848364
 51
3.029111
  0
ARC
  8
1
 62
7
  6
CONTINUOUS
 10
80.142241
 20
144.526440
 40
7.727418
 50
-0.136308
 51
1.849995
  0
ARC
  8
1
 62
7
  6
CONTINUOUS
 10
82.441208
 20
144.520831
 40
5.428444
 50
-2.946768
 51
-0.134834
  0
ARC
  8
1
 62
7
  6
CONTINUOUS
 10
83.716802
 20
144.454974
 40
4.151152
 50
-14.253123
 51
-2.944087
  0
ARC
  8
1
 62
7
  6
CONTINUOUS
 10
80.069774
 20
145.337062
 40
7.903207
 50
-17.993338
 51
-13.941491
  0
ARC
  8
1
 62
7
  6
CONTINUOUS
 10
61.572126
 20
151.340089
 40
27.350554
 50
-19.163322
 51
-17.983684
  0
ARC
  8
1
 62
7
  6
CONTINUOUS
 10
106.058851
 20
135.879807
 40
19.746038
 50
160.835883
 51
162.469162
  0
ARC
  8
1
 62
7
  6
CONTINUOUS
 10
94.012593
 20
139.685107
 40
7.113040
 50
162.469162
 51
166.968310
  0
ARC
  8
1
 62
7
  6
CONTINUOUS
 10
92.188373
 20
140.107324
 40
5.240596
 50
166.968310
 51
174.110606
  0
ARC
  8
1
 62
7
  6
CONTINUOUS
 10
95.812515
 20
139.733483
 40
8.883968
 50
174.110606
 51
178.333687
  0
ARC
  8
1
 62
7
  6
CONTINUOUS
 10
95.937352
 20
139.729852
 40
9.008858
 50
178.333687
 51
-177.466516
  0
ARC
  8
1
 62
7
  6
CONTINUOUS
 10
115.850119
 20
140.610922
 40
28.941108
 50
-177.466516
 51
-176.148278
  0
ARC
  8
1
 62
7
  6
CONTINUOUS
 10
114.249651
 20
140.503167
 40
27.337017
 50
-176.148278
 51
-174.745568
  0
ARC
  8
1
 62
7
  6
CONTINUOUS
 10
194.992580
 20
142.339577
 40
0.500000
 50
90.000000
 51
180.000000
  0
ARC
  8
1
 62
7
  6
CONTINUOUS
 10
194.992580
 20
57.339577
 40
0.500000
 50
180.000000
 51
-90.000000
  0
ARC
  8
1
 62
7
  6
CONTINUOUS
 10
195.492580
 20
58.839577
 40
2.000000
 50
-90.000000
 51
0.000000
  0
ARC
  8
1
 62
7
  6
CONTINUOUS
 10
195.492580
 20
140.839577
 40
2.000000
 50
0.000000
 51
90.000000
  0
ARC
  8
1
 62
7
  6
CONTINUOUS
 10
97.630139
 20
115.839577
 40
1.500000
 50
90.000000
 51
149.659087
  0
ARC
  8
1
 62
7
  6
CONTINUOUS
 10
88.044290
 20
83.007804
 40
1.500000
 50
-26.965419
 51
40.613549
  0
ARC
  8
1
 62
7
  6
CONTINUOUS
 10
60.535195
 20
106.906038
 40
1.500000
 50
-147.300000
 51
-79.752878
  0
ARC
  8
1
 62
7
  6
CONTINUOUS
 10
84.287716
 20
120.289577
 40
0.500000
 50
-38.600332
 51
0.000000
  0
ARC
  8
1
 62
7
  6
CONTINUOUS
 10
85.787716
 20
120.789577
 40
1.000000
 50
90.000000
 51
180.000000
  0
ARC
  8
1
 62
7
  6
CONTINUOUS
 10
120.309784
 20
97.760296
 40
1.500000
 50
-7.388086
 51
75.348478
  0
ARC
  8
1
 62
7
  6
CONTINUOUS
 10
120.309784
 20
107.918859
 40
1.500000
 50
-75.348478
 51
7.388086
  0
ARC
  8
1
 62
7
  6
CONTINUOUS
 10
116.297380
 20
84.838242
 40
1.500000
 50
-109.848478
 51
-27.111914
  0
ARC
  8
1
 62
7
  6
CONTINUOUS
 10
110.543507
 20
76.466305
 40
1.500000
 50
-41.888086
 51
40.848478
  0
ARC
  8
1
 62
7
  6
CONTINUOUS
 10
51.731926
 20
76.466305
 40
1.500000
 50
139.151522
 51
-138.111914
  0
ARC
  8
1
 62
7
  6
CONTINUOUS
 10
45.978053
 20
84.838242
 40
1.500000
 50
-152.888086
 51
-70.151522
  0
ARC
  8
1
 62
7
  6
CONTINUOUS
 10
41.965648
 20
97.760296
 40
1.500000
 50
104.651522
 51
-172.611914
  0
ARC
  8
1
 62
7
  6
CONTINUOUS
 10
41.965648
 20
107.918859
 40
1.500000
 50
172.611914
 51
-104.651522
  0
ARC
  8
1
 62
7
  6
CONTINUOUS
 10
75.169836
 20
63.793010
 40
1.500000
 50
-98.689843
 51
-40.000000
  0
ARC
  8
1
 62
7
  6
CONTINUOUS
 10
85.637716
 20
120.839577
 40
1.000000
 50
90.000000
 51
180.000000
  0
ARC
  8
1
 62
7
  6
CONTINUOUS
 10
84.137716
 20
120.339577
 40
0.500000
 50
-41.125037
 51
0.000000
  0
ARC
  8
1
 62
7
  6
CONTINUOUS
 10
75.311131
 20
141.907479
 40
1.500000
 50
13.808831
 51
98.482567
  0
ARC
  8
1
 62
7
  6
CONTINUOUS
 10
86.964301
 20
141.907479
 40
1.500000
 50
81.517433
 51
166.191169
  0
ARC
  8
1
 62
7
  6
CONTINUOUS
 10
49.590819
 20
125.341927
 40
2.250000
 50
144.499800
 51
-147.300000
  0
ARC
  8
1
 62
7
  6
CONTINUOUS
 10
45.396980
 20
119.657716
 40
1.500000
 50
32.700000
 51
154.800230
  0
ARC
  8
1
 62
7
  6
CONTINUOUS
 10
60.535195
 20
106.906038
 40
1.500000
 50
-79.752878
 51
-11.165345
  0
ARC
  8
1
 62
7
  6
CONTINUOUS
 10
88.044290
 20
83.007804
 40
1.500000
 50
40.613549
 51
109.201082
  0
ARC
  8
1
 62
7
  6
CONTINUOUS
 10
114.592910
 20
123.839577
 40
1.500000
 50
-90.000000
 51
32.116707
  0
ARC
  8
1
 62
7
  6
CONTINUOUS
 10
117.900469
 20
115.089577
 40
2.250000
 50
18.428986
 51
90.000000
  0
ARC
  8
1
 62
7
  6
CONTINUOUS
 10
87.752306
 20
65.673602
 40
3.250000
 50
153.034581
 51
-79.908485
  0
ARC
  8
1
 62
7
  6
CONTINUOUS
 10
97.630139
 20
115.839577
 40
1.500000
 50
149.659087
 51
-141.753380
  0
ARC
  8
1
 62
7
  6
CONTINUOUS
 10
118.187716
 20
200.349721
 40
0.250000
 50
0.000000
 51
90.000000
  0
ARC
  8
1
 62
7
  6
CONTINUOUS
 10
118.187716
 20
187.349721
 40
0.250000
 50
-90.000000
 51
0.000000
  0
ARC
  8
1
 62
7
  6
CONTINUOUS
 10
118.187716
 20
135.316956
 40
0.250000
 50
0.000000
 51
51.500000
  0
ARC
  8
1
 62
7
  6
CONTINUOUS
 10
105.650412
 20
145.289577
 40
0.250000
 50
51.500000
 51
90.000000
  0
ARC
  8
1
 62
7
  6
CONTINUOUS
 10
38.637716
 20
202.849721
 40
0.500000
 50
180.000000
 51
-90.000000
  0
ARC
  8
1
 62
7
  6
CONTINUOUS
 10
123.637716
 20
202.849721
 40
0.500000
 50
-90.000000
 51
0.000000
  0
ARC
  8
1
 62
7
  6
CONTINUOUS
 10
122.137716
 20
203.349721
 40
2.000000
 50
0.000000
 51
90.000000
  0
ARC
  8
1
 62
7
  6
CONTINUOUS
 10
40.137716
 20
203.349721
 40
2.000000
 50
90.000000
 51
180.000000
  0
LINE
  8
1
 62
7
  6
CONTINUOUS
 10
72.067642
 20
152.617191
 11
78.073617
 21
131.596280
  0
CIRCLE
  8
1
 62
7
  6
CONTINUOUS
 10
78.073617
 20
131.596280
 40
0.875000
  0
LINE
  8
1
 62
7
  6
CONTINUOUS
 10
128.546657
 20
86.863263
 11
93.117625
 21
100.509362
  0
CIRCLE
  8
1
 62
7
  6
CONTINUOUS
 10
93.117625
 20
100.509362
 40
0.875000
  0
LINE
  8
1
 62
7
  6
CONTINUOUS
 10
62.701954
 20
169.958117
 11
71.238367
 21
187.432923
  0
LINE
  8
1
 62
7
  6
CONTINUOUS
 10
70.116147
 20
184.085842
 11
69.288098
 21
184.490343
  0
LINE
  8
1
 62
7
  6
CONTINUOUS
 10
69.288098
 20
184.490343
 11
71.238367
 21
187.432923
  0
LINE
  8
1
 62
7
  6
CONTINUOUS
 10
71.238367
 20
187.432923
 11
70.116147
 21
184.085842
  0
LINE
  8
1
 62
7
  6
CONTINUOUS
 10
83.295998
 20
219.418441
 11
89.585092
 21
195.924721
  0
LINE
  8
1
 62
7
  6
CONTINUOUS
 10
88.234923
 20
199.186525
 11
89.125146
 21
199.424831
  0
LINE
  8
1
 62
7
  6
CONTINUOUS
 10
89.125146
 20
199.424831
 11
89.585092
 21
195.924721
  0
LINE
  8
1
 62
7
  6
CONTINUOUS
 10
89.585092
 20
195.924721
 11
88.234923
 21
199.186525
  0
LINE
  8
1
 62
7
  6
CONTINUOUS
 10
84.718035
 20
151.425341
 11
81.633967
 21
144.349211
  0
LINE
  8
1
 62
7
  6
CONTINUOUS
 10
82.609957
 20
147.741816
 11
83.454771
 21
147.373611
  0
LINE
  8
1
 62
7
  6
CONTINUOUS
 10
83.454771
 20
147.373611
 11
81.633967
 21
144.349211
  0
LINE
  8
1
 62
7
  6
CONTINUOUS
 10
81.633967
 20
144.349211
 11
82.609957
 21
147.741816
  0
LINE
  8
1
 62
7
  6
CONTINUOUS
 10
81.137716
 20
102.839577
 11
108.805051
 21
69.922734
  0
LINE
  8
1
 62
7
  6
CONTINUOUS
 10
106.200325
 20
72.305532
 11
106.905792
 21
72.898493
  0
LINE
  8
1
 62
7
  6
CONTINUOUS
 10
106.905792
 20
72.898493
 11
108.805051
 21
69.922734
  0
LINE
  8
1
 62
7
  6
CONTINUOUS
 10
108.805051
 20
69.922734
 11
106.200325
 21
72.305532
  0
LINE
  8
1
 62
7
  6
CONTINUOUS
 10
88.850968
 20
39.184858
 11
90.947686
 21
39.467139
  0
LINE
  8
1
 62
7
  6
CONTINUOUS
 10
88.513954
 20
38.807385
 11
88.426124
 21
39.459762
  0
LINE
  8
1
 62
7
  6
CONTINUOUS
 10
88.426124
 20
39.459762
 11
90.947686
 21
39.467139
  0
LINE
  8
1
 62
7
  6
CONTINUOUS
 10
90.947686
 20
39.467139
 11
88.513954
 21
38.807385
  0
LINE
  8
1
 62
7
  6
CONTINUOUS
 10
194.139681
 20
46.760376
 11
175.483464
 21
46.760376
  0
LINE
  8
1
 62
7
  6
CONTINUOUS
 10
177.983464
 20
47.089507
 11
177.983464
 21
46.431244
  0
LINE
  8
1
 62
7
  6
CONTINUOUS
 10
177.983464
 20
46.431244
 11
175.483464
 21
46.760376
  0
LINE
  8
1
 62
7
  6
CONTINUOUS
 10
175.483464
 20
46.760376
 11
177.983464
 21
47.089507
  0
TEXT
  8
1
 62
7
  6
CONTINUOUS
 10
92.165982
 20
151.888953
 40
2.450000
 41
0.900000
  1
r
  7
KANJI
 50
0.000000
 51
0.000000
  0
TEXT
  8
1
 62
7
  6
CONTINUOUS
 10
84.659549
 20
152.945986
 40
3.500000
 41
0.900000
  1
12- 4.5ü}0.3
  7
KANJI
 50
0.000000
 51
0.000000
  0
TEXT
  8
1
 62
7
  6
CONTINUOUS
 10
74.381834
 20
111.255777
 40
3.000000
 41
0.900000
  1
Parky
  7
KANJI
 50
0.000000
 51
30.000000
  0
TEXT
  8
1
 62
7
  6
CONTINUOUS
 10
73.586774
 20
41.455841
 40
3.500000
 41
0.900000
  1
ë±ô]ò¹î³
  7
KANJI
 50
0.000000
 51
0.000000
  0
TEXT
  8
1
 62
7
  6
CONTINUOUS
 10
179.117092
 20
48.795318
 40
3.500000
 41
0.900000
  1
òùü@î³
  7
KANJI
 50
0.000000
 51
0.000000
  0
TEXT
  8
1
 62
7
  6
CONTINUOUS
 10
36.605248
 20
164.878271
 40
3.500000
 41
0.900000
  1
M4 ùLî°É[âT6
  7
KANJI
 50
0.000000
 51
0.000000
  0
TEXT
  8
1
 62
7
  6
CONTINUOUS
 10
35.655896
 20
171.020618
 40
3.500000
 41
0.900000
  1
âAü[âXùpâ^âbâv
  7
KANJI
 50
0.000000
 51
0.000000
  0
TEXT
  8
1
 62
7
  6
CONTINUOUS
 10
54.330116
 20
153.793178
 40
3.500000
 41
0.900000
  1
ëHì¬ûçÉö5
  7
KANJI
 50
0.000000
 51
0.000000
  0
TEXT
  8
1
 62
7
  6
CONTINUOUS
 10
85.337144
 20
220.599839
 40
3.500000
 41
0.900000
  1
Æ[Äq
  7
KANJI
 50
0.000000
 51
0.000000
  0
TEXT
  8
1
 62
7
  6
CONTINUOUS
 10
87.320185
 20
214.825719
 40
3.500000
 41
0.900000
  1
î·0.5ü~ïð3
  7
KANJI
 50
0.000000
 51
0.000000
  0
TEXT
  8
1
 62
7
  6
CONTINUOUS
 10
112.232871
 20
215.016848
 40
3.500000
 41
0.900000
  1
ÆÀâT7.5
  7
KANJI
 50
0.000000
 51
0.000000
  0
TEXT
  8
1
 62
7
  6
CONTINUOUS
 10
129.738923
 20
88.090502
 40
3.500000
 41
0.900000
  1
û┴ö┬
  7
KANJI
 50
0.000000
 51
0.000000
  0
LINE
  8
1
 62
7
  6
CONTINUOUS
 10
131.661200
 20
102.839577
 11
131.661200
 21
145.539577
  0
LINE
  8
1
 62
7
  6
CONTINUOUS
 10
127.615733
 20
102.839577
 11
132.661200
 21
102.839577
  0
LINE
  8
1
 62
7
  6
CONTINUOUS
 10
105.454855
 20
145.539577
 11
132.661200
 21
145.539577
  0
LINE
  8
1
 62
7
  6
CONTINUOUS
 10
131.661200
 20
102.839577
 11
131.206200
 21
106.339577
  0
LINE
  8
1
 62
7
  6
CONTINUOUS
 10
131.206200
 20
106.339577
 11
132.116200
 21
106.339577
  0
LINE
  8
1
 62
7
  6
CONTINUOUS
 10
132.116200
 20
106.339577
 11
131.661200
 21
102.839577
  0
LINE
  8
1
 62
7
  6
CONTINUOUS
 10
131.661200
 20
145.539577
 11
132.116200
 21
142.039577
  0
LINE
  8
1
 62
7
  6
CONTINUOUS
 10
132.116200
 20
142.039577
 11
131.206200
 21
142.039577
  0
LINE
  8
1
 62
7
  6
CONTINUOUS
 10
131.206200
 20
142.039577
 11
131.661200
 21
145.539577
  0
TEXT
  8
1
 62
7
  6
CONTINUOUS
 10
130.661200
 20
119.829577
 40
3.200000
 41
0.900000
  1
85.4
  7
KANJI
 50
90.000000
 51
0.000000
  0
LINE
  8
1
 62
7
  6
CONTINUOUS
 10
139.137716
 20
212.349721
 11
139.137716
 21
205.349721
  0
LINE
  8
1
 62
7
  6
CONTINUOUS
 10
139.137716
 20
202.349721
 11
139.137716
 21
205.349721
  0
LINE
  8
1
 62
7
  6
CONTINUOUS
 10
139.137716
 20
202.349721
 11
139.137716
 21
195.349721
  0
LINE
  8
1
 62
7
  6
CONTINUOUS
 10
118.737716
 20
202.349721
 11
140.137716
 21
202.349721
  0
LINE
  8
1
 62
7
  6
CONTINUOUS
 10
122.137716
 20
205.349721
 11
140.137716
 21
205.349721
  0
LINE
  8
1
 62
7
  6
CONTINUOUS
 10
139.137716
 20
202.349721
 11
139.592716
 21
198.849721
  0
LINE
  8
1
 62
7
  6
CONTINUOUS
 10
139.592716
 20
198.849721
 11
138.682716
 21
198.849721
  0
LINE
  8
1
 62
7
  6
CONTINUOUS
 10
138.682716
 20
198.849721
 11
139.137716
 21
202.349721
  0
LINE
  8
1
 62
7
  6
CONTINUOUS
 10
139.137716
 20
205.349721
 11
138.682716
 21
208.849721
  0
LINE
  8
1
 62
7
  6
CONTINUOUS
 10
138.682716
 20
208.849721
 11
139.592716
 21
208.849721
  0
LINE
  8
1
 62
7
  6
CONTINUOUS
 10
139.592716
 20
208.849721
 11
139.137716
 21
205.349721
  0
TEXT
  8
1
 62
7
  6
CONTINUOUS
 10
138.137716
 20
197.881936
 40
3.200000
 41
0.900000
  1
6
  7
KANJI
 50
90.000000
 51
0.000000
  0
LINE
  8
1
 62
7
  6
CONTINUOUS
 10
139.137716
 20
185.349721
 11
139.137716
 21
192.826118
  0
LINE
  8
1
 62
7
  6
CONTINUOUS
 10
139.137716
 20
179.849721
 11
139.137716
 21
185.349721
  0
LINE
  8
1
 62
7
  6
CONTINUOUS
 10
139.137716
 20
172.849721
 11
139.137716
 21
179.849721
  0
LINE
  8
1
 62
7
  6
CONTINUOUS
 10
124.137716
 20
185.349721
 11
140.137716
 21
185.349721
  0
LINE
  8
1
 62
7
  6
CONTINUOUS
 10
124.137716
 20
179.849721
 11
140.137716
 21
179.849721
  0
LINE
  8
1
 62
7
  6
CONTINUOUS
 10
139.137716
 20
185.349721
 11
138.682716
 21
188.849721
  0
LINE
  8
1
 62
7
  6
CONTINUOUS
 10
138.682716
 20
188.849721
 11
139.592716
 21
188.849721
  0
LINE
  8
1
 62
7
  6
CONTINUOUS
 10
139.592716
 20
188.849721
 11
139.137716
 21
185.349721
  0
LINE
  8
1
 62
7
  6
CONTINUOUS
 10
139.137716
 20
179.849721
 11
139.592716
 21
176.349721
  0
LINE
  8
1
 62
7
  6
CONTINUOUS
 10
139.592716
 20
176.349721
 11
138.682716
 21
176.349721
  0
LINE
  8
1
 62
7
  6
CONTINUOUS
 10
138.682716
 20
176.349721
 11
139.137716
 21
179.849721
  0
TEXT
  8
1
 62
7
  6
CONTINUOUS
 10
138.137716
 20
186.026118
 40
3.200000
 41
0.900000
  1
11.5
  7
KANJI
 50
90.000000
 51
0.000000
  0
LINE
  8
1
 62
7
  6
CONTINUOUS
 10
60.656964
 20
188.349721
 11
60.656964
 21
205.349721
  0
LINE
  8
1
 62
7
  6
CONTINUOUS
 10
68.150006
 20
188.349721
 11
59.656964
 21
188.349721
  0
LINE
  8
1
 62
7
  6
CONTINUOUS
 10
78.762716
 20
205.349721
 11
59.656964
 21
205.349721
  0
LINE
  8
1
 62
7
  6
CONTINUOUS
 10
60.656964
 20
188.349721
 11
60.201964
 21
191.849721
  0
LINE
  8
1
 62
7
  6
CONTINUOUS
 10
60.201964
 20
191.849721
 11
61.111964
 21
191.849721
  0
LINE
  8
1
 62
7
  6
CONTINUOUS
 10
61.111964
 20
191.849721
 11
60.656964
 21
188.349721
  0
LINE
  8
1
 62
7
  6
CONTINUOUS
 10
60.656964
 20
205.349721
 11
61.111964
 21
201.849721
  0
LINE
  8
1
 62
7
  6
CONTINUOUS
 10
61.111964
 20
201.849721
 11
60.201964
 21
201.849721
  0
LINE
  8
1
 62
7
  6
CONTINUOUS
 10
60.201964
 20
201.849721
 11
60.656964
 21
205.349721
  0
TEXT
  8
1
 62
7
  6
CONTINUOUS
 10
59.656964
 20
194.449721
 40
3.200000
 41
0.900000
  1
34
  7
KANJI
 50
90.000000
 51
0.000000
  0
LINE
  8
1
 62
7
  6
CONTINUOUS
 10
71.637716
 20
165.539577
 11
81.137716
 21
165.539577
  0
LINE
  8
1
 62
7
  6
CONTINUOUS
 10
71.637716
 20
165.539577
 11
64.637716
 21
165.539577
  0
LINE
  8
1
 62
7
  6
CONTINUOUS
 10
81.137716
 20
165.539577
 11
88.137716
 21
165.539577
  0
LINE
  8
1
 62
7
  6
CONTINUOUS
 10
71.637716
 20
185.023712
 11
71.637716
 21
164.539577
  0
LINE
  8
1
 62
7
  6
CONTINUOUS
 10
81.137716
 20
177.369813
 11
81.137716
 21
164.539577
  0
LINE
  8
1
 62
7
  6
CONTINUOUS
 10
81.137716
 20
165.539577
 11
84.637716
 21
165.994577
  0
LINE
  8
1
 62
7
  6
CONTINUOUS
 10
84.637716
 20
165.994577
 11
84.637716
 21
165.084577
  0
LINE
  8
1
 62
7
  6
CONTINUOUS
 10
84.637716
 20
165.084577
 11
81.137716
 21
165.539577
  0
LINE
  8
1
 62
7
  6
CONTINUOUS
 10
71.637716
 20
165.539577
 11
68.137716
 21
165.084577
  0
LINE
  8
1
 62
7
  6
CONTINUOUS
 10
68.137716
 20
165.084577
 11
68.137716
 21
165.994577
  0
LINE
  8
1
 62
7
  6
CONTINUOUS
 10
68.137716
 20
165.994577
 11
71.637716
 21
165.539577
  0
TEXT
  8
1
 62
7
  6
CONTINUOUS
 10
74.467716
 20
166.539577
 40
3.200000
 41
0.900000
  1
19
  7
KANJI
 50
0.000000
 51
0.000000
  0
LINE
  8
1
 62
7
  6
CONTINUOUS
 10
28.137716
 20
62.339577
 11
28.137716
 21
143.339577
  0
LINE
  8
1
 62
7
  6
CONTINUOUS
 10
78.987397
 20
62.339577
 11
27.137716
 21
62.339577
  0
LINE
  8
1
 62
7
  6
CONTINUOUS
 10
77.781866
 20
143.339577
 11
27.137716
 21
143.339577
  0
LINE
  8
1
 62
7
  6
CONTINUOUS
 10
28.137716
 20
143.339577
 11
28.592716
 21
139.839577
  0
LINE
  8
1
 62
7
  6
CONTINUOUS
 10
28.592716
 20
139.839577
 11
27.682716
 21
139.839577
  0
LINE
  8
1
 62
7
  6
CONTINUOUS
 10
27.682716
 20
139.839577
 11
28.137716
 21
143.339577
  0
LINE
  8
1
 62
7
  6
CONTINUOUS
 10
28.137716
 20
62.339577
 11
27.682716
 21
65.839577
  0
LINE
  8
1
 62
7
  6
CONTINUOUS
 10
27.682716
 20
65.839577
 11
28.592716
 21
65.839577
  0
LINE
  8
1
 62
7
  6
CONTINUOUS
 10
28.592716
 20
65.839577
 11
28.137716
 21
62.339577
  0
TEXT
  8
1
 62
7
  6
CONTINUOUS
 10
27.137716
 20
94.479577
 40
3.200000
 41
0.900000
  1
162ü}0.3
  7
KANJI
 50
90.000000
 51
0.000000
  0
LINE
  8
1
 62
7
  6
CONTINUOUS
 10
40.637716
 20
49.905216
 11
121.637716
 21
49.905216
  0
LINE
  8
1
 62
7
  6
CONTINUOUS
 10
40.637716
 20
100.776897
 11
40.637716
 21
48.905216
  0
LINE
  8
1
 62
7
  6
CONTINUOUS
 10
121.637716
 20
100.796649
 11
121.637716
 21
48.905216
  0
LINE
  8
1
 62
7
  6
CONTINUOUS
 10
40.637716
 20
49.905216
 11
44.137716
 21
50.360216
  0
LINE
  8
1
 62
7
  6
CONTINUOUS
 10
44.137716
 20
50.360216
 11
44.137716
 21
49.450216
  0
LINE
  8
1
 62
7
  6
CONTINUOUS
 10
44.137716
 20
49.450216
 11
40.637716
 21
49.905216
  0
LINE
  8
1
 62
7
  6
CONTINUOUS
 10
121.637716
 20
49.905216
 11
118.137716
 21
49.450216
  0
LINE
  8
1
 62
7
  6
CONTINUOUS
 10
118.137716
 20
49.450216
 11
118.137716
 21
50.360216
  0
LINE
  8
1
 62
7
  6
CONTINUOUS
 10
118.137716
 20
50.360216
 11
121.637716
 21
49.905216
  0
TEXT
  8
1
 62
7
  6
CONTINUOUS
 10
72.777716
 20
50.905216
 40
3.200000
 41
0.900000
  1
162ü}0.3
  7
KANJI
 50
0.000000
 51
0.000000
  0
LINE
  8
1
 62
7
  6
CONTINUOUS
 10
182.642579
 20
152.539577
 11
175.642579
 21
152.539577
  0
LINE
  8
1
 62
7
  6
CONTINUOUS
 10
171.992579
 20
152.539577
 11
175.642579
 21
152.539577
  0
LINE
  8
1
 62
7
  6
CONTINUOUS
 10
171.992579
 20
152.539577
 11
163.312326
 21
152.539577
  0
LINE
  8
1
 62
7
  6
CONTINUOUS
 10
171.992579
 20
142.839577
 11
171.992579
 21
153.539577
  0
LINE
  8
1
 62
7
  6
CONTINUOUS
 10
175.642579
 20
142.839577
 11
175.642579
 21
153.539577
  0
LINE
  8
1
 62
7
  6
CONTINUOUS
 10
175.642579
 20
152.539577
 11
179.142579
 21
152.994577
  0
LINE
  8
1
 62
7
  6
CONTINUOUS
 10
179.142579
 20
152.994577
 11
179.142579
 21
152.084577
  0
LINE
  8
1
 62
7
  6
CONTINUOUS
 10
179.142579
 20
152.084577
 11
175.642579
 21
152.539577
  0
LINE
  8
1
 62
7
  6
CONTINUOUS
 10
171.992579
 20
152.539577
 11
168.492579
 21
152.084577
  0
LINE
  8
1
 62
7
  6
CONTINUOUS
 10
168.492579
 20
152.084577
 11
168.492579
 21
152.994577
  0
LINE
  8
1
 62
7
  6
CONTINUOUS
 10
168.492579
 20
152.994577
 11
171.992579
 21
152.539577
  0
TEXT
  8
1
 62
7
  6
CONTINUOUS
 10
163.312326
 20
153.539577
 40
3.200000
 41
0.900000
  1
7
  7
KANJI
 50
0.000000
 51
0.000000
  0
LINE
  8
1
 62
7
  6
CONTINUOUS
 10
187.492579
 20
152.539577
 11
194.492579
 21
152.539577
  0
LINE
  8
1
 62
7
  6
CONTINUOUS
 10
194.492579
 20
152.539577
 11
197.492579
 21
152.539577
  0
LINE
  8
1
 62
7
  6
CONTINUOUS
 10
197.492579
 20
152.539577
 11
204.492579
 21
152.539577
  0
LINE
  8
1
 62
7
  6
CONTINUOUS
 10
194.492579
 20
137.439577
 11
194.492579
 21
153.539577
  0
LINE
  8
1
 62
7
  6
CONTINUOUS
 10
197.492579
 20
140.839577
 11
197.492579
 21
153.539577
  0
LINE
  8
1
 62
7
  6
CONTINUOUS
 10
194.492579
 20
152.539577
 11
190.992579
 21
152.084577
  0
LINE
  8
1
 62
7
  6
CONTINUOUS
 10
190.992579
 20
152.084577
 11
190.992579
 21
152.994577
  0
LINE
  8
1
 62
7
  6
CONTINUOUS
 10
190.992579
 20
152.994577
 11
194.492579
 21
152.539577
  0
LINE
  8
1
 62
7
  6
CONTINUOUS
 10
197.492579
 20
152.539577
 11
200.992579
 21
152.994577
  0
LINE
  8
1
 62
7
  6
CONTINUOUS
 10
200.992579
 20
152.994577
 11
200.992579
 21
152.084577
  0
LINE
  8
1
 62
7
  6
CONTINUOUS
 10
200.992579
 20
152.084577
 11
197.492579
 21
152.539577
  0
TEXT
  8
1
 62
7
  6
CONTINUOUS
 10
200.785153
 20
153.539577
 40
3.200000
 41
0.900000
  1
6
  7
KANJI
 50
0.000000
 51
0.000000
  0
LINE
  8
1
 62
7
  6
CONTINUOUS
 10
171.992579
 20
162.539577
 11
197.492579
 21
162.539577
  0
LINE
  8
1
 62
7
  6
CONTINUOUS
 10
171.992579
 20
142.839577
 11
171.992579
 21
163.539577
  0
LINE
  8
1
 62
7
  6
CONTINUOUS
 10
197.492579
 20
140.839577
 11
197.492579
 21
163.539577
  0
LINE
  8
1
 62
7
  6
CONTINUOUS
 10
171.992579
 20
162.539577
 11
175.492579
 21
162.994577
  0
LINE
  8
1
 62
7
  6
CONTINUOUS
 10
175.492579
 20
162.994577
 11
175.492579
 21
162.084577
  0
LINE
  8
1
 62
7
  6
CONTINUOUS
 10
175.492579
 20
162.084577
 11
171.992579
 21
162.539577
  0
LINE
  8
1
 62
7
  6
CONTINUOUS
 10
197.492579
 20
162.539577
 11
193.992579
 21
162.084577
  0
LINE
  8
1
 62
7
  6
CONTINUOUS
 10
193.992579
 20
162.084577
 11
193.992579
 21
162.994577
  0
LINE
  8
1
 62
7
  6
CONTINUOUS
 10
193.992579
 20
162.994577
 11
197.492579
 21
162.539577
  0
TEXT
  8
1
 62
7
  6
CONTINUOUS
 10
182.822579
 20
163.539577
 40
3.200000
 41
0.900000
  1
51
  7
KANJI
 50
0.000000
 51
0.000000
  0
LINE
  8
1
 62
7
  6
CONTINUOUS
 10
37.652948
 20
55.590698
 11
13.852948
 21
55.590698
  0
LINE
  8
1
 62
7
  6
CONTINUOUS
 10
81.137716
 20
102.839577
 11
37.652948
 21
55.590698
  0
LINE
  8
1
 62
7
  6
CONTINUOUS
 10
53.711530
 20
73.039337
 11
51.676159
 21
70.155886
  0
LINE
  8
1
 62
7
  6
CONTINUOUS
 10
51.676159
 20
70.155886
 11
51.006573
 21
70.772129
  0
LINE
  8
1
 62
7
  6
CONTINUOUS
 10
51.006573
 20
70.772129
 11
53.711530
 21
73.039337
  0
TEXT
  8
1
 62
7
  6
CONTINUOUS
 10
17.692948
 20
56.590698
 40
3.200000
 41
0.900000
  1
81ü}0.15
  7
KANJI
 50
0.000000
 51
0.000000
  0
TEXT
  8
1
 62
7
  6
CONTINUOUS
 10
13.852948
 20
56.590698
 40
3.200000
 41
0.900000
  1
R
  7
KANJI
 50
0.000000
 51
0.000000
  0
LINE
  8
1
 62
7
  6
CONTINUOUS
 10
81.137716
 20
102.839577
 11
44.880122
 21
145.977172
  0
LINE
  8
1
 62
7
  6
CONTINUOUS
 10
44.880122
 20
145.977172
 11
30.120122
 21
145.977172
  0
LINE
  8
1
 62
7
  6
CONTINUOUS
 10
53.470608
 20
135.756612
 11
56.070890
 21
133.370075
  0
LINE
  8
1
 62
7
  6
CONTINUOUS
 10
56.070890
 20
133.370075
 11
55.374274
 21
132.784561
  0
LINE
  8
1
 62
7
  6
CONTINUOUS
 10
55.374274
 20
132.784561
 11
53.470608
 21
135.756612
  0
TEXT
  8
1
 62
7
  6
CONTINUOUS
 10
33.960122
 20
146.977172
 40
3.200000
 41
0.900000
  1
172
  7
KANJI
 50
0.000000
 51
0.000000
  0
TEXT
  8
1
 62
7
  6
CONTINUOUS
 10
30.120122
 20
146.977172
 40
3.200000
 41
0.900000
  1
âË
  7
KANJI
 50
0.000000
 51
0.000000
  0
ARC
  8
1
 62
7
  6
CONTINUOUS
 10
81.137716
 20
102.839577
 40
30.746369
 50
-145.500000
 51
-34.500000
  0
LINE
  8
1
 62
7
  6
CONTINUOUS
 10
55.798828
 20
85.424642
 11
58.301836
 21
82.936273
  0
LINE
  8
1
 62
7
  6
CONTINUOUS
 10
58.301836
 20
82.936273
 11
57.582416
 21
82.379016
  0
LINE
  8
1
 62
7
  6
CONTINUOUS
 10
57.582416
 20
82.379016
 11
55.798828
 21
85.424642
  0
LINE
  8
1
 62
7
  6
CONTINUOUS
 10
106.476604
 20
85.424642
 11
104.693016
 21
82.379016
  0
LINE
  8
1
 62
7
  6
CONTINUOUS
 10
104.693016
 20
82.379016
 11
103.973596
 21
82.936273
  0
LINE
  8
1
 62
7
  6
CONTINUOUS
 10
103.973596
 20
82.936273
 11
106.476604
 21
85.424642
  0
TEXT
  8
1
 62
7
  6
CONTINUOUS
 10
62.935329
 20
79.050715
 40
3.200000
 41
0.900000
  1
111▀
  7
KANJI
 50
329.326718
 51
0.000000
  0
ENDSEC
  0
EOF
