  0
SECTION
  2
HEADER
  9
$ACADVER
  1
AC1003
  9
$INSBASE
 10
0.000000
 20
0.000000
  9
$EXTMIN
 10
0.000000
 20
0.000000
  9
$EXTMAX
 10
297.000000
 20
210.000000
  9
$LIMMIN
 10
0.000000
 20
0.000000
  9
$LIMMAX
 10
297.000000
 20
210.000000
  9
$VIEWCTR
 10
148.500000
 20
105.000000
  9
$VIEWSIZE
 40
210.000000
  9
$PEXTMIN
 10
0.000000
 20
0.000000
 30
0.000000
  9
$PEXTMAX
 10
297.000000
 20
210.000000
 30
0.000000
  9
$SNAPMODE
 70
     0
  9
$SNAPUNIT
 10
1.000000
 20
1.000000
  9
$SNAPBASE
 10
0.000000
 20
0.000000
  9
$SNAPANG
 50
0.000000
  9
$SNAPISOPAIR
 70
     0
  9
$SNAPSTYLE
 70
     0
  9
$GRIDMODE
 70
     0
  9
$GRIDUNIT
 10
0.000000
 20
0.000000
  9
$ORTHOMODE
 70
     0
  9
$REGENMODE
 70
     1
  9
$FILLMODE
 70
     1
  9
$QTEXTMODE
 70
     0
  9
$DRAGMODE
 70
     2
  9
$LTSCALE
 40
0.250000
  9
$OSMODE
 70
     0
  9
$ATTMODE
 70
     1
  9
$TEXTSIZE
 40
0.200000
  9
$TRACEWID
 40
0.050000
  9
$TEXTSTYLE
  7
STANDARD
  9
$CLAYER
  8
0
  9
$CELTYPE
  6
BYLAYER
  9
$CECOLOR
 62
   256
  9
$DIMSCALE
 40
1.000000
  9
$DIMASZ
 40
1.000000
  9
$DIMEXO
 40
0.000000
  9
$DIMDLI
 40
0.500000
  9
$DIMRND
 40
0.000000
  9
$DIMDLE
 40
0.000000
  9
$DIMEXE
 40
0.000000
  9
$DIMTP
 40
0.000000
  9
$DIMTM
 40
0.000000
  9
$DIMTXT
 40
0.180000
  9
$DIMCEN
 40
0.000000
  9
$DIMTSZ
 40
0.000000
  9
$DIMTOL
 70
     0
  9
$DIMLIM
 70
     0
  9
$DIMTIH
 70
     1
  9
$DIMTOH
 70
     1
  9
$DIMSE1
 70
     0
  9
$DIMSE2
 70
     0
  9
$DIMTAD
 70
     0
  9
$DIMZIN
 70
     0
  9
$DIMBLK
  1

  9
$DIMASO
 70
     0
  9
$DIMSHO
 70
     0
  9
$DIMPOST
  1

  9
$DIMAPOST
  1

  9
$DIMALT
 70
     0
  9
$DIMALTD
 70
     0
  9
$DIMALTF
 40
25.400000
  9
$DIMLFAC
 40
1.000000
  9
$DIMTOFL
 70
     0
  9
$DIMTVP
 40
0.000000
  9
$DIMTIX
 70
     0
  9
$DIMSOXD
 70
     0
  9
$DIMSAH
 70
     0
  9
$DIMBLKL
  1

  9
$DIMBLKR
  1

  9
$LUNITS
 70
     2
  9
$LUPREC
 70
     2
  9
$AXISMODE
 70
     0
  9
$AXISUNIT
 10
1.000000
 20
1.000000
  9
$SKETCHINC
 40
0.000000
  9
$FILLETRAD
 40
0.000000
  9
$AUNITS
 70
     1
  9
$AUPREC
 70
     2
  9
$MENU
  1
ACAD
  9
$ELEVATION
 40
0.000000
  9
$THICKNESS
 40
0.000000
  9
$VIEWDIR
 10
0.000000
 20
0.000000
 30
1.000000
  9
$LIMCHECK
 70
     1
  9
$BLIPMODE
 70
     1
  9
$CHAMFERA
 40
0.000000
  9
$CHAMFERB
 40
0.000000
  9
$FASTZOOM
 70
     1
  9
$SKPOLY
 70
     0
  9
$TDCREATE
 40
0.000000
  9
$TDUPDATE
 40
0.000000
  9
$TDINDWG
 40
0.000000
  9
$TDUSRTIMER
 40
0.000000
  9
$USRTIMER
 70
     1
  9
$ANGBASE
 50
0.000000
  9
$ANGDIR
 70
     0
  9
$PDMODE
 70
     0
  9
$PDSIZE
 40
0.000000
  9
$PLINEWID
 40
0.000000
  9
$COORDS
 70
     2
  9
$USERI1
 70
     0
  9
$USERI2
 70
     0
  9
$USERI3
 70
     0
  9
$USERI4
 70
     0
  9
$USERI5
 70
     0
  9
$USERR1
 40
0.000000
  9
$USERR2
 40
0.000000
  9
$USERR3
 40
0.000000
  9
$USERR4
 40
0.000000
  9
$USERR5
 40
0.000000
  0
ENDSEC
  0
SECTION
  2
TABLES
  0
TABLE
  2
LTYPE
 70
     5
  0
LTYPE
  2
CONTINUOUS
 70
    64
  3
Solid line
 72
    65
 73
     0
 40
0.0
  0
LTYPE
  2
HIDDEN
 70
    64
  3
------------------------
 72
    65
 73
     2
 40
12.6
 49
8.4
 49
-4.2
  0
LTYPE
  2
DOT
 70
    64
  3
ÑÑÑÑÑÑÑÑÑÑÑÑÑÑÑÑÑÑÑÑÑÑÑÑ
 72
    65
 73
     2
 40
8.0
 49
6.0
 49
-2.0
  0
LTYPE
  2
DASHDOT
 70
    64
  3
--Ñ--Ñ--Ñ--Ñ--Ñ--Ñ--Ñ--
 72
    65
 73
     4
 40
50.5
 49
30.0
 49
-9.0
 49
2.5
 49
-9.0
  0
LTYPE
  2
DIVIDE
 70
    64
  3
--ÑÑ--ÑÑ--ÑÑ--ÑÑ--ÑÑ--
 72
    65
 73
     6
 40
58.0
 49
30.0
 49
-9.0
 49
2.5
 49
-5.0
 49
2.5
 49
-9.0
  0
ENDTAB
  0
TABLE
  2
LAYER
 70
1
  0
LAYER
  2
1
 70
64
 62
7
  6
CONTINUOUS
  0
ENDTAB
  0
TABLE
  2
STYLE
 70
     2
  0
STYLE
  2
STANDARD
 70
    64
 40
0.0
 41
1.0
 50
0.0
 71
     0
 42
0.2
  3
TXT
  4

  0
STYLE
  2
KANJI
 70
    64
 40
0.0
 41
1.0
 50
0.0
 71
     0
 42
0.2
  3
TXT
  4
BIGFONT
  0
ENDTAB
  0
TABLE
  2
VIEW
 70
     0
  0
ENDTAB
  0
ENDSEC
  0
SECTION
  2
BLOCKS
  0
ENDSEC
  0
SECTION
  2
ENTITIES
  0
LINE
  8
1
 62
7
  6
CONTINUOUS
 10
127.422205
 20
59.032846
 11
136.272088
 21
59.032846
  0
LINE
  8
1
 62
7
  6
CONTINUOUS
 10
90.094723
 20
178.340495
 11
130.716067
 21
178.340495
  0
LINE
  8
1
 62
7
  6
CONTINUOUS
 10
86.512668
 20
184.340495
 11
96.324444
 21
184.340495
  0
LINE
  8
1
 62
7
  6
CONTINUOUS
 10
88.817582
 20
120.603569
 11
117.124970
 21
120.603569
  0
LINE
  8
1
 62
7
  6
CONTINUOUS
 10
35.577039
 20
139.280549
 11
62.468184
 21
139.280549
  0
LINE
  8
1
 62
7
  6
CONTINUOUS
 10
35.577039
 20
133.280549
 11
62.057709
 21
133.280549
  0
LINE
  8
1
 62
7
  6
CONTINUOUS
 10
56.204655
 20
118.935191
 11
73.480914
 21
118.935191
  0
LINE
  8
1
 62
7
  6
CONTINUOUS
 10
45.340993
 20
169.383119
 11
45.340993
 21
172.383119
  0
LINE
  8
1
 62
7
  6
CONTINUOUS
 10
120.540993
 20
172.383119
 11
85.315993
 21
172.383119
  0
LINE
  8
1
 62
7
  6
CONTINUOUS
 10
120.540993
 20
172.383119
 11
120.540993
 21
169.383119
  0
LINE
  8
1
 62
7
  6
CONTINUOUS
 10
120.540993
 20
148.133119
 11
120.540993
 21
146.883119
  0
LINE
  8
1
 62
7
  6
CONTINUOUS
 10
120.540993
 20
148.133119
 11
85.315993
 21
148.133119
  0
LINE
  8
1
 62
7
  6
CONTINUOUS
 10
120.540993
 20
152.383119
 11
120.540993
 21
148.133119
  0
LINE
  8
1
 62
7
  6
CONTINUOUS
 10
45.340993
 20
146.883119
 11
80.565993
 21
146.883119
  0
LINE
  8
1
 62
7
  6
CONTINUOUS
 10
45.340993
 20
152.383119
 11
45.340993
 21
146.883119
  0
LINE
  8
1
 62
7
  6
CONTINUOUS
 10
120.540993
 20
163.383119
 11
120.540993
 21
167.883119
  0
LINE
  8
1
 62
7
  6
CONTINUOUS
 10
120.740993
 20
163.383119
 11
120.740993
 21
158.383119
  0
LINE
  8
1
 62
7
  6
CONTINUOUS
 10
89.440993
 20
154.883119
 11
89.440993
 21
153.883119
  0
LINE
  8
1
 62
7
  6
CONTINUOUS
 10
90.940993
 20
154.883119
 11
89.440993
 21
154.883119
  0
LINE
  8
1
 62
7
  6
CONTINUOUS
 10
90.940993
 20
153.883119
 11
90.940993
 21
154.883119
  0
LINE
  8
1
 62
7
  6
CONTINUOUS
 10
89.440993
 20
153.883119
 11
90.940993
 21
153.883119
  0
LINE
  8
1
 62
7
  6
CONTINUOUS
 10
89.440993
 20
167.883119
 11
89.440993
 21
166.883119
  0
LINE
  8
1
 62
7
  6
CONTINUOUS
 10
90.940993
 20
167.883119
 11
89.440993
 21
167.883119
  0
LINE
  8
1
 62
7
  6
CONTINUOUS
 10
90.940993
 20
166.883119
 11
90.940993
 21
167.883119
  0
LINE
  8
1
 62
7
  6
CONTINUOUS
 10
89.440993
 20
166.883119
 11
90.940993
 21
166.883119
  0
LINE
  8
1
 62
7
  6
DASHDOT
 10
74.240993
 20
155.383119
 11
72.440993
 21
155.383119
  0
LINE
  8
1
 62
7
  6
CONTINUOUS
 10
72.210608
 20
161.283119
 11
74.671378
 21
161.283119
  0
LINE
  8
1
 62
7
  6
CONTINUOUS
 10
72.730224
 20
162.183119
 11
74.151763
 21
162.183119
  0
LINE
  8
1
 62
7
  6
CONTINUOUS
 10
71.690993
 20
160.383119
 11
75.190993
 21
160.383119
  0
LINE
  8
1
 62
7
  6
DASHDOT
 10
73.440993
 20
158.183119
 11
73.440993
 21
152.057110
  0
LINE
  8
1
 62
7
  6
CONTINUOUS
 10
80.165993
 20
152.383119
 11
80.165993
 21
150.533119
  0
LINE
  8
1
 62
7
  6
CONTINUOUS
 10
85.715993
 20
152.383119
 11
119.366229
 21
152.383119
  0
LINE
  8
1
 62
7
  6
CONTINUOUS
 10
85.715993
 20
152.383119
 11
85.715993
 21
150.533119
  0
LINE
  8
1
 62
7
  6
CONTINUOUS
 10
80.565993
 20
146.883119
 11
85.315993
 21
146.883119
  0
LINE
  8
1
 62
7
  6
CONTINUOUS
 10
80.565993
 20
147.233119
 11
80.565993
 21
146.883119
  0
LINE
  8
1
 62
7
  6
CONTINUOUS
 10
85.315993
 20
146.883119
 11
120.540993
 21
146.883119
  0
LINE
  8
1
 62
7
  6
CONTINUOUS
 10
85.315993
 20
147.233119
 11
85.315993
 21
146.883119
  0
LINE
  8
1
 62
7
  6
CONTINUOUS
 10
80.565993
 20
147.233119
 11
81.815993
 21
147.233119
  0
LINE
  8
1
 62
7
  6
CONTINUOUS
 10
80.565993
 20
150.533119
 11
80.165993
 21
150.533119
  0
LINE
  8
1
 62
7
  6
CONTINUOUS
 10
80.565993
 20
172.383119
 11
45.340993
 21
172.383119
  0
LINE
  8
1
 62
7
  6
CONTINUOUS
 10
80.565993
 20
172.033119
 11
80.565993
 21
172.383119
  0
LINE
  8
1
 62
7
  6
CONTINUOUS
 10
85.315993
 20
172.033119
 11
85.315993
 21
172.383119
  0
LINE
  8
1
 62
7
  6
CONTINUOUS
 10
80.565993
 20
172.033119
 11
81.815993
 21
172.033119
  0
LINE
  8
1
 62
7
  6
CONTINUOUS
 10
45.340993
 20
152.383119
 11
45.340993
 21
167.883119
  0
LINE
  8
1
 62
7
  6
CONTINUOUS
 10
120.540993
 20
152.383119
 11
120.540993
 21
158.383119
  0
LINE
  8
1
 62
7
  6
CONTINUOUS
 10
119.366229
 20
152.383119
 11
120.540993
 21
152.383119
  0
LINE
  8
1
 62
7
  6
CONTINUOUS
 10
45.340993
 20
152.383119
 11
80.165993
 21
152.383119
  0
LINE
  8
1
 62
7
  6
CONTINUOUS
 10
120.540993
 20
167.883119
 11
120.540993
 21
169.383119
  0
LINE
  8
1
 62
7
  6
CONTINUOUS
 10
45.340993
 20
167.883119
 11
45.340993
 21
169.383119
  0
LINE
  8
1
 62
7
  6
CONTINUOUS
 10
45.340993
 20
169.383119
 11
81.815993
 21
169.383119
  0
LINE
  8
1
 62
7
  6
CONTINUOUS
 10
73.440993
 20
158.783119
 11
73.440993
 21
160.383119
  0
LINE
  8
1
 62
7
  6
HIDDEN
 10
81.815993
 20
172.033119
 11
81.815993
 21
169.383119
  0
LINE
  8
1
 62
7
  6
CONTINUOUS
 10
81.815993
 20
172.033119
 11
84.065993
 21
172.033119
  0
LINE
  8
1
 62
7
  6
CONTINUOUS
 10
81.815993
 20
169.383119
 11
84.065993
 21
169.383119
  0
LINE
  8
1
 62
7
  6
HIDDEN
 10
84.065993
 20
172.033119
 11
84.065993
 21
169.383119
  0
LINE
  8
1
 62
7
  6
CONTINUOUS
 10
84.065993
 20
172.033119
 11
85.315993
 21
172.033119
  0
LINE
  8
1
 62
7
  6
CONTINUOUS
 10
84.065993
 20
169.383119
 11
120.540993
 21
169.383119
  0
LINE
  8
1
 62
7
  6
CONTINUOUS
 10
80.565993
 20
150.533119
 11
80.565993
 21
148.133119
  0
LINE
  8
1
 62
7
  6
CONTINUOUS
 10
80.565993
 20
150.533119
 11
81.815993
 21
150.533119
  0
LINE
  8
1
 62
7
  6
CONTINUOUS
 10
80.565993
 20
148.133119
 11
45.340993
 21
148.133119
  0
LINE
  8
1
 62
7
  6
CONTINUOUS
 10
85.315993
 20
150.533119
 11
85.315993
 21
148.133119
  0
LINE
  8
1
 62
7
  6
CONTINUOUS
 10
85.315993
 20
150.533119
 11
85.715993
 21
150.533119
  0
LINE
  8
1
 62
7
  6
CONTINUOUS
 10
85.315993
 20
148.133119
 11
80.565993
 21
148.133119
  0
LINE
  8
1
 62
7
  6
HIDDEN
 10
81.815993
 20
150.533119
 11
81.815993
 21
147.233119
  0
LINE
  8
1
 62
7
  6
CONTINUOUS
 10
81.815993
 20
150.533119
 11
84.065993
 21
150.533119
  0
LINE
  8
1
 62
7
  6
CONTINUOUS
 10
81.815993
 20
147.233119
 11
84.065993
 21
147.233119
  0
LINE
  8
1
 62
7
  6
HIDDEN
 10
84.065993
 20
150.533119
 11
84.065993
 21
147.233119
  0
LINE
  8
1
 62
7
  6
CONTINUOUS
 10
84.065993
 20
150.533119
 11
85.315993
 21
150.533119
  0
LINE
  8
1
 62
7
  6
CONTINUOUS
 10
84.065993
 20
147.233119
 11
85.315993
 21
147.233119
  0
LINE
  8
1
 62
7
  6
CONTINUOUS
 10
89.470165
 20
154.933119
 11
89.470165
 21
166.833119
  0
LINE
  8
1
 62
7
  6
CONTINUOUS
 10
94.424926
 20
167.633119
 11
107.684260
 21
167.633119
  0
LINE
  8
1
 62
7
  6
CONTINUOUS
 10
94.424926
 20
154.883119
 11
94.424926
 21
154.133119
  0
LINE
  8
1
 62
7
  6
CONTINUOUS
 10
94.424926
 20
167.633119
 11
94.424926
 21
166.833119
  0
LINE
  8
1
 62
7
  6
CONTINUOUS
 10
94.424926
 20
167.633119
 11
94.424926
 21
166.883119
  0
LINE
  8
1
 62
7
  6
CONTINUOUS
 10
94.424926
 20
154.133119
 11
107.684260
 21
154.133119
  0
LINE
  8
1
 62
7
  6
CONTINUOUS
 10
120.240993
 20
154.353826
 11
120.240993
 21
158.383119
  0
LINE
  8
1
 62
7
  6
CONTINUOUS
 10
120.740993
 20
163.383119
 11
120.240993
 21
163.383119
  0
LINE
  8
1
 62
7
  6
CONTINUOUS
 10
120.240993
 20
163.383119
 11
120.240993
 21
167.383119
  0
LINE
  8
1
 62
7
  6
CONTINUOUS
 10
120.740993
 20
158.383119
 11
120.240993
 21
158.383119
  0
LINE
  8
1
 62
7
  6
CONTINUOUS
 10
120.240993
 20
158.383119
 11
120.240993
 21
163.383119
  0
LINE
  8
1
 62
7
  6
CONTINUOUS
 10
107.684260
 20
167.633119
 11
107.684260
 21
154.133119
  0
LINE
  8
1
 62
7
  6
CONTINUOUS
 10
107.684260
 20
167.633119
 11
119.990993
 21
167.633119
  0
LINE
  8
1
 62
7
  6
CONTINUOUS
 10
107.684260
 20
154.133119
 11
119.990993
 21
154.133119
  0
LINE
  8
1
 62
7
  6
CONTINUOUS
 10
89.470165
 20
166.833119
 11
94.424926
 21
166.833119
  0
LINE
  8
1
 62
7
  6
CONTINUOUS
 10
94.424926
 20
166.833119
 11
94.424926
 21
162.958119
  0
LINE
  8
1
 62
7
  6
CONTINUOUS
 10
89.470165
 20
154.933119
 11
94.424926
 21
154.933119
  0
LINE
  8
1
 62
7
  6
CONTINUOUS
 10
94.424926
 20
154.933119
 11
94.424926
 21
154.133119
  0
LINE
  8
1
 62
7
  6
DASHDOT
 10
74.240993
 20
155.383119
 11
76.551292
 21
155.383119
  0
LINE
  8
1
 62
7
  6
CONTINUOUS
 10
91.388369
 20
162.958119
 11
94.424926
 21
162.958119
  0
LINE
  8
1
 62
7
  6
CONTINUOUS
 10
94.424926
 20
162.958119
 11
94.424926
 21
162.708119
  0
LINE
  8
1
 62
7
  6
CONTINUOUS
 10
91.388369
 20
162.708119
 11
94.424926
 21
162.708119
  0
LINE
  8
1
 62
7
  6
CONTINUOUS
 10
94.424926
 20
162.708119
 11
94.424926
 21
159.058119
  0
LINE
  8
1
 62
7
  6
CONTINUOUS
 10
91.388369
 20
159.058119
 11
94.424926
 21
159.058119
  0
LINE
  8
1
 62
7
  6
CONTINUOUS
 10
94.424926
 20
159.058119
 11
94.424926
 21
158.808119
  0
LINE
  8
1
 62
7
  6
CONTINUOUS
 10
91.388369
 20
158.808119
 11
94.424926
 21
158.808119
  0
LINE
  8
1
 62
7
  6
CONTINUOUS
 10
94.424926
 20
158.808119
 11
94.424926
 21
154.933119
  0
LINE
  8
1
 62
7
  6
CONTINUOUS
 10
91.388369
 20
162.958119
 11
91.388369
 21
162.708119
  0
LINE
  8
1
 62
7
  6
CONTINUOUS
 10
91.388369
 20
159.058119
 11
91.388369
 21
158.808119
  0
LINE
  8
1
 62
7
  6
CONTINUOUS
 10
97.083886
 20
160.176013
 11
98.498100
 21
161.590226
  0
LINE
  8
1
 62
7
  6
CONTINUOUS
 10
97.083886
 20
161.590226
 11
98.498100
 21
160.176013
  0
LINE
  8
1
 62
7
  6
DASHDOT
 10
82.940993
 20
174.440583
 11
82.940993
 21
144.403211
  0
LINE
  8
1
 62
7
  6
DASHDOT
 10
72.440993
 20
155.383119
 11
69.953283
 21
155.383119
  0
LINE
  8
1
 62
7
  6
CONTINUOUS
 10
120.540993
 20
86.872976
 11
91.954871
 21
86.872976
  0
LINE
  8
1
 62
7
  6
CONTINUOUS
 10
120.540993
 20
90.822976
 11
102.247690
 21
90.822976
  0
LINE
  8
1
 62
7
  6
CONTINUOUS
 10
120.540993
 20
90.872976
 11
87.440993
 21
90.872976
  0
LINE
  8
1
 62
7
  6
CONTINUOUS
 10
119.540993
 20
53.394880
 11
119.540993
 21
84.872976
  0
LINE
  8
1
 62
7
  6
CONTINUOUS
 10
46.340993
 20
53.394880
 11
46.340993
 21
89.920612
  0
LINE
  8
1
 62
7
  6
CONTINUOUS
 10
120.540993
 20
51.010569
 11
120.540993
 21
92.735382
  0
LINE
  8
1
 62
7
  6
CONTINUOUS
 10
45.340993
 20
51.010569
 11
45.340993
 21
92.735382
  0
LINE
  8
1
 62
7
  6
DASHDOT
 10
77.940993
 20
60.372976
 11
77.940993
 21
58.372976
  0
LINE
  8
1
 62
7
  6
DASHDOT
 10
87.940993
 20
60.372976
 11
77.940993
 21
60.372976
  0
LINE
  8
1
 62
7
  6
DASHDOT
 10
87.940993
 20
58.372976
 11
87.940993
 21
60.372976
  0
LINE
  8
1
 62
7
  6
DASHDOT
 10
77.940993
 20
58.372976
 11
87.940993
 21
58.372976
  0
LINE
  8
1
 62
7
  6
CONTINUOUS
 10
96.940993
 20
61.372976
 11
68.940993
 21
61.372976
  0
LINE
  8
1
 62
7
  6
CONTINUOUS
 10
94.840993
 20
110.072976
 11
94.506366
 21
108.175209
  0
LINE
  8
1
 62
7
  6
CONTINUOUS
 10
107.258132
 20
114.572976
 11
107.366385
 21
114.572976
  0
LINE
  8
1
 62
7
  6
CONTINUOUS
 10
107.453689
 20
114.572976
 11
107.258132
 21
114.572976
  0
LINE
  8
1
 62
7
  6
CONTINUOUS
 10
107.684260
 20
114.459016
 11
109.995913
 21
112.620244
  0
LINE
  8
1
 62
7
  6
CONTINUOUS
 10
107.684260
 20
114.459016
 11
107.609318
 21
114.518628
  0
LINE
  8
1
 62
7
  6
CONTINUOUS
 10
120.240993
 20
103.906269
 11
120.240993
 21
93.267134
  0
LINE
  8
1
 62
7
  6
CONTINUOUS
 10
120.240993
 20
103.906269
 11
120.240993
 21
104.350354
  0
LINE
  8
1
 62
7
  6
CONTINUOUS
 10
120.052250
 20
104.621072
 11
120.146622
 21
104.546006
  0
LINE
  8
1
 62
7
  6
CONTINUOUS
 10
107.540993
 20
114.572976
 11
107.677643
 21
114.464280
  0
LINE
  8
1
 62
7
  6
CONTINUOUS
 10
107.258132
 20
114.572976
 11
95.640993
 21
114.572976
  0
LINE
  8
1
 62
7
  6
CONTINUOUS
 10
107.677643
 20
114.464280
 11
107.684260
 21
114.459016
  0
LINE
  8
1
 62
7
  6
CONTINUOUS
 10
120.240993
 20
104.229768
 11
120.240993
 21
103.906269
  0
LINE
  8
1
 62
7
  6
CONTINUOUS
 10
109.995913
 20
112.620244
 11
120.052250
 21
104.621072
  0
LINE
  8
1
 62
7
  6
CONTINUOUS
 10
95.640993
 20
114.572976
 11
94.847522
 21
110.072976
  0
LINE
  8
1
 62
7
  6
DASHDOT
 10
92.268243
 20
112.810796
 11
92.139595
 21
112.081198
  0
LINE
  8
1
 62
7
  6
DASHDOT
 10
91.810209
 20
112.533978
 11
92.657939
 21
112.384500
  0
LINE
  8
1
 62
7
  6
CONTINUOUS
 10
91.548596
 20
112.948549
 11
92.091127
 21
113.146015
  0
LINE
  8
1
 62
7
  6
CONTINUOUS
 10
91.548596
 20
112.948549
 11
91.388369
 21
112.039857
  0
LINE
  8
1
 62
7
  6
CONTINUOUS
 10
91.388369
 20
112.039857
 11
91.830645
 21
111.668743
  0
LINE
  8
1
 62
7
  6
CONTINUOUS
 10
86.658922
 20
36.180722
 11
97.508218
 21
57.505471
  0
LINE
  8
1
 62
7
  6
CONTINUOUS
 10
115.508960
 20
86.372976
 11
118.040993
 21
86.372976
  0
LINE
  8
1
 62
7
  6
CONTINUOUS
 10
112.785130
 20
91.372976
 11
116.237952
 21
91.372976
  0
LINE
  8
1
 62
7
  6
CONTINUOUS
 10
116.396187
 20
91.372976
 11
116.237952
 21
91.372976
  0
LINE
  8
1
 62
7
  6
CONTINUOUS
 10
99.433416
 20
86.372976
 11
115.508960
 21
86.372976
  0
LINE
  8
1
 62
7
  6
CONTINUOUS
 10
49.500696
 20
93.159785
 11
51.905191
 21
89.414398
  0
LINE
  8
1
 62
7
  6
CONTINUOUS
 10
50.413229
 20
86.462939
 11
48.462523
 21
89.501475
  0
LINE
  8
1
 62
7
  6
CONTINUOUS
 10
51.905191
 20
89.414398
 11
61.076205
 21
75.129076
  0
LINE
  8
1
 62
7
  6
CONTINUOUS
 10
83.485294
 20
36.227932
 11
81.785441
 21
36.227932
  0
LINE
  8
1
 62
7
  6
CONTINUOUS
 10
91.184488
 20
51.361023
 11
83.485294
 21
36.227932
  0
LINE
  8
1
 62
7
  6
CONTINUOUS
 10
66.870532
 20
60.828054
 11
63.106864
 21
66.690570
  0
LINE
  8
1
 62
7
  6
CONTINUOUS
 10
85.715993
 20
114.783340
 11
85.715993
 21
108.830466
  0
LINE
  8
1
 62
7
  6
CONTINUOUS
 10
80.165993
 20
114.783340
 11
80.165993
 21
108.830466
  0
LINE
  8
1
 62
7
  6
CONTINUOUS
 10
86.440993
 20
89.737956
 11
86.440993
 21
89.372976
  0
LINE
  8
1
 62
7
  6
CONTINUOUS
 10
86.440993
 20
89.737956
 11
86.440993
 21
89.872976
  0
LINE
  8
1
 62
7
  6
CONTINUOUS
 10
73.540993
 20
57.372976
 11
74.540993
 21
57.372976
  0
LINE
  8
1
 62
7
  6
CONTINUOUS
 10
74.540993
 20
56.872976
 11
74.540993
 21
57.372976
  0
LINE
  8
1
 62
7
  6
CONTINUOUS
 10
73.540993
 20
56.372976
 11
73.540993
 21
57.372976
  0
LINE
  8
1
 62
7
  6
CONTINUOUS
 10
92.340993
 20
57.372976
 11
91.340993
 21
57.372976
  0
LINE
  8
1
 62
7
  6
CONTINUOUS
 10
91.340993
 20
56.372976
 11
91.340993
 21
57.372976
  0
LINE
  8
1
 62
7
  6
CONTINUOUS
 10
92.340993
 20
57.372976
 11
92.340993
 21
56.372976
  0
LINE
  8
1
 62
7
  6
CONTINUOUS
 10
91.340993
 20
56.372976
 11
92.340993
 21
56.372976
  0
LINE
  8
1
 62
7
  6
CONTINUOUS
 10
74.540993
 20
56.372976
 11
74.540993
 21
56.872976
  0
LINE
  8
1
 62
7
  6
CONTINUOUS
 10
73.540993
 20
56.372976
 11
74.540993
 21
56.372976
  0
LINE
  8
1
 62
7
  6
DASHDOT
 10
81.151483
 20
112.372976
 11
79.585143
 21
112.372976
  0
LINE
  8
1
 62
7
  6
DASHDOT
 10
84.734753
 20
112.372976
 11
85.994916
 21
112.372976
  0
LINE
  8
1
 62
7
  6
CONTINUOUS
 10
85.315993
 20
33.722976
 11
85.315993
 21
28.938614
  0
LINE
  8
1
 62
7
  6
CONTINUOUS
 10
80.565993
 20
33.722976
 11
80.565993
 21
28.938614
  0
LINE
  8
1
 62
7
  6
CONTINUOUS
 10
80.565993
 20
33.722976
 11
85.315993
 21
33.722976
  0
LINE
  8
1
 62
7
  6
DASHDOT
 10
80.790674
 20
31.372976
 11
85.067628
 21
31.372976
  0
LINE
  8
1
 62
7
  6
DASHDOT
 10
81.151483
 20
112.372976
 11
84.734753
 21
112.372976
  0
LINE
  8
1
 62
7
  6
CONTINUOUS
 10
81.785441
 20
36.227932
 11
81.785441
 21
36.241708
  0
LINE
  8
1
 62
7
  6
CONTINUOUS
 10
81.785441
 20
36.227932
 11
78.122179
 21
31.862227
  0
LINE
  8
1
 62
7
  6
CONTINUOUS
 10
82.940993
 20
91.372976
 11
89.265548
 21
91.372976
  0
LINE
  8
1
 62
7
  6
CONTINUOUS
 10
86.440993
 20
89.872976
 11
86.440993
 21
89.737956
  0
LINE
  8
1
 62
7
  6
DASHDOT
 10
82.940993
 20
107.942476
 11
82.940993
 21
107.654420
  0
LINE
  8
1
 62
7
  6
CONTINUOUS
 10
82.940993
 20
107.654420
 11
82.940993
 21
107.942476
  0
LINE
  8
1
 62
7
  6
CONTINUOUS
 10
46.212447
 20
49.511985
 11
50.610320
 21
52.534560
  0
LINE
  8
1
 62
7
  6
CONTINUOUS
 10
48.902876
 20
45.597386
 11
53.300750
 21
48.619961
  0
LINE
  8
1
 62
7
  6
CONTINUOUS
 10
119.669539
 20
49.511985
 11
115.271666
 21
52.534560
  0
LINE
  8
1
 62
7
  6
CONTINUOUS
 10
112.581236
 20
48.619961
 11
116.979110
 21
45.597386
  0
LINE
  8
1
 62
7
  6
CONTINUOUS
 10
99.597690
 20
90.822976
 11
102.247690
 21
90.822976
  0
LINE
  8
1
 62
7
  6
CONTINUOUS
 10
99.597690
 20
90.822976
 11
87.590993
 21
90.822976
  0
LINE
  8
1
 62
7
  6
CONTINUOUS
 10
86.590993
 20
89.322976
 11
86.590993
 21
89.822976
  0
LINE
  8
1
 62
7
  6
DASHDOT
 10
82.940993
 20
117.079951
 11
82.940993
 21
71.872976
  0
LINE
  8
1
 62
7
  6
CONTINUOUS
 10
95.289927
 20
112.581980
 11
92.091127
 21
113.146015
  0
LINE
  8
1
 62
7
  6
CONTINUOUS
 10
95.029376
 20
111.104320
 11
91.830645
 21
111.668743
  0
LINE
  8
1
 62
7
  6
CONTINUOUS
 10
89.470165
 20
108.901747
 11
89.556989
 21
109.394151
  0
LINE
  8
1
 62
7
  6
CONTINUOUS
 10
94.424926
 20
107.676317
 11
94.506366
 21
108.175209
  0
LINE
  8
1
 62
7
  6
CONTINUOUS
 10
89.265548
 20
91.372976
 11
112.785130
 21
91.372976
  0
LINE
  8
1
 62
7
  6
CONTINUOUS
 10
63.106864
 20
66.690570
 11
50.413229
 21
86.462939
  0
LINE
  8
1
 62
7
  6
CONTINUOUS
 10
97.508218
 20
57.505471
 11
100.430569
 21
63.249477
  0
LINE
  8
1
 62
7
  6
DASHDOT
 10
100.440993
 20
71.872976
 11
129.419010
 21
71.872976
  0
LINE
  8
1
 62
7
  6
CONTINUOUS
 10
73.143034
 20
57.372976
 11
92.738952
 21
57.372976
  0
LINE
  8
1
 62
7
  6
CONTINUOUS
 10
89.846382
 20
83.290659
 11
91.623378
 21
83.290659
  0
LINE
  8
1
 62
7
  6
CONTINUOUS
 10
91.623378
 20
83.290659
 11
91.579297
 21
83.040659
  0
LINE
  8
1
 62
7
  6
CONTINUOUS
 10
91.579297
 20
83.040659
 11
91.325440
 21
83.040659
  0
LINE
  8
1
 62
7
  6
CONTINUOUS
 10
91.325440
 20
83.040659
 11
90.884623
 21
80.540659
  0
LINE
  8
1
 62
7
  6
CONTINUOUS
 10
90.884623
 20
80.540659
 11
91.138479
 21
80.540659
  0
LINE
  8
1
 62
7
  6
CONTINUOUS
 10
91.138479
 20
80.540659
 11
91.094398
 21
80.290659
  0
LINE
  8
1
 62
7
  6
CONTINUOUS
 10
91.094398
 20
80.290659
 11
89.317401
 21
80.290659
  0
LINE
  8
1
 62
7
  6
CONTINUOUS
 10
89.317401
 20
80.290659
 11
89.361483
 21
80.540659
  0
LINE
  8
1
 62
7
  6
CONTINUOUS
 10
89.361483
 20
80.540659
 11
89.615339
 21
80.540659
  0
LINE
  8
1
 62
7
  6
CONTINUOUS
 10
89.615339
 20
80.540659
 11
90.056157
 21
83.040659
  0
LINE
  8
1
 62
7
  6
CONTINUOUS
 10
90.056157
 20
83.040659
 11
89.802300
 21
83.040659
  0
LINE
  8
1
 62
7
  6
CONTINUOUS
 10
89.802300
 20
83.040659
 11
89.846382
 21
83.290659
  0
LINE
  8
1
 62
7
  6
CONTINUOUS
 10
90.563870
 20
83.040659
 11
90.817727
 21
83.040659
  0
LINE
  8
1
 62
7
  6
CONTINUOUS
 10
90.817727
 20
83.040659
 11
90.376909
 21
80.540659
  0
LINE
  8
1
 62
7
  6
CONTINUOUS
 10
90.376909
 20
80.540659
 11
90.123053
 21
80.540659
  0
LINE
  8
1
 62
7
  6
CONTINUOUS
 10
90.123053
 20
80.540659
 11
90.563870
 21
83.040659
  0
LINE
  8
1
 62
7
  6
DASHDOT
 10
114.724544
 20
50.028746
 11
117.729349
 21
47.963601
  0
LINE
  8
1
 62
7
  6
DASHDOT
 10
50.980878
 20
49.907397
 11
50.918383
 21
49.864445
  0
LINE
  8
1
 62
7
  6
DASHDOT
 10
100.440993
 20
71.872976
 11
82.940993
 21
71.872976
  0
LINE
  8
1
 62
7
  6
CONTINUOUS
 10
114.724544
 20
50.028746
 11
82.940993
 21
71.872976
  0
LINE
  8
1
 62
7
  6
DASHDOT
 10
82.940993
 20
71.872976
 11
82.940993
 21
25.997285
  0
LINE
  8
1
 62
7
  6
DASHDOT
 10
82.940993
 20
71.872976
 11
44.108651
 21
71.872976
  0
LINE
  8
1
 62
7
  6
CONTINUOUS
 10
82.940993
 20
71.872976
 11
50.918383
 21
49.864445
  0
LINE
  8
1
 62
7
  6
DASHDOT
 10
50.918383
 20
49.864445
 11
48.142062
 21
47.956333
  0
LINE
  8
1
 62
7
  6
CONTINUOUS
 10
91.871139
 20
86.922976
 11
120.540993
 21
86.922976
  0
LINE
  8
1
 62
7
  6
CONTINUOUS
 10
175.045856
 20
85.067444
 11
175.045856
 21
58.678507
  0
LINE
  8
1
 62
7
  6
CONTINUOUS
 10
179.295856
 20
81.372976
 11
175.045856
 21
85.067444
  0
LINE
  8
1
 62
7
  6
CONTINUOUS
 10
175.045856
 20
58.678507
 11
175.045856
 21
30.578507
  0
LINE
  8
1
 62
7
  6
CONTINUOUS
 10
179.295856
 20
62.372976
 11
175.045856
 21
58.678507
  0
LINE
  8
1
 62
7
  6
CONTINUOUS
 10
175.045856
 20
87.422976
 11
175.045856
 21
85.067444
  0
LINE
  8
1
 62
7
  6
CONTINUOUS
 10
196.295856
 20
62.372976
 11
179.295856
 21
62.372976
  0
LINE
  8
1
 62
7
  6
CONTINUOUS
 10
179.295856
 20
81.372976
 11
179.295856
 21
89.551184
  0
LINE
  8
1
 62
7
  6
CONTINUOUS
 10
185.295856
 20
81.372976
 11
179.295856
 21
81.372976
  0
LINE
  8
1
 62
7
  6
CONTINUOUS
 10
185.295856
 20
81.372976
 11
185.295856
 21
86.872976
  0
LINE
  8
1
 62
7
  6
CONTINUOUS
 10
196.295856
 20
81.372976
 11
196.295856
 21
109.472976
  0
LINE
  8
1
 62
7
  6
CONTINUOUS
 10
196.295856
 20
81.372976
 11
190.295856
 21
81.372976
  0
LINE
  8
1
 62
7
  6
DASHDOT
 10
200.571668
 20
31.372976
 11
194.675082
 21
31.372976
  0
LINE
  8
1
 62
7
  6
DASHDOT
 10
195.376107
 20
112.372976
 11
200.350615
 21
112.372976
  0
LINE
  8
1
 62
7
  6
CONTINUOUS
 10
173.795856
 20
49.511985
 11
173.795856
 21
114.872976
  0
LINE
  8
1
 62
7
  6
CONTINUOUS
 10
199.295856
 20
74.247976
 11
199.295856
 21
112.872976
  0
LINE
  8
1
 62
7
  6
CONTINUOUS
 10
198.945856
 20
74.247976
 11
199.295856
 21
74.247976
  0
LINE
  8
1
 62
7
  6
CONTINUOUS
 10
198.945856
 20
69.497976
 11
199.295856
 21
69.497976
  0
LINE
  8
1
 62
7
  6
CONTINUOUS
 10
179.295856
 20
34.272976
 11
177.445856
 21
32.664795
  0
LINE
  8
1
 62
7
  6
CONTINUOUS
 10
179.295856
 20
109.472976
 11
181.045856
 21
109.472976
  0
LINE
  8
1
 62
7
  6
CONTINUOUS
 10
179.295856
 20
34.272976
 11
185.295856
 21
34.272976
  0
LINE
  8
1
 62
7
  6
CONTINUOUS
 10
179.295856
 20
35.447740
 11
179.295856
 21
34.272976
  0
LINE
  8
1
 62
7
  6
CONTINUOUS
 10
199.295856
 20
30.872976
 11
199.295856
 21
69.497976
  0
LINE
  8
1
 62
7
  6
CONTINUOUS
 10
175.045856
 20
28.872976
 11
175.045856
 21
30.578507
  0
LINE
  8
1
 62
7
  6
CONTINUOUS
 10
196.295856
 20
114.372976
 11
196.295856
 21
109.472976
  0
LINE
  8
1
 62
7
  6
CONTINUOUS
 10
196.795856
 20
114.872976
 11
197.295856
 21
114.872976
  0
LINE
  8
1
 62
7
  6
CONTINUOUS
 10
196.795856
 20
28.872976
 11
197.295856
 21
28.872976
  0
LINE
  8
1
 62
7
  6
CONTINUOUS
 10
194.795856
 20
34.272976
 11
196.295856
 21
34.272976
  0
LINE
  8
1
 62
7
  6
CONTINUOUS
 10
196.295856
 20
34.272976
 11
196.295856
 21
29.372976
  0
LINE
  8
1
 62
7
  6
CONTINUOUS
 10
194.795856
 20
109.472976
 11
196.295856
 21
109.472976
  0
LINE
  8
1
 62
7
  6
CONTINUOUS
 10
179.295856
 20
109.472976
 11
177.445856
 21
111.081156
  0
LINE
  8
1
 62
7
  6
CONTINUOUS
 10
175.045856
 20
113.167444
 11
175.045856
 21
114.872976
  0
LINE
  8
1
 62
7
  6
CONTINUOUS
 10
198.945856
 20
69.497976
 11
198.945856
 21
74.247976
  0
LINE
  8
1
 62
7
  6
CONTINUOUS
 10
196.295856
 20
34.272976
 11
196.295856
 21
62.372976
  0
LINE
  8
1
 62
7
  6
DASHDOT
 10
172.009387
 20
71.872976
 11
200.159366
 21
71.872976
  0
LINE
  8
1
 62
7
  6
CONTINUOUS
 10
185.295856
 20
34.272976
 11
194.795856
 21
34.272976
  0
LINE
  8
1
 62
7
  6
CONTINUOUS
 10
181.045856
 20
85.872976
 11
185.295856
 21
85.872976
  0
LINE
  8
1
 62
7
  6
CONTINUOUS
 10
194.545856
 20
85.872976
 11
194.545856
 21
104.452756
  0
LINE
  8
1
 62
7
  6
CONTINUOUS
 10
181.045856
 20
114.572976
 11
194.545856
 21
114.572976
  0
LINE
  8
1
 62
7
  6
CONTINUOUS
 10
194.545856
 20
109.472976
 11
194.795856
 21
109.472976
  0
LINE
  8
1
 62
7
  6
CONTINUOUS
 10
181.045856
 20
104.452756
 11
194.545856
 21
104.452756
  0
LINE
  8
1
 62
7
  6
CONTINUOUS
 10
181.045856
 20
104.452756
 11
181.045856
 21
114.572976
  0
LINE
  8
1
 62
7
  6
CONTINUOUS
 10
194.545856
 20
104.452756
 11
194.545856
 21
114.572976
  0
LINE
  8
1
 62
7
  6
CONTINUOUS
 10
190.295856
 20
86.872976
 11
190.295856
 21
81.372976
  0
LINE
  8
1
 62
7
  6
CONTINUOUS
 10
185.295856
 20
86.872976
 11
190.295856
 21
86.872976
  0
LINE
  8
1
 62
7
  6
CONTINUOUS
 10
190.295856
 20
85.872976
 11
194.545856
 21
85.872976
  0
LINE
  8
1
 62
7
  6
CONTINUOUS
 10
173.795875
 20
90.872976
 11
174.295875
 21
90.872976
  0
LINE
  8
1
 62
7
  6
CONTINUOUS
 10
173.795875
 20
90.872976
 11
173.795875
 21
86.872976
  0
LINE
  8
1
 62
7
  6
CONTINUOUS
 10
173.795875
 20
86.872976
 11
174.295875
 21
86.872976
  0
LINE
  8
1
 62
7
  6
CONTINUOUS
 10
174.295875
 20
86.872976
 11
174.295875
 21
87.122976
  0
LINE
  8
1
 62
7
  6
CONTINUOUS
 10
174.295875
 20
90.372976
 11
174.295875
 21
90.622976
  0
LINE
  8
1
 62
7
  6
CONTINUOUS
 10
175.045875
 20
90.372976
 11
175.145875
 21
90.372976
  0
LINE
  8
1
 62
7
  6
CONTINUOUS
 10
175.045875
 20
87.372976
 11
175.145875
 21
87.372976
  0
LINE
  8
1
 62
7
  6
CONTINUOUS
 10
177.045875
 20
90.372976
 11
177.045875
 21
90.129024
  0
LINE
  8
1
 62
7
  6
CONTINUOUS
 10
177.045875
 20
90.372976
 11
177.608478
 21
90.372976
  0
LINE
  8
1
 62
7
  6
CONTINUOUS
 10
177.045875
 20
87.372976
 11
179.295875
 21
87.372976
  0
LINE
  8
1
 62
7
  6
CONTINUOUS
 10
174.095875
 20
88.122976
 11
174.095875
 21
87.722976
  0
LINE
  8
1
 62
7
  6
CONTINUOUS
 10
174.095875
 20
90.022976
 11
174.095875
 21
89.622976
  0
LINE
  8
1
 62
7
  6
CONTINUOUS
 10
174.095875
 20
87.722976
 11
175.545875
 21
87.722976
  0
LINE
  8
1
 62
7
  6
CONTINUOUS
 10
174.295875
 20
88.122976
 11
174.295875
 21
89.622976
  0
LINE
  8
1
 62
7
  6
CONTINUOUS
 10
174.295875
 20
88.122976
 11
174.095875
 21
88.122976
  0
LINE
  8
1
 62
7
  6
CONTINUOUS
 10
174.295875
 20
89.622976
 11
174.095875
 21
89.622976
  0
LINE
  8
1
 62
7
  6
CONTINUOUS
 10
174.095875
 20
90.022976
 11
175.545875
 21
90.022976
  0
LINE
  8
1
 62
7
  6
CONTINUOUS
 10
175.145875
 20
87.422976
 11
175.145875
 21
87.272976
  0
LINE
  8
1
 62
7
  6
CONTINUOUS
 10
175.286067
 20
87.272976
 11
175.145875
 21
87.272976
  0
LINE
  8
1
 62
7
  6
CONTINUOUS
 10
175.145875
 20
90.472976
 11
175.286067
 21
90.472976
  0
LINE
  8
1
 62
7
  6
CONTINUOUS
 10
175.145875
 20
90.322976
 11
175.145875
 21
90.472976
  0
LINE
  8
1
 62
7
  6
CONTINUOUS
 10
175.545875
 20
87.422976
 11
175.286067
 21
87.272976
  0
LINE
  8
1
 62
7
  6
CONTINUOUS
 10
175.545875
 20
90.322976
 11
175.286067
 21
90.472976
  0
LINE
  8
1
 62
7
  6
CONTINUOUS
 10
175.545875
 20
87.722976
 11
175.545875
 21
87.422976
  0
LINE
  8
1
 62
7
  6
CONTINUOUS
 10
175.545875
 20
90.022976
 11
175.545875
 21
90.322976
  0
LINE
  8
1
 62
7
  6
CONTINUOUS
 10
174.295875
 20
87.422976
 11
175.145875
 21
87.422976
  0
LINE
  8
1
 62
7
  6
CONTINUOUS
 10
174.295875
 20
90.322976
 11
174.295875
 21
90.622976
  0
LINE
  8
1
 62
7
  6
CONTINUOUS
 10
174.295875
 20
90.322976
 11
175.145875
 21
90.322976
  0
LINE
  8
1
 62
7
  6
CONTINUOUS
 10
174.295875
 20
86.922976
 11
174.295875
 21
87.122976
  0
LINE
  8
1
 62
7
  6
CONTINUOUS
 10
173.845875
 20
90.822976
 11
173.845875
 21
86.922976
  0
LINE
  8
1
 62
7
  6
CONTINUOUS
 10
174.295875
 20
90.822976
 11
173.845875
 21
90.822976
  0
LINE
  8
1
 62
7
  6
CONTINUOUS
 10
173.845875
 20
86.922976
 11
174.295875
 21
86.922976
  0
LINE
  8
1
 62
7
  6
CONTINUOUS
 10
173.795875
 20
90.872976
 11
173.795875
 21
91.122976
  0
LINE
  8
1
 62
7
  6
CONTINUOUS
 10
175.045875
 20
90.622976
 11
175.045875
 21
90.372976
  0
LINE
  8
1
 62
7
  6
CONTINUOUS
 10
174.295875
 20
90.622976
 11
174.295875
 21
90.872976
  0
LINE
  8
1
 62
7
  6
CONTINUOUS
 10
174.295875
 20
90.622976
 11
174.295875
 21
90.822976
  0
LINE
  8
1
 62
7
  6
CONTINUOUS
 10
174.295875
 20
90.622976
 11
174.728887
 21
90.372976
  0
LINE
  8
1
 62
7
  6
CONTINUOUS
 10
174.728887
 20
90.372976
 11
175.045875
 21
90.372976
  0
LINE
  8
1
 62
7
  6
CONTINUOUS
 10
174.295875
 20
87.122976
 11
174.728887
 21
87.372976
  0
LINE
  8
1
 62
7
  6
CONTINUOUS
 10
174.295875
 20
87.122976
 11
174.295875
 21
87.372976
  0
LINE
  8
1
 62
7
  6
CONTINUOUS
 10
174.295875
 20
87.122976
 11
174.295875
 21
87.422976
  0
LINE
  8
1
 62
7
  6
CONTINUOUS
 10
174.728887
 20
87.372976
 11
175.045875
 21
87.372976
  0
LINE
  8
1
 62
7
  6
CONTINUOUS
 10
175.459272
 20
90.372976
 11
177.045875
 21
90.372976
  0
LINE
  8
1
 62
7
  6
CONTINUOUS
 10
175.045856
 20
90.322976
 11
175.045856
 21
113.167444
  0
LINE
  8
1
 62
7
  6
CONTINUOUS
 10
175.459272
 20
87.372976
 11
177.045875
 21
87.372976
  0
LINE
  8
1
 62
7
  6
CONTINUOUS
 10
181.045856
 20
104.452756
 11
181.045856
 21
92.887499
  0
LINE
  8
1
 62
7
  6
CONTINUOUS
 10
177.045875
 20
88.420466
 11
177.045875
 21
87.372976
  0
LINE
  8
1
 62
7
  6
CONTINUOUS
 10
181.045856
 20
92.887499
 11
181.045856
 21
92.143499
  0
LINE
  8
1
 62
7
  6
CONTINUOUS
 10
181.045856
 20
92.143499
 11
181.045856
 21
90.858658
  0
LINE
  8
1
 62
7
  6
CONTINUOUS
 10
181.045856
 20
90.858658
 11
181.045856
 21
85.872976
  0
LINE
  8
1
 62
7
  6
CONTINUOUS
 10
199.295856
 20
74.247976
 11
199.295856
 21
69.497976
  0
LINE
  8
1
 62
7
  6
CONTINUOUS
 10
179.295856
 20
35.447740
 11
179.295856
 21
62.372976
  0
LINE
  8
1
 62
7
  6
CONTINUOUS
 10
177.445856
 20
114.872976
 11
177.445856
 21
111.081156
  0
LINE
  8
1
 62
7
  6
CONTINUOUS
 10
177.445856
 20
114.872976
 11
173.795856
 21
114.872976
  0
LINE
  8
1
 62
7
  6
CONTINUOUS
 10
177.445856
 20
111.081156
 11
175.045856
 21
113.167444
  0
LINE
  8
1
 62
7
  6
CONTINUOUS
 10
177.445856
 20
28.872976
 11
177.445856
 21
32.664795
  0
LINE
  8
1
 62
7
  6
CONTINUOUS
 10
177.445856
 20
28.872976
 11
173.795856
 21
28.872976
  0
LINE
  8
1
 62
7
  6
CONTINUOUS
 10
177.445856
 20
32.664795
 11
175.045856
 21
30.578507
  0
LINE
  8
1
 62
7
  6
DASHDOT
 10
178.396864
 20
31.372976
 11
172.901852
 21
31.372976
  0
LINE
  8
1
 62
7
  6
DASHDOT
 10
178.541791
 20
112.372976
 11
173.137228
 21
112.372976
  0
LINE
  8
1
 62
7
  6
CONTINUOUS
 10
179.295856
 20
46.243934
 11
179.295856
 21
49.471913
  0
LINE
  8
1
 62
7
  6
CONTINUOUS
 10
175.045856
 20
51.569519
 11
175.045856
 21
45.809137
  0
LINE
  8
1
 62
7
  6
CONTINUOUS
 10
177.445856
 20
47.808523
 11
177.445856
 21
50.058523
  0
LINE
  8
1
 62
7
  6
CONTINUOUS
 10
177.445856
 20
47.808523
 11
177.445856
 21
50.058523
  0
LINE
  8
1
 62
7
  6
CONTINUOUS
 10
173.795856
 20
50.058523
 11
173.795856
 21
49.511985
  0
LINE
  8
1
 62
7
  6
CONTINUOUS
 10
177.445856
 20
50.058523
 11
177.445856
 21
51.569519
  0
LINE
  8
1
 62
7
  6
CONTINUOUS
 10
177.445856
 20
50.058523
 11
177.445856
 21
51.569519
  0
LINE
  8
1
 62
7
  6
CONTINUOUS
 10
177.445856
 20
45.809137
 11
177.445856
 21
47.808523
  0
LINE
  8
1
 62
7
  6
CONTINUOUS
 10
177.445856
 20
51.569519
 11
175.045856
 21
51.569519
  0
LINE
  8
1
 62
7
  6
CONTINUOUS
 10
177.445856
 20
45.809137
 11
177.445856
 21
47.808523
  0
LINE
  8
1
 62
7
  6
CONTINUOUS
 10
177.445856
 20
45.809137
 11
175.045856
 21
45.809137
  0
LINE
  8
1
 62
7
  6
DASHDOT
 10
181.194558
 20
48.933523
 11
172.772813
 21
48.933523
  0
LINE
  8
1
 62
7
  6
CONTINUOUS
 10
173.795856
 20
49.511985
 11
174.145856
 21
49.511985
  0
LINE
  8
1
 62
7
  6
CONTINUOUS
 10
173.795856
 20
49.511985
 11
173.795856
 21
45.597386
  0
LINE
  8
1
 62
7
  6
CONTINUOUS
 10
173.795856
 20
49.511985
 11
173.795856
 21
47.808523
  0
LINE
  8
1
 62
7
  6
CONTINUOUS
 10
173.795856
 20
45.597386
 11
174.145856
 21
45.597386
  0
LINE
  8
1
 62
7
  6
CONTINUOUS
 10
173.795856
 20
45.597386
 11
173.795856
 21
28.872976
  0
LINE
  8
1
 62
7
  6
CONTINUOUS
 10
174.145856
 20
49.511985
 11
174.145856
 21
45.597386
  0
LINE
  8
1
 62
7
  6
CONTINUOUS
 10
179.295856
 20
91.353731
 11
179.295856
 21
109.472976
  0
ARC
  8
1
 62
7
  6
CONTINUOUS
 10
81.990813
 20
69.805027
 40
59.805027
 50
-97.491828
 51
-79.318875
  0
ARC
  8
1
 62
7
  6
CONTINUOUS
 10
82.940993
 20
71.872976
 40
41.000000
 50
-27.111914
 51
-26.787657
  0
ARC
  8
1
 62
7
  6
CONTINUOUS
 10
82.940993
 20
71.872976
 40
43.000000
 50
-31.333796
 51
-29.023758
  0
ARC
  8
1
 62
7
  6
CONTINUOUS
 10
82.940993
 20
71.872976
 40
43.000000
 50
134.671654
 51
150.976242
  0
ARC
  8
1
 62
7
  6
CONTINUOUS
 10
82.940993
 20
71.872976
 40
17.500000
 50
124.047732
 51
-143.130102
  0
ARC
  8
1
 62
7
  6
CONTINUOUS
 10
82.940993
 20
71.872976
 40
17.500000
 50
-55.952268
 51
-36.869898
  0
ARC
  8
1
 62
7
  6
CONTINUOUS
 10
82.940993
 20
71.872976
 40
17.500000
 50
-143.130102
 51
-124.047732
  0
ARC
  8
1
 62
7
  6
CONTINUOUS
 10
82.940993
 20
71.872976
 40
35.650000
 50
-83.806679
 51
0.000000
  0
ARC
  8
1
 62
7
  6
CONTINUOUS
 10
82.940993
 20
71.872976
 40
41.000000
 50
-79.908485
 51
-41.888086
  0
ARC
  8
1
 62
7
  6
CONTINUOUS
 10
82.940993
 20
71.872976
 40
35.650000
 50
-0.000000
 51
23.999716
  0
ARC
  8
1
 62
7
  6
CONTINUOUS
 10
82.940993
 20
71.872976
 40
35.650000
 50
33.160387
 51
49.278963
  0
ARC
  8
1
 62
7
  6
CONTINUOUS
 10
82.940993
 20
71.872976
 40
41.000000
 50
32.116707
 51
49.185529
  0
ARC
  8
1
 62
7
  6
CONTINUOUS
 10
82.940993
 20
71.872976
 40
41.000000
 50
123.229747
 51
144.499800
  0
ARC
  8
1
 62
7
  6
CONTINUOUS
 10
82.940993
 20
71.872976
 40
35.650000
 50
155.841916
 51
-91.857500
  0
ARC
  8
1
 62
7
  6
CONTINUOUS
 10
82.940993
 20
71.872976
 40
35.650000
 50
124.409806
 51
150.524884
  0
ARC
  8
1
 62
7
  6
CONTINUOUS
 10
82.940993
 20
71.872976
 40
19.500000
 50
-145.500000
 51
-70.798918
  0
ARC
  8
1
 62
7
  6
CONTINUOUS
 10
82.940993
 20
71.872976
 40
19.500000
 50
90.000000
 51
168.834655
  0
ARC
  8
1
 62
7
  6
CONTINUOUS
 10
82.940993
 20
71.872976
 40
19.500000
 50
-26.246295
 51
38.246620
  0
ARC
  8
1
 62
7
  6
CONTINUOUS
 10
82.940993
 20
112.372976
 40
4.500000
 50
-128.073123
 51
-51.926877
  0
ARC
  8
1
 62
7
  6
CONTINUOUS
 10
82.940993
 20
71.872976
 40
43.000000
 50
82.444498
 51
86.299852
  0
ARC
  8
1
 62
7
  6
CONTINUOUS
 10
82.940993
 20
112.372976
 40
4.500000
 50
-166.191169
 51
-128.073123
  0
ARC
  8
1
 62
7
  6
CONTINUOUS
 10
82.940993
 20
71.872976
 40
43.000000
 50
86.299852
 51
93.700148
  0
ARC
  8
1
 62
7
  6
CONTINUOUS
 10
82.940993
 20
71.872976
 40
41.000000
 50
80.777506
 51
81.517433
  0
ARC
  8
1
 62
7
  6
CONTINUOUS
 10
82.940993
 20
71.872976
 40
41.000000
 50
98.482567
 51
98.731701
  0
ARC
  8
1
 62
7
  6
CONTINUOUS
 10
82.940993
 20
112.372976
 40
4.500000
 50
-51.926877
 51
-13.808831
  0
ARC
  8
1
 62
7
  6
CONTINUOUS
 10
82.940993
 20
71.872976
 40
43.000000
 50
73.198778
 51
80.320674
  0
ARC
  8
1
 62
7
  6
CONTINUOUS
 10
82.940993
 20
71.872976
 40
43.000000
 50
80.320674
 51
81.034255
  0
ARC
  8
1
 62
7
  6
CONTINUOUS
 10
82.940993
 20
71.872976
 40
43.000000
 50
81.034255
 51
82.035485
  0
ARC
  8
1
 62
7
  6
CONTINUOUS
 10
82.940993
 20
71.872976
 40
43.000000
 50
97.467424
 51
97.900502
  0
ARC
  8
1
 62
7
  6
CONTINUOUS
 10
82.940993
 20
71.872976
 40
43.000000
 50
93.700148
 51
97.467424
  0
ARC
  8
1
 62
7
  6
CONTINUOUS
 10
82.940993
 20
71.872976
 40
43.000000
 50
82.035485
 51
82.444498
  0
ARC
  8
1
 62
7
  6
CONTINUOUS
 10
82.940993
 20
71.872976
 40
43.000000
 50
115.664894
 51
124.313420
  0
ARC
  8
1
 62
7
  6
CONTINUOUS
 10
82.940993
 20
71.872976
 40
43.000000
 50
47.473178
 51
48.301667
  0
ARC
  8
1
 62
7
  6
CONTINUOUS
 10
82.940993
 20
71.872976
 40
43.000000
 50
125.278393
 51
134.671654
  0
ARC
  8
1
 62
7
  6
CONTINUOUS
 10
82.940993
 20
71.872976
 40
43.000000
 50
124.313420
 51
125.278393
  0
ARC
  8
1
 62
7
  6
CONTINUOUS
 10
82.940993
 20
71.872976
 40
43.000000
 50
29.023758
 51
47.473178
  0
ARC
  8
1
 62
7
  6
CONTINUOUS
 10
82.940993
 20
71.872976
 40
43.000000
 50
97.900502
 51
115.664894
  0
ARC
  8
1
 62
7
  6
CONTINUOUS
 10
82.940993
 20
71.872976
 40
43.000000
 50
-93.166204
 51
-86.833796
  0
ARC
  8
1
 62
7
  6
CONTINUOUS
 10
82.940993
 20
71.872976
 40
43.000000
 50
-142.333796
 51
-93.166204
  0
ARC
  8
1
 62
7
  6
CONTINUOUS
 10
49.563882
 20
48.933523
 40
3.750000
 50
73.796480
 51
109.848478
  0
ARC
  8
1
 62
7
  6
CONTINUOUS
 10
116.318104
 20
48.933523
 40
3.750000
 50
-175.203520
 51
-139.151522
  0
ARC
  8
1
 62
7
  6
CONTINUOUS
 10
82.940993
 20
71.872976
 40
41.000000
 50
-153.212343
 51
-152.888086
  0
ARC
  8
1
 62
7
  6
CONTINUOUS
 10
82.940993
 20
71.872976
 40
41.000000
 50
-138.111914
 51
-98.689843
  0
ARC
  8
1
 62
7
  6
CONTINUOUS
 10
82.940993
 20
71.872976
 40
43.000000
 50
-150.976242
 51
-148.666204
  0
ARC
  8
1
 62
7
  6
CONTINUOUS
 10
49.563882
 20
48.933523
 40
3.750000
 50
-4.796480
 51
73.796480
  0
ARC
  8
1
 62
7
  6
CONTINUOUS
 10
82.940993
 20
71.872976
 40
43.000000
 50
-148.666204
 51
-142.333796
  0
ARC
  8
1
 62
7
  6
CONTINUOUS
 10
49.563882
 20
48.933523
 40
3.750000
 50
-40.848478
 51
-4.796480
  0
ARC
  8
1
 62
7
  6
CONTINUOUS
 10
82.940993
 20
71.872976
 40
43.000000
 50
-37.666204
 51
-31.333796
  0
ARC
  8
1
 62
7
  6
CONTINUOUS
 10
116.318104
 20
48.933523
 40
3.750000
 50
70.151522
 51
106.203520
  0
ARC
  8
1
 62
7
  6
CONTINUOUS
 10
116.318104
 20
48.933523
 40
3.750000
 50
106.203520
 51
-175.203520
  0
ARC
  8
1
 62
7
  6
CONTINUOUS
 10
82.940993
 20
71.872976
 40
43.000000
 50
-86.833796
 51
-37.666204
  0
ARC
  8
1
 62
7
  6
CONTINUOUS
 10
82.940993
 20
71.872976
 40
35.650000
 50
80.490475
 51
124.409806
  0
ARC
  8
1
 62
7
  6
CONTINUOUS
 10
82.940993
 20
71.872976
 40
41.000000
 50
98.482567
 51
123.229747
  0
ARC
  8
1
 62
7
  6
CONTINUOUS
 10
82.940993
 20
71.872976
 40
35.650000
 50
66.254296
 51
80.490475
  0
ARC
  8
1
 62
7
  6
CONTINUOUS
 10
82.940993
 20
71.872976
 40
43.000000
 50
48.301667
 51
68.398586
  0
ARC
  8
1
 62
7
  6
CONTINUOUS
 10
82.940993
 20
71.872976
 40
35.650000
 50
49.278963
 51
66.254296
  0
ARC
  8
1
 62
7
  6
CONTINUOUS
 10
82.940993
 20
71.872976
 40
41.000000
 50
49.185529
 51
67.365825
  0
ARC
  8
1
 62
7
  6
CONTINUOUS
 10
82.940993
 20
71.872976
 40
37.600000
 50
80.000000
 51
81.134793
  0
ARC
  8
1
 62
7
  6
CONTINUOUS
 10
82.940993
 20
71.872976
 40
37.600000
 50
72.216340
 51
80.000000
  0
ARC
  8
1
 62
7
  6
CONTINUOUS
 10
82.940993
 20
71.872976
 40
38.100000
 50
72.328865
 51
80.000000
  0
ARC
  8
1
 62
7
  6
CONTINUOUS
 10
82.940993
 20
71.872976
 40
37.600000
 50
67.380655
 51
72.216340
  0
ARC
  8
1
 62
7
  6
CONTINUOUS
 10
58.195562
 20
84.375654
 40
17.013194
 50
27.393090
 51
35.011924
  0
ARC
  8
1
 62
7
  6
CONTINUOUS
 10
58.195562
 20
84.375654
 40
17.013194
 50
27.393090
 51
35.011924
  0
ARC
  8
1
 62
7
  6
CONTINUOUS
 10
58.195562
 20
84.375654
 40
17.013194
 50
23.182480
 51
27.393090
  0
ARC
  8
1
 62
7
  6
CONTINUOUS
 10
58.195562
 20
84.375654
 40
17.013194
 50
23.182480
 51
27.393090
  0
ARC
  8
1
 62
7
  6
CONTINUOUS
 10
82.940993
 20
71.872976
 40
21.250000
 50
66.584486
 51
115.373388
  0
ARC
  8
1
 62
7
  6
CONTINUOUS
 10
58.195562
 20
84.375654
 40
17.013194
 50
35.011924
 51
42.777199
  0
ARC
  8
1
 62
7
  6
CONTINUOUS
 10
73.535493
 20
96.248053
 40
19.008865
 50
-14.860313
 51
26.595012
  0
ARC
  8
1
 62
7
  6
CONTINUOUS
 10
68.768773
 20
101.451732
 40
3.553819
 50
154.062946
 51
-130.044933
  0
ARC
  8
1
 62
7
  6
CONTINUOUS
 10
54.943995
 20
76.875028
 40
24.714811
 50
50.443789
 51
62.169501
  0
ARC
  8
1
 62
7
  6
CONTINUOUS
 10
58.195562
 20
84.375654
 40
17.013194
 50
35.011924
 51
42.777199
  0
ARC
  8
1
 62
7
  6
CONTINUOUS
 10
81.809649
 20
99.078895
 40
10.409144
 50
33.064632
 51
47.999318
  0
ARC
  8
1
 62
7
  6
CONTINUOUS
 10
63.403481
 20
52.202212
 40
17.013194
 50
99.393090
 51
107.011924
  0
ARC
  8
1
 62
7
  6
CONTINUOUS
 10
63.403481
 20
52.202212
 40
17.013194
 50
99.393090
 51
107.011924
  0
ARC
  8
1
 62
7
  6
CONTINUOUS
 10
63.403481
 20
52.202212
 40
17.013194
 50
96.251396
 51
99.393090
  0
ARC
  8
1
 62
7
  6
CONTINUOUS
 10
63.403481
 20
52.202212
 40
17.013194
 50
107.011924
 51
114.777199
  0
ARC
  8
1
 62
7
  6
CONTINUOUS
 10
56.852458
 20
70.460126
 40
19.008865
 50
56.488104
 51
98.595012
  0
ARC
  8
1
 62
7
  6
CONTINUOUS
 10
50.430467
 20
67.534732
 40
3.553819
 50
-133.937054
 51
-58.044933
  0
ARC
  8
1
 62
7
  6
CONTINUOUS
 10
69.532210
 20
46.791967
 40
24.714811
 50
122.443789
 51
134.169501
  0
ARC
  8
1
 62
7
  6
CONTINUOUS
 10
63.403481
 20
52.202212
 40
17.013194
 50
107.011924
 51
114.777199
  0
ARC
  8
1
 62
7
  6
CONTINUOUS
 10
95.611577
 20
47.213097
 40
17.013194
 50
171.393090
 51
179.011924
  0
ARC
  8
1
 62
7
  6
CONTINUOUS
 10
95.611577
 20
47.213097
 40
17.013194
 50
171.393090
 51
179.011924
  0
ARC
  8
1
 62
7
  6
CONTINUOUS
 10
95.611577
 20
47.213097
 40
17.013194
 50
167.182480
 51
171.393090
  0
ARC
  8
1
 62
7
  6
CONTINUOUS
 10
95.611577
 20
47.213097
 40
17.013194
 50
167.182480
 51
171.393090
  0
ARC
  8
1
 62
7
  6
CONTINUOUS
 10
95.611577
 20
47.213097
 40
17.013194
 50
179.011924
 51
-173.222801
  0
ARC
  8
1
 62
7
  6
CONTINUOUS
 10
76.222892
 20
46.624709
 40
19.008865
 50
128.488104
 51
170.595012
  0
ARC
  8
1
 62
7
  6
CONTINUOUS
 10
77.020603
 20
39.613037
 40
3.553819
 50
-61.937054
 51
13.955067
  0
ARC
  8
1
 62
7
  6
CONTINUOUS
 10
102.650907
 20
51.370007
 40
24.714811
 50
-165.556211
 51
-153.830499
  0
ARC
  8
1
 62
7
  6
CONTINUOUS
 10
95.611577
 20
47.213097
 40
17.013194
 50
179.011924
 51
-173.222801
  0
ARC
  8
1
 62
7
  6
CONTINUOUS
 10
67.865032
 20
49.197937
 40
10.409144
 50
177.064632
 51
-168.000682
  0
ARC
  8
1
 62
7
  6
CONTINUOUS
 10
110.309357
 20
76.303096
 40
17.013194
 50
-116.606910
 51
-108.988076
  0
ARC
  8
1
 62
7
  6
CONTINUOUS
 10
110.309357
 20
76.303096
 40
17.013194
 50
-116.606910
 51
-108.988076
  0
ARC
  8
1
 62
7
  6
CONTINUOUS
 10
110.309357
 20
76.303096
 40
17.013194
 50
-120.817520
 51
-116.606910
  0
ARC
  8
1
 62
7
  6
CONTINUOUS
 10
110.309357
 20
76.303096
 40
17.013194
 50
-120.817520
 51
-116.606910
  0
ARC
  8
1
 62
7
  6
CONTINUOUS
 10
110.309357
 20
76.303096
 40
17.013194
 50
-108.988076
 51
-101.222801
  0
ARC
  8
1
 62
7
  6
CONTINUOUS
 10
111.792516
 20
56.273481
 40
3.553819
 50
10.062946
 51
85.955067
  0
ARC
  8
1
 62
7
  6
CONTINUOUS
 10
108.531173
 20
84.282453
 40
24.714811
 50
-93.556211
 51
-81.830499
  0
ARC
  8
1
 62
7
  6
CONTINUOUS
 10
110.309357
 20
76.303096
 40
17.013194
 50
-108.988076
 51
-101.222801
  0
ARC
  8
1
 62
7
  6
CONTINUOUS
 10
99.847508
 20
50.527912
 40
10.409144
 50
-110.935368
 51
-96.000682
  0
ARC
  8
1
 62
7
  6
CONTINUOUS
 10
104.877514
 20
57.681538
 40
19.008865
 50
-136.923264
 51
-117.404988
  0
ARC
  8
1
 62
7
  6
CONTINUOUS
 10
106.692605
 20
94.491896
 40
3.553819
 50
82.062946
 51
157.955067
  0
ARC
  8
1
 62
7
  6
CONTINUOUS
 10
79.046680
 20
100.045422
 40
24.714811
 50
-20.542422
 51
-9.830499
  0
ARC
  8
1
 62
7
  6
CONTINUOUS
 10
108.465755
 20
81.356039
 40
10.409144
 50
-38.935368
 51
-24.000682
  0
ARC
  8
1
 62
7
  6
CONTINUOUS
 10
103.216610
 20
88.350451
 40
19.008865
 50
-87.511896
 51
-45.404988
  0
ARC
  8
1
 62
7
  6
CONTINUOUS
 10
81.052374
 20
76.615189
 40
31.170872
 50
75.655855
 51
80.881850
  0
ARC
  8
1
 62
7
  6
CONTINUOUS
 10
77.847265
 20
71.542216
 40
31.170872
 50
151.517996
 51
152.881850
  0
ARC
  8
1
 62
7
  6
CONTINUOUS
 10
81.681515
 20
66.926342
 40
31.170872
 50
-140.344145
 51
-135.239089
  0
ARC
  8
1
 62
7
  6
CONTINUOUS
 10
87.256321
 20
69.146547
 40
31.170872
 50
-68.344145
 51
-63.118150
  0
ARC
  8
1
 62
7
  6
CONTINUOUS
 10
86.867490
 20
75.134584
 40
31.170872
 50
3.655855
 51
8.694581
  0
ARC
  8
1
 62
7
  6
CONTINUOUS
 10
82.940993
 20
71.872976
 40
21.250000
 50
115.373388
 51
172.846982
  0
ARC
  8
1
 62
7
  6
CONTINUOUS
 10
104.877514
 20
57.681538
 40
19.008865
 50
-159.511896
 51
-146.388767
  0
ARC
  8
1
 62
7
  6
CONTINUOUS
 10
82.940993
 20
71.872976
 40
21.250000
 50
-170.780712
 51
-66.786591
  0
ARC
  8
1
 62
7
  6
CONTINUOUS
 10
82.940993
 20
71.872976
 40
21.250000
 50
-50.391352
 51
42.258947
  0
ARC
  8
1
 62
7
  6
CONTINUOUS
 10
82.940993
 20
71.872976
 40
20.500000
 50
72.030246
 51
172.740681
  0
ARC
  8
1
 62
7
  6
CONTINUOUS
 10
82.940993
 20
71.872976
 40
20.500000
 50
-165.356719
 51
-66.892892
  0
ARC
  8
1
 62
7
  6
CONTINUOUS
 10
82.975793
 20
71.901009
 40
20.455388
 50
-44.728878
 51
42.159849
  0
ARC
  8
1
 62
7
  6
CONTINUOUS
 10
82.940993
 20
71.872976
 40
17.500000
 50
-36.869898
 51
-0.000000
  0
ARC
  8
1
 62
7
  6
CONTINUOUS
 10
82.940993
 20
71.872976
 40
17.500000
 50
0.000000
 51
55.952268
  0
ARC
  8
1
 62
7
  6
CONTINUOUS
 10
56.717022
 20
79.204095
 40
10.409144
 50
105.064632
 51
114.599169
  0
ARC
  8
1
 62
7
  6
DASHDOT
 10
82.940993
 20
71.872976
 40
40.500000
 50
-37.410596
 51
-31.583048
  0
ARC
  8
1
 62
7
  6
DASHDOT
 10
82.940993
 20
71.872976
 40
40.500000
 50
-148.220784
 51
-142.560058
  0
ARC
  8
1
 62
7
  6
CONTINUOUS
 10
82.940993
 20
71.872976
 40
17.500000
 50
55.952268
 51
124.047732
  0
ARC
  8
1
 62
7
  6
CONTINUOUS
 10
172.998782
 20
100.303813
 40
10.943360
 50
-81.076480
 51
-42.664169
  0
ARC
  8
1
 62
7
  6
CONTINUOUS
 10
173.627620
 20
99.334549
 40
10.331575
 50
-83.944789
 51
-44.109078
  0
ARC
  8
1
 62
7
  6
CONTINUOUS
 10
173.750635
 20
98.798121
 40
10.782176
 50
-84.438739
 51
-47.421469
  0
ARC
  8
1
 62
7
  6
CONTINUOUS
 10
174.825680
 20
89.282588
 40
0.246945
 50
121.603600
 51
-115.990387
  0
ARC
  8
1
 62
7
  6
CONTINUOUS
 10
174.850402
 20
88.793314
 40
0.298536
 50
116.442505
 51
-110.221655
  0
ARC
  8
1
 62
7
  6
CONTINUOUS
 10
174.790412
 20
88.292397
 40
0.225760
 50
93.180459
 51
-88.699589
  0
ARC
  8
1
 62
7
  6
CONTINUOUS
 10
172.924508
 20
100.690748
 40
12.313222
 50
-81.487327
 51
-81.342977
  0
ARC
  8
1
 62
7
  6
CONTINUOUS
 10
172.924508
 20
100.690748
 40
12.313222
 50
-81.342977
 51
-48.733435
  0
ARC
  8
1
 62
7
  6
CONTINUOUS
 10
82.940993
 20
71.872976
 40
40.500000
 50
-156.006643
 51
-148.220784
  0
CIRCLE
  8
1
 62
7
  6
CONTINUOUS
 10
73.440993
 20
155.383119
 40
0.800000
  0
CIRCLE
  8
1
 62
7
  6
CONTINUOUS
 10
73.440993
 20
155.383119
 40
2.800000
  0
CIRCLE
  8
1
 62
7
  6
CONTINUOUS
 10
73.440993
 20
160.783119
 40
2.500000
  0
CIRCLE
  8
1
 62
7
  6
CONTINUOUS
 10
97.790993
 20
160.883119
 40
1.825000
  0
CIRCLE
  8
1
 62
7
  6
CONTINUOUS
 10
73.440993
 20
155.383119
 40
1.000000
  0
CIRCLE
  8
1
 62
7
  6
CONTINUOUS
 10
92.207093
 20
112.463997
 40
0.250000
  0
CIRCLE
  8
1
 62
7
  6
CONTINUOUS
 10
82.940993
 20
31.372976
 40
1.125000
  0
CIRCLE
  8
1
 62
7
  6
CONTINUOUS
 10
82.940993
 20
112.372976
 40
1.125000
  0
CIRCLE
  8
1
 62
7
  6
CONTINUOUS
 10
49.563882
 20
48.933523
 40
1.125000
  0
CIRCLE
  8
1
 62
7
  6
CONTINUOUS
 10
116.318104
 20
48.933523
 40
1.125000
  0
ARC
  8
1
 62
7
  6
CONTINUOUS
 10
50.227157
 20
111.992329
 40
39.485432
 50
3.028115
 51
3.419655
  0
ARC
  8
1
 62
7
  6
CONTINUOUS
 10
76.616030
 20
113.388069
 40
13.059674
 50
1.848364
 51
3.029111
  0
ARC
  8
1
 62
7
  6
CONTINUOUS
 10
81.945518
 20
113.559838
 40
7.727418
 50
-0.136308
 51
1.849995
  0
ARC
  8
1
 62
7
  6
CONTINUOUS
 10
84.244485
 20
113.554229
 40
5.428444
 50
-2.946768
 51
-0.134834
  0
ARC
  8
1
 62
7
  6
CONTINUOUS
 10
85.520079
 20
113.488372
 40
4.151152
 50
-14.253123
 51
-2.944087
  0
ARC
  8
1
 62
7
  6
CONTINUOUS
 10
81.873051
 20
114.370460
 40
7.903207
 50
-17.993338
 51
-13.941491
  0
ARC
  8
1
 62
7
  6
CONTINUOUS
 10
63.375403
 20
120.373487
 40
27.350554
 50
-19.163322
 51
-17.983684
  0
ARC
  8
1
 62
7
  6
CONTINUOUS
 10
107.862128
 20
104.913205
 40
19.746038
 50
160.835883
 51
162.469162
  0
ARC
  8
1
 62
7
  6
CONTINUOUS
 10
95.815870
 20
108.718505
 40
7.113040
 50
162.469162
 51
166.968310
  0
ARC
  8
1
 62
7
  6
CONTINUOUS
 10
93.991649
 20
109.140722
 40
5.240596
 50
166.968310
 51
174.110606
  0
ARC
  8
1
 62
7
  6
CONTINUOUS
 10
97.615792
 20
108.766882
 40
8.883968
 50
174.110606
 51
178.333687
  0
ARC
  8
1
 62
7
  6
CONTINUOUS
 10
97.740628
 20
108.763250
 40
9.008858
 50
178.333687
 51
-177.466516
  0
ARC
  8
1
 62
7
  6
CONTINUOUS
 10
117.653396
 20
109.644320
 40
28.941108
 50
-177.466516
 51
-176.148278
  0
ARC
  8
1
 62
7
  6
CONTINUOUS
 10
116.052928
 20
109.536566
 40
27.337017
 50
-176.148278
 51
-174.745568
  0
ARC
  8
1
 62
7
  6
CONTINUOUS
 10
66.399933
 20
109.335824
 40
32.469119
 50
3.532738
 51
4.446283
  0
ARC
  8
1
 62
7
  6
CONTINUOUS
 10
88.363958
 20
110.689934
 40
10.463393
 50
0.739711
 51
3.542932
  0
ARC
  8
1
 62
7
  6
CONTINUOUS
 10
92.907642
 20
110.746907
 40
5.919353
 50
-4.103345
 51
0.756077
  0
ARC
  8
1
 62
7
  6
CONTINUOUS
 10
94.854469
 20
110.606516
 40
3.967470
 50
-11.192048
 51
-4.092888
  0
ARC
  8
1
 62
7
  6
CONTINUOUS
 10
95.825819
 20
110.415056
 40
2.977432
 50
-27.407466
 51
-11.205863
  0
ARC
  8
1
 62
7
  6
CONTINUOUS
 10
93.016051
 20
111.825685
 40
6.121290
 50
-30.401243
 51
-27.022893
  0
ARC
  8
1
 62
7
  6
CONTINUOUS
 10
76.689406
 20
121.399419
 40
25.047878
 50
-31.223977
 51
-30.390338
  0
ARC
  8
1
 62
7
  6
CONTINUOUS
 10
108.926982
 20
101.856885
 40
12.650557
 50
148.774781
 51
150.424935
  0
ARC
  8
1
 62
7
  6
CONTINUOUS
 10
102.213869
 20
105.666600
 40
4.931760
 50
150.424935
 51
154.618738
  0
ARC
  8
1
 62
7
  6
CONTINUOUS
 10
101.122116
 20
106.184566
 40
3.723367
 50
154.618738
 51
164.677792
  0
ARC
  8
1
 62
7
  6
CONTINUOUS
 10
103.133641
 20
105.633436
 40
5.809027
 50
164.677792
 51
171.144755
  0
ARC
  8
1
 62
7
  6
CONTINUOUS
 10
104.053409
 20
105.490141
 40
6.739890
 50
171.144755
 51
176.808533
  0
ARC
  8
1
 62
7
  6
CONTINUOUS
 10
115.303097
 20
104.862866
 40
18.007053
 50
176.808533
 51
178.963112
  0
ARC
  8
1
 62
7
  6
CONTINUOUS
 10
121.036674
 20
104.759094
 40
23.741569
 50
178.963112
 51
-179.386555
  0
ARC
  8
1
 62
7
  6
CONTINUOUS
 10
119.990993
 20
154.383119
 40
0.250000
 50
-90.000000
 51
0.000000
  0
ARC
  8
1
 62
7
  6
CONTINUOUS
 10
119.990993
 20
167.383119
 40
0.250000
 50
0.000000
 51
90.000000
  0
ARC
  8
1
 62
7
  6
CONTINUOUS
 10
118.040993
 20
84.872976
 40
1.500000
 50
0.000000
 51
90.000000
  0
ARC
  8
1
 62
7
  6
CONTINUOUS
 10
47.200257
 20
88.691114
 40
1.500000
 50
32.700000
 51
124.948695
  0
ARC
  8
1
 62
7
  6
CONTINUOUS
 10
107.453689
 20
114.322976
 40
0.250000
 50
51.500000
 51
90.000000
  0
ARC
  8
1
 62
7
  6
CONTINUOUS
 10
119.990993
 20
104.350354
 40
0.250000
 50
0.000000
 51
51.500000
  0
ARC
  8
1
 62
7
  6
CONTINUOUS
 10
99.433416
 20
84.872976
 40
1.500000
 50
149.659087
 51
-141.753380
  0
ARC
  8
1
 62
7
  6
CONTINUOUS
 10
89.555583
 20
34.707001
 40
3.250000
 50
153.034581
 51
-79.908485
  0
ARC
  8
1
 62
7
  6
CONTINUOUS
 10
116.396187
 20
92.872976
 40
1.500000
 50
-90.000000
 51
32.116707
  0
ARC
  8
1
 62
7
  6
CONTINUOUS
 10
89.847567
 20
52.041202
 40
1.500000
 50
40.613549
 51
109.201082
  0
ARC
  8
1
 62
7
  6
CONTINUOUS
 10
62.338471
 20
75.939436
 40
1.500000
 50
-79.752878
 51
-11.165345
  0
ARC
  8
1
 62
7
  6
CONTINUOUS
 10
51.394095
 20
94.375325
 40
2.250000
 50
144.499800
 51
-147.300000
  0
ARC
  8
1
 62
7
  6
CONTINUOUS
 10
88.767578
 20
110.940877
 40
1.500000
 50
81.517433
 51
166.191169
  0
ARC
  8
1
 62
7
  6
CONTINUOUS
 10
77.114408
 20
110.940877
 40
1.500000
 50
13.808831
 51
98.482567
  0
ARC
  8
1
 62
7
  6
CONTINUOUS
 10
85.940993
 20
89.372976
 40
0.500000
 50
-41.125037
 51
0.000000
  0
ARC
  8
1
 62
7
  6
CONTINUOUS
 10
87.440993
 20
89.872976
 40
1.000000
 50
90.000000
 51
180.000000
  0
ARC
  8
1
 62
7
  6
CONTINUOUS
 10
76.973113
 20
32.826408
 40
1.500000
 50
-98.689843
 51
-40.000000
  0
ARC
  8
1
 62
7
  6
CONTINUOUS
 10
47.781330
 20
53.871641
 40
1.500000
 50
-152.888086
 51
-70.151522
  0
ARC
  8
1
 62
7
  6
CONTINUOUS
 10
53.535203
 20
45.499703
 40
1.500000
 50
139.151522
 51
-138.111914
  0
ARC
  8
1
 62
7
  6
CONTINUOUS
 10
112.346784
 20
45.499703
 40
1.500000
 50
-41.888086
 51
40.848478
  0
ARC
  8
1
 62
7
  6
CONTINUOUS
 10
118.100657
 20
53.871641
 40
1.500000
 50
-109.848478
 51
-27.111914
  0
ARC
  8
1
 62
7
  6
CONTINUOUS
 10
87.590993
 20
89.822976
 40
1.000000
 50
90.000000
 51
180.000000
  0
ARC
  8
1
 62
7
  6
CONTINUOUS
 10
86.090993
 20
89.322976
 40
0.500000
 50
-38.600332
 51
0.000000
  0
ARC
  8
1
 62
7
  6
CONTINUOUS
 10
62.338471
 20
75.939436
 40
1.500000
 50
-147.300000
 51
-79.752878
  0
ARC
  8
1
 62
7
  6
CONTINUOUS
 10
89.847567
 20
52.041202
 40
1.500000
 50
-26.965419
 51
40.613549
  0
ARC
  8
1
 62
7
  6
CONTINUOUS
 10
99.433416
 20
84.872976
 40
1.500000
 50
90.000000
 51
149.659087
  0
ARC
  8
1
 62
7
  6
CONTINUOUS
 10
197.295856
 20
112.872976
 40
2.000000
 50
0.000000
 51
90.000000
  0
ARC
  8
1
 62
7
  6
CONTINUOUS
 10
197.295856
 20
30.872976
 40
2.000000
 50
-90.000000
 51
0.000000
  0
ARC
  8
1
 62
7
  6
CONTINUOUS
 10
196.795856
 20
29.372976
 40
0.500000
 50
180.000000
 51
-90.000000
  0
ARC
  8
1
 62
7
  6
CONTINUOUS
 10
196.795856
 20
114.372976
 40
0.500000
 50
90.000000
 51
180.000000
  0
LINE
  8
1
 62
7
  6
CONTINUOUS
 10
90.989662
 20
10.680904
 11
93.075251
 21
11.036188
  0
LINE
  8
1
 62
7
  6
CONTINUOUS
 10
90.666027
 20
10.291899
 11
90.555483
 21
10.940813
  0
LINE
  8
1
 62
7
  6
CONTINUOUS
 10
90.555483
 20
10.940813
 11
93.075251
 21
11.036188
  0
LINE
  8
1
 62
7
  6
CONTINUOUS
 10
93.075251
 20
11.036188
 11
90.666027
 21
10.291899
  0
LINE
  8
1
 62
7
  6
CONTINUOUS
 10
82.940993
 20
71.872976
 11
110.608328
 21
38.956132
  0
LINE
  8
1
 62
7
  6
CONTINUOUS
 10
108.003602
 20
41.338930
 11
108.709069
 21
41.931891
  0
LINE
  8
1
 62
7
  6
CONTINUOUS
 10
108.709069
 20
41.931891
 11
110.608328
 21
38.956132
  0
LINE
  8
1
 62
7
  6
CONTINUOUS
 10
110.608328
 20
38.956132
 11
108.003602
 21
41.338930
  0
LINE
  8
1
 62
7
  6
CONTINUOUS
 10
88.817582
 20
120.603569
 11
83.583409
 21
113.296516
  0
LINE
  8
1
 62
7
  6
CONTINUOUS
 10
85.246975
 20
116.410174
 11
85.996165
 21
115.873517
  0
LINE
  8
1
 62
7
  6
CONTINUOUS
 10
85.996165
 20
115.873517
 11
83.583409
 21
113.296516
  0
LINE
  8
1
 62
7
  6
CONTINUOUS
 10
83.583409
 20
113.296516
 11
85.246975
 21
116.410174
  0
LINE
  8
1
 62
7
  6
CONTINUOUS
 10
73.480914
 20
118.935191
 11
78.580207
 21
102.676275
  0
CIRCLE
  8
1
 62
7
  6
CONTINUOUS
 10
78.580207
 20
102.676275
 40
0.875000
  0
LINE
  8
1
 62
7
  6
CONTINUOUS
 10
62.468184
 20
139.280549
 11
72.961815
 21
154.742504
  0
LINE
  8
1
 62
7
  6
CONTINUOUS
 10
71.377625
 20
151.587719
 11
70.615087
 21
152.105234
  0
LINE
  8
1
 62
7
  6
CONTINUOUS
 10
70.615087
 20
152.105234
 11
72.961815
 21
154.742504
  0
LINE
  8
1
 62
7
  6
CONTINUOUS
 10
72.961815
 20
154.742504
 11
71.377625
 21
151.587719
  0
LINE
  8
1
 62
7
  6
CONTINUOUS
 10
86.512668
 20
184.340495
 11
93.142247
 21
162.958119
  0
LINE
  8
1
 62
7
  6
CONTINUOUS
 10
91.665637
 20
166.164667
 11
92.545867
 21
166.437581
  0
LINE
  8
1
 62
7
  6
CONTINUOUS
 10
92.545867
 20
166.437581
 11
93.142247
 21
162.958119
  0
LINE
  8
1
 62
7
  6
CONTINUOUS
 10
93.142247
 20
162.958119
 11
91.665637
 21
166.164667
  0
LINE
  8
1
 62
7
  6
CONTINUOUS
 10
127.422205
 20
59.032846
 11
93.207029
 21
74.776227
  0
CIRCLE
  8
1
 62
7
  6
CONTINUOUS
 10
93.207029
 20
74.776227
 40
0.875000
  0
LINE
  8
1
 62
7
  6
CONTINUOUS
 10
194.833931
 20
16.132305
 11
177.808325
 21
16.132305
  0
LINE
  8
1
 62
7
  6
CONTINUOUS
 10
181.308325
 20
16.593088
 11
181.308325
 21
15.671521
  0
LINE
  8
1
 62
7
  6
CONTINUOUS
 10
181.308325
 20
15.671521
 11
177.808325
 21
16.132305
  0
LINE
  8
1
 62
7
  6
CONTINUOUS
 10
177.808325
 20
16.132305
 11
181.308325
 21
16.593088
  0
TEXT
  8
1
 62
7
  6
CONTINUOUS
 10
94.265529
 20
121.567180
 40
2.450000
 41
0.900000
  1
r
  7
KANJI
 50
0.000000
 51
0.000000
  0
TEXT
  8
1
 62
7
  6
CONTINUOUS
 10
88.759095
 20
122.124213
 40
3.500000
 41
0.900000
  1
8- 4.5ü}0.3
  7
KANJI
 50
0.000000
 51
0.000000
  0
TEXT
  8
1
 62
7
  6
CONTINUOUS
 10
75.552963
 20
12.679971
 40
3.500000
 41
0.900000
  1
ë±ô]ò¹î³
  7
KANJI
 50
0.000000
 51
0.000000
  0
TEXT
  8
1
 62
7
  6
CONTINUOUS
 10
36.371478
 20
134.200703
 40
3.500000
 41
0.900000
  1
M4 ùLî°É[âT6
  7
KANJI
 50
0.000000
 51
0.000000
  0
TEXT
  8
1
 62
7
  6
CONTINUOUS
 10
35.422126
 20
140.343050
 40
3.500000
 41
0.900000
  1
âAü[âXùpâ^âbâv
  7
KANJI
 50
0.000000
 51
0.000000
  0
TEXT
  8
1
 62
7
  6
CONTINUOUS
 10
55.743387
 20
120.111178
 40
3.500000
 41
0.900000
  1
ëHì¬ûçÉö5
  7
KANJI
 50
0.000000
 51
0.000000
  0
TEXT
  8
1
 62
7
  6
CONTINUOUS
 10
88.553814
 20
185.521892
 40
3.500000
 41
0.900000
  1
Æ[Äq
  7
KANJI
 50
0.000000
 51
0.000000
  0
TEXT
  8
1
 62
7
  6
CONTINUOUS
 10
90.536855
 20
179.747772
 40
3.500000
 41
0.900000
  1
î·0.5ü~ïð3
  7
KANJI
 50
0.000000
 51
0.000000
  0
TEXT
  8
1
 62
7
  6
CONTINUOUS
 10
115.449541
 20
179.938901
 40
3.500000
 41
0.900000
  1
ÆÀâT7.5
  7
KANJI
 50
0.000000
 51
0.000000
  0
TEXT
  8
1
 62
7
  6
CONTINUOUS
 10
128.614471
 20
60.260084
 40
3.500000
 41
0.900000
  1
û┴ö┬
  7
KANJI
 50
0.000000
 51
0.000000
  0
TEXT
  8
1
 62
7
  6
CONTINUOUS
 10
77.185111
 20
80.289175
 40
3.000000
 41
0.900000
  1
Maxi
  7
KANJI
 50
0.000000
 51
30.000000
  0
TEXT
  8
1
 62
7
  6
CONTINUOUS
 10
183.814771
 20
17.801346
 40
3.500000
 41
0.900000
  1
òù î³
  7
KANJI
 50
0.000000
 51
0.000000
  0
LINE
  8
1
 62
7
  6
CONTINUOUS
 10
62.460241
 20
155.383120
 11
62.460241
 21
172.383120
  0
LINE
  8
1
 62
7
  6
CONTINUOUS
 10
80.565993
 20
172.383120
 11
61.460241
 21
172.383120
  0
LINE
  8
1
 62
7
  6
CONTINUOUS
 10
69.953283
 20
155.383120
 11
61.460241
 21
155.383120
  0
LINE
  8
1
 62
7
  6
CONTINUOUS
 10
62.460241
 20
155.383120
 11
62.005241
 21
158.883120
  0
LINE
  8
1
 62
7
  6
CONTINUOUS
 10
62.005241
 20
158.883120
 11
62.915241
 21
158.883120
  0
LINE
  8
1
 62
7
  6
CONTINUOUS
 10
62.915241
 20
158.883120
 11
62.460241
 21
155.383120
  0
LINE
  8
1
 62
7
  6
CONTINUOUS
 10
62.460241
 20
172.383120
 11
62.915241
 21
168.883120
  0
LINE
  8
1
 62
7
  6
CONTINUOUS
 10
62.915241
 20
168.883120
 11
62.005241
 21
168.883120
  0
LINE
  8
1
 62
7
  6
CONTINUOUS
 10
62.005241
 20
168.883120
 11
62.460241
 21
172.383120
  0
TEXT
  8
1
 62
7
  6
CONTINUOUS
 10
61.460241
 20
161.483120
 40
3.200000
 41
0.900000
  1
34
  7
KANJI
 50
90.000000
 51
0.000000
  0
LINE
  8
1
 62
7
  6
CONTINUOUS
 10
82.940993
 20
132.572976
 11
89.940993
 21
132.572976
  0
LINE
  8
1
 62
7
  6
CONTINUOUS
 10
73.440993
 20
132.572976
 11
66.440993
 21
132.572976
  0
LINE
  8
1
 62
7
  6
CONTINUOUS
 10
73.440993
 20
132.572976
 11
82.940993
 21
132.572976
  0
LINE
  8
1
 62
7
  6
CONTINUOUS
 10
82.940993
 20
144.403211
 11
82.940993
 21
131.572976
  0
LINE
  8
1
 62
7
  6
CONTINUOUS
 10
73.440993
 20
152.057110
 11
73.440993
 21
131.572976
  0
LINE
  8
1
 62
7
  6
CONTINUOUS
 10
82.940993
 20
132.572976
 11
86.440993
 21
133.027976
  0
LINE
  8
1
 62
7
  6
CONTINUOUS
 10
86.440993
 20
133.027976
 11
86.440993
 21
132.117976
  0
LINE
  8
1
 62
7
  6
CONTINUOUS
 10
86.440993
 20
132.117976
 11
82.940993
 21
132.572976
  0
LINE
  8
1
 62
7
  6
CONTINUOUS
 10
73.440993
 20
132.572976
 11
69.940993
 21
132.117976
  0
LINE
  8
1
 62
7
  6
CONTINUOUS
 10
69.940993
 20
132.117976
 11
69.940993
 21
133.027976
  0
LINE
  8
1
 62
7
  6
CONTINUOUS
 10
69.940993
 20
133.027976
 11
73.440993
 21
132.572976
  0
TEXT
  8
1
 62
7
  6
CONTINUOUS
 10
76.270993
 20
133.572976
 40
3.200000
 41
0.900000
  1
19
  7
KANJI
 50
0.000000
 51
0.000000
  0
LINE
  8
1
 62
7
  6
CONTINUOUS
 10
45.340993
 20
19.094638
 11
120.540993
 21
19.094638
  0
LINE
  8
1
 62
7
  6
CONTINUOUS
 10
45.340993
 20
51.010569
 11
45.340993
 21
18.094638
  0
LINE
  8
1
 62
7
  6
CONTINUOUS
 10
120.540993
 20
51.010569
 11
120.540993
 21
18.094638
  0
LINE
  8
1
 62
7
  6
CONTINUOUS
 10
45.340993
 20
19.094638
 11
48.840993
 21
19.549638
  0
LINE
  8
1
 62
7
  6
CONTINUOUS
 10
48.840993
 20
19.549638
 11
48.840993
 21
18.639638
  0
LINE
  8
1
 62
7
  6
CONTINUOUS
 10
48.840993
 20
18.639638
 11
45.340993
 21
19.094638
  0
LINE
  8
1
 62
7
  6
CONTINUOUS
 10
120.540993
 20
19.094638
 11
117.040993
 21
18.639638
  0
LINE
  8
1
 62
7
  6
CONTINUOUS
 10
117.040993
 20
18.639638
 11
117.040993
 21
19.549638
  0
LINE
  8
1
 62
7
  6
CONTINUOUS
 10
117.040993
 20
19.549638
 11
120.540993
 21
19.094638
  0
TEXT
  8
1
 62
7
  6
CONTINUOUS
 10
79.580993
 20
20.094638
 40
3.200000
 41
0.900000
  1
150
  7
KANJI
 50
0.000000
 51
0.000000
  0
LINE
  8
1
 62
7
  6
CONTINUOUS
 10
22.772613
 20
31.372976
 11
22.772613
 21
112.372976
  0
LINE
  8
1
 62
7
  6
CONTINUOUS
 10
80.790674
 20
31.372976
 11
21.772613
 21
31.372976
  0
LINE
  8
1
 62
7
  6
CONTINUOUS
 10
79.585143
 20
112.372976
 11
21.772613
 21
112.372976
  0
LINE
  8
1
 62
7
  6
CONTINUOUS
 10
22.772613
 20
112.372976
 11
23.227613
 21
108.872976
  0
LINE
  8
1
 62
7
  6
CONTINUOUS
 10
23.227613
 20
108.872976
 11
22.317613
 21
108.872976
  0
LINE
  8
1
 62
7
  6
CONTINUOUS
 10
22.317613
 20
108.872976
 11
22.772613
 21
112.372976
  0
LINE
  8
1
 62
7
  6
CONTINUOUS
 10
22.772613
 20
31.372976
 11
22.317613
 21
34.872976
  0
LINE
  8
1
 62
7
  6
CONTINUOUS
 10
22.317613
 20
34.872976
 11
23.227613
 21
34.872976
  0
LINE
  8
1
 62
7
  6
CONTINUOUS
 10
23.227613
 20
34.872976
 11
22.772613
 21
31.372976
  0
TEXT
  8
1
 62
7
  6
CONTINUOUS
 10
21.772613
 20
67.222361
 40
3.200000
 41
0.900000
  1
162ü}0.3
  7
KANJI
 50
90.000000
 51
0.000000
  0
LINE
  8
1
 62
7
  6
CONTINUOUS
 10
133.464477
 20
71.872976
 11
133.464477
 21
114.572976
  0
LINE
  8
1
 62
7
  6
CONTINUOUS
 10
107.258132
 20
114.572976
 11
134.464477
 21
114.572976
  0
LINE
  8
1
 62
7
  6
CONTINUOUS
 10
129.419010
 20
71.872976
 11
134.464477
 21
71.872976
  0
LINE
  8
1
 62
7
  6
CONTINUOUS
 10
133.464477
 20
71.872976
 11
133.009477
 21
75.372976
  0
LINE
  8
1
 62
7
  6
CONTINUOUS
 10
133.009477
 20
75.372976
 11
133.919477
 21
75.372976
  0
LINE
  8
1
 62
7
  6
CONTINUOUS
 10
133.919477
 20
75.372976
 11
133.464477
 21
71.872976
  0
LINE
  8
1
 62
7
  6
CONTINUOUS
 10
133.464477
 20
114.572976
 11
133.919477
 21
111.072976
  0
LINE
  8
1
 62
7
  6
CONTINUOUS
 10
133.919477
 20
111.072976
 11
133.009477
 21
111.072976
  0
LINE
  8
1
 62
7
  6
CONTINUOUS
 10
133.009477
 20
111.072976
 11
133.464477
 21
114.572976
  0
TEXT
  8
1
 62
7
  6
CONTINUOUS
 10
132.464477
 20
88.862976
 40
3.200000
 41
0.900000
  1
85.4
  7
KANJI
 50
90.000000
 51
0.000000
  0
LINE
  8
1
 62
7
  6
CONTINUOUS
 10
199.295856
 20
124.572976
 11
206.295856
 21
124.572976
  0
LINE
  8
1
 62
7
  6
CONTINUOUS
 10
196.295856
 20
124.572976
 11
199.295856
 21
124.572976
  0
LINE
  8
1
 62
7
  6
CONTINUOUS
 10
189.295856
 20
124.572976
 11
196.295856
 21
124.572976
  0
LINE
  8
1
 62
7
  6
CONTINUOUS
 10
199.295856
 20
112.872976
 11
199.295856
 21
125.572976
  0
LINE
  8
1
 62
7
  6
CONTINUOUS
 10
196.295856
 20
109.472976
 11
196.295856
 21
125.572976
  0
LINE
  8
1
 62
7
  6
CONTINUOUS
 10
196.295856
 20
124.572976
 11
192.795856
 21
124.117976
  0
LINE
  8
1
 62
7
  6
CONTINUOUS
 10
192.795856
 20
124.117976
 11
192.795856
 21
125.027976
  0
LINE
  8
1
 62
7
  6
CONTINUOUS
 10
192.795856
 20
125.027976
 11
196.295856
 21
124.572976
  0
LINE
  8
1
 62
7
  6
CONTINUOUS
 10
199.295856
 20
124.572976
 11
202.795856
 21
125.027976
  0
LINE
  8
1
 62
7
  6
CONTINUOUS
 10
202.795856
 20
125.027976
 11
202.795856
 21
124.117976
  0
LINE
  8
1
 62
7
  6
CONTINUOUS
 10
202.795856
 20
124.117976
 11
199.295856
 21
124.572976
  0
TEXT
  8
1
 62
7
  6
CONTINUOUS
 10
202.588430
 20
125.572976
 40
3.200000
 41
0.900000
  1
6
  7
KANJI
 50
0.000000
 51
0.000000
  0
LINE
  8
1
 62
7
  6
CONTINUOUS
 10
173.795856
 20
134.572976
 11
199.295856
 21
134.572976
  0
LINE
  8
1
 62
7
  6
CONTINUOUS
 10
199.295856
 20
112.872976
 11
199.295856
 21
135.572976
  0
LINE
  8
1
 62
7
  6
CONTINUOUS
 10
173.795856
 20
114.872976
 11
173.795856
 21
135.572976
  0
LINE
  8
1
 62
7
  6
CONTINUOUS
 10
173.795856
 20
134.572976
 11
177.295856
 21
135.027976
  0
LINE
  8
1
 62
7
  6
CONTINUOUS
 10
177.295856
 20
135.027976
 11
177.295856
 21
134.117976
  0
LINE
  8
1
 62
7
  6
CONTINUOUS
 10
177.295856
 20
134.117976
 11
173.795856
 21
134.572976
  0
LINE
  8
1
 62
7
  6
CONTINUOUS
 10
199.295856
 20
134.572976
 11
195.795856
 21
134.117976
  0
LINE
  8
1
 62
7
  6
CONTINUOUS
 10
195.795856
 20
134.117976
 11
195.795856
 21
135.027976
  0
LINE
  8
1
 62
7
  6
CONTINUOUS
 10
195.795856
 20
135.027976
 11
199.295856
 21
134.572976
  0
TEXT
  8
1
 62
7
  6
CONTINUOUS
 10
184.625856
 20
135.572976
 40
3.200000
 41
0.900000
  1
51
  7
KANJI
 50
0.000000
 51
0.000000
  0
LINE
  8
1
 62
7
  6
CONTINUOUS
 10
173.795856
 20
124.572976
 11
165.115603
 21
124.572976
  0
LINE
  8
1
 62
7
  6
CONTINUOUS
 10
173.795856
 20
124.572976
 11
177.445856
 21
124.572976
  0
LINE
  8
1
 62
7
  6
CONTINUOUS
 10
184.445856
 20
124.572976
 11
177.445856
 21
124.572976
  0
LINE
  8
1
 62
7
  6
CONTINUOUS
 10
177.445856
 20
114.872976
 11
177.445856
 21
125.572976
  0
LINE
  8
1
 62
7
  6
CONTINUOUS
 10
173.795856
 20
114.872976
 11
173.795856
 21
125.572976
  0
LINE
  8
1
 62
7
  6
CONTINUOUS
 10
177.445856
 20
124.572976
 11
180.945856
 21
125.027976
  0
LINE
  8
1
 62
7
  6
CONTINUOUS
 10
180.945856
 20
125.027976
 11
180.945856
 21
124.117976
  0
LINE
  8
1
 62
7
  6
CONTINUOUS
 10
180.945856
 20
124.117976
 11
177.445856
 21
124.572976
  0
LINE
  8
1
 62
7
  6
CONTINUOUS
 10
173.795856
 20
124.572976
 11
170.295856
 21
124.117976
  0
LINE
  8
1
 62
7
  6
CONTINUOUS
 10
170.295856
 20
124.117976
 11
170.295856
 21
125.027976
  0
LINE
  8
1
 62
7
  6
CONTINUOUS
 10
170.295856
 20
125.027976
 11
173.795856
 21
124.572976
  0
TEXT
  8
1
 62
7
  6
CONTINUOUS
 10
165.115603
 20
125.572976
 40
3.200000
 41
0.900000
  1
7
  7
KANJI
 50
0.000000
 51
0.000000
  0
LINE
  8
1
 62
7
  6
CONTINUOUS
 10
82.940993
 20
71.872976
 11
27.702278
 21
44.750636
  0
LINE
  8
1
 62
7
  6
CONTINUOUS
 10
46.586796
 20
54.022979
 11
44.485951
 21
52.629396
  0
LINE
  8
1
 62
7
  6
CONTINUOUS
 10
44.485951
 20
52.629396
 11
44.199469
 21
53.212859
  0
LINE
  8
1
 62
7
  6
CONTINUOUS
 10
44.199469
 20
53.212859
 11
46.586796
 21
54.022979
  0
TEXT
  8
1
 62
7
  6
CONTINUOUS
 10
30.708454
 20
47.340715
 40
3.200000
 41
0.900000
  1
81ü}0.2
  7
KANJI
 50
26.151147
 51
0.000000
  0
TEXT
  8
1
 62
7
  6
CONTINUOUS
 10
27.261537
 20
45.648271
 40
3.200000
 41
0.900000
  1
R
  7
KANJI
 50
26.151147
 51
0.000000
  0
LINE
  8
1
 62
7
  6
CONTINUOUS
 10
46.683399
 20
115.010570
 11
31.923399
 21
115.010570
  0
LINE
  8
1
 62
7
  6
CONTINUOUS
 10
82.940993
 20
71.872976
 11
46.683399
 21
115.010570
  0
LINE
  8
1
 62
7
  6
CONTINUOUS
 10
55.273885
 20
104.790010
 11
57.874167
 21
102.403473
  0
LINE
  8
1
 62
7
  6
CONTINUOUS
 10
57.874167
 20
102.403473
 11
57.177551
 21
101.817960
  0
LINE
  8
1
 62
7
  6
CONTINUOUS
 10
57.177551
 20
101.817960
 11
55.273885
 21
104.790010
  0
TEXT
  8
1
 62
7
  6
CONTINUOUS
 10
35.763399
 20
116.010570
 40
3.200000
 41
0.900000
  1
172
  7
KANJI
 50
0.000000
 51
0.000000
  0
TEXT
  8
1
 62
7
  6
CONTINUOUS
 10
31.923399
 20
116.010570
 40
3.200000
 41
0.900000
  1
âË
  7
KANJI
 50
0.000000
 51
0.000000
  0
ARC
  8
1
 62
7
  6
CONTINUOUS
 10
82.940993
 20
71.872976
 40
30.746369
 50
-145.500000
 51
-34.500000
  0
LINE
  8
1
 62
7
  6
CONTINUOUS
 10
57.602105
 20
54.458041
 11
60.105113
 21
51.969672
  0
LINE
  8
1
 62
7
  6
CONTINUOUS
 10
60.105113
 20
51.969672
 11
59.385693
 21
51.412415
  0
LINE
  8
1
 62
7
  6
CONTINUOUS
 10
59.385693
 20
51.412415
 11
57.602105
 21
54.458041
  0
LINE
  8
1
 62
7
  6
CONTINUOUS
 10
108.279881
 20
54.458041
 11
106.496293
 21
51.412415
  0
LINE
  8
1
 62
7
  6
CONTINUOUS
 10
106.496293
 20
51.412415
 11
105.776873
 21
51.969672
  0
LINE
  8
1
 62
7
  6
CONTINUOUS
 10
105.776873
 20
51.969672
 11
108.279881
 21
54.458041
  0
TEXT
  8
1
 62
7
  6
CONTINUOUS
 10
64.738606
 20
48.084114
 40
3.200000
 41
0.900000
  1
111▀
  7
KANJI
 50
329.326718
 51
0.000000
  0
ENDSEC
  0
EOF
